Oops, an error
Loading. Please wait.

Decemberunderground Tab

by Afi
12,640 views 3 this week
14 commentsread comments
1 2 3 4 5
accurate
x 15
Autoscroll
+/-
esc
set tempo
stop
Contributor
Difficulty
intermediate
Hey! There's an official Ultimate Guitar app which is ideal
for learning songs when you're away from computer. Get the app
WARNING: You are trying to view
                                    content from Ultimate-Guitar.com
                                    in an unauthorized application,
                                    which is prohibited.

                                    Please use an official Ultimate
                                    Guitar Tabs application for iPhone,
                                    iPad or Android to access legitimate
                                    chords, guitar, bass, and drum tabs
                                    from Ultimate-Guitar.com database.

                                    Type "ultimate guitar tabs" in Apple
                                    App Store's or Android Market's
                                    search to find the application.
[Decemberunderground]

By: Joshua Oliveira
Tunings Used: D# G# C# F# A# D# (Regular AFI)
              C# G# C# F# A# D# (Regular AFI, plus Drop D)

Symbols used are listed at the end of the tab, look if you are unsure
of something you see! Also use times to check parts if your not sure
where they take place in the song, that's what they're there for! And
yes AFI does do a couple of songs in Drop D..if yu don't believe me
try to play the songs in regular D# G# C# F# A# D# tuning n see how
it sounds! :)

Also this tab is Huge! So most likely i forgot some things..let me
kno if i did so i can get it in ther..and jsut in case yu were gona
print this, its a good 43 pages long! So yeah..


OK! Here goes..


1.) [Prelude 12/21] - [1:39]
Tuning: D# G# C# F# A# D#

There's not much guitar in this song but I tabbed out some of the
sounds I heard..

[High Pitched Noises] - [00:18] - [00:53]
- ---12~---------|
- ------12-13-10-| I'm gonna be lazy here n say that its played wayy
- -9~------------| to many times to tab out..so just play that from
- ---------------| 00:18 till 00:53.
- ---------------|
- ---------------|

[Orchestra] - [00:56] - [01:08] AND [01:22] - [01:34--|
- ----------------------------------------------------|
- -----10-12---13---10-12-----------------------------| This is that orchestra sorta noise you
- -9---9--11---12---9--11-----------------------------| hear between the Oh's once the song picks
- -9---7--9----10---7--9------------------------------| up. Once again it's played too many times
- -7--------------------------------------------------| to tab each n every one of them.
- ----------------------------------------------------|

Now here's the guitar.

[Actual Guitar] - [01:08] - [01:19]
- ------------------------------------------------------------------|
- ------------------------------------------------------------------|
- ------------------------------------------------------------------|
- -----------------------------------------------9-9-9-9-9-9-9-9-9--|
- -7-7-7-7-7-7-7-7-7-7-7-7-7-7-7-7-7-7-7-7-7-7-7-7-7-7-7-7-7-7-7-7--|
- -------------------------------------------------------0-0-0-0-0--|
PM .......................................

[More Guitar] - [01:22] - [01:35]
- -------------------------------------------------------------------|
- -------------------------------------------------------------------|
- -----------------------------Acoustic------------------------------|
- -------------------------------------------------------------------|
- -7-7-7-7-7-7-7-7-7-7-7-7-7-7-7-7-7-7-7-7-7-7-7-7-7-7-7-7-7-7-7-7-7-|
- -------------------------------------------------------------------|

[End Noise] - [01:35] - [01:39]
- ---12~---------|
- ------12-13-10-|
- -9~------------|
- ---------------|
- ---------------|
- ---------------|


2.) [Kill Caustic] - [2:38]
Tuning: D# G# C# F# A# D#

[Intro] - [00:00] - [00:03]
   V  V  V  V  V
- -6--6--6--6--6--|
- -10-10-10-10-10-|
- -9--9--9--9--9--|
- ----------------|
- ----------------|
- ----------------|

[Verse 1] - [00:03] - [00:32]
- ---------------------------------------------------------------------|
- ---------------------------------------------------------------------|
- ---------------------------------------------------------------------|
- -4-44-44-44-44-4/5-222-4-44-44-44-44-4/5-222-4-44-44-44-44-4/5-222-2-|
- -4-44-44-44-44-4/5-222-4-44-44-44-44-4/5-222-4-44-44-44-44-4/5-222-2-|
- -2-22-22-22-22-2/3-000-2-22-22-22-22-2/3-000-2-22-22-22-22-2/3-000-0-|
PM   ...........     ...   ...........     ...   ...........     ...

  ---------------------------------------------------------------------|
  --------------------------------------------2-2----------------------|
  ------9-9999-----------------------------------2-2-4-1-1-1-----------|
  -2222-x-xxxx--4-4-4-4-4-4-4-4-4-2-4-5-4-2-4----------------2-4-5-4-2-|
  -2222-7-7777--4-----------------2-4-5-4-2-4----------------2-4-5-4-2-|
  -0000-0-0000--2-----------------0-2-3-2-0-2----------------0-2-3-2-0-|
PM                                .........                  .........

  ------------------------------------------------------------------|
  ------------------------------------------------------------------|
  ------------------------9-9999------1111111111-11\6-6-666-8-8-888-|
  -4-444-444-444/7-2-2222-x-xxxx------x-x-x-x-x--x--x-x-xxx-x-x-xxx-|
  -4-444-444-444/7-2-2222-7-7777-9~---9-9-9-9-9--9-\4-4-444-6-6-666-|
  -2-222-222-222/5-0-0000-0-0000------0-0-0-0-0--0--0-0-000-0-0-000-|
PM   ..........

  --------------------------|
  --------------------------|
  -10-10-101010-11-11-11-11-|
  -x--x--x-x-x--x--x--x--x--|
  -8--8--8-8-8--9--9--9--9--|
  -0--0--0-0-0--0--0--0--0--|

[Chorus 1] - [00:32] - [00:51]
- -5-5-5-5-5-5-5-5-5-5-5-5-5-5-5-5-0-0-0-0-0-0-0-0-0-0-0-0-0-0-0-0-----|
- -5-5-5-5-5-5-5-5-5-5-5-5-5-5-5-5-0-0-0-0-0-0-0-0-0-0-0-0-0-0-0-0-----|
- -6-6-6-6-6-6-6-6-6-6-6-6-6-6-6-6-1-1-1-1-1-1-1-1-1-1-1-1-1-1-1-1-----|
- -7-7-7-7-7-7-7-7-7-7-7-7-7-7-7-7-2-2-2-2-2-2-2-2-2-2-2-2-2-2-2-2-12\-|
- -7-7-7-7-7-7-7-7-7-7-7-7-7-7-7-7-2-2-2-2-2-2-2-2-2-2-2-2-2-2-2-2-12\-|
- -5-5-5-5-5-5-5-5-5-5-5-5-5-5-5-5-0-0-0-0-0-0-0-0-0-0-0-0-0-0-0-0-12\-|

  ---------------------------------------------------5-5-5-5-5-5-5-5-5-|
  ---------------------------------------------------5-5-5-5-5-5-5-5-5-|
  -11-9-----------------11-9-14-14-14/16-16-16-16-16-6-6-6-6-6-6-6-6-6-|
  -11-9-x-x-7/9-7-2-x-x-11-9-x--x--x--x--x--x--x--x--7-7-7-7-7-7-7-7-7-|
  -9--7-x-x-7/9-7-2-x-x-9--7-12-12-12/14-14-14-14-14-7-7-7-7-7-7-7-7-7-|
  ------x-x-5/7-5-0-x-x------0--0--0--0--0--0--0--0--5-5-5-5-5-5-5-5-5-|

  -5-5-5-5-5-5-5-0-0-0-0-0-0-4-4-4/5-5-5-5-5--------------------------|
  -5-5-5-5-5-5-5-0-0-0-0-0-0-x-x-x-x-x-x-x-x-5-5----------------------|
  -6-6-6-6-6-6-6-1-1-1-1-1-1-1-1-1/2-2-2-2-2-x-x-11\9-----------------|
  -7-7-7-7-7-7-7-2-2-2-2-2-2-0-0-0-0-0-0-0-0-2-2-x--x-x-x-7/9-7-2-x-x-|
  -7-7-7-7-7-7-7-2-2-2-2-2-2-----------------0-0-9-\7-x-x-7/9-7-2-x-x-|
  -5-5-5-5-5-5-5-0-0-0-0-0-0---------------------0--0-x-x-5/7-5-0-x-x-|

        V  V  V  V  V
  ------6--6--6--6--6--|
  ------10-10-10-10-10-|
  -11-9-9--9--9--9--9--|
  -11-9----------------|
  -9--7----------------|
  ---------------------|

[Verse 2] - [00:51] - [01:20]
- ---------------------------------------------------------------------|
- ---------------------------------------------------------------------|
- ---------------------------------------------------------------------|
- -4-44-44-44-44-4/5-222-4-44-44-44-44-4/5-222-4-44-44-44-44-4/5-222-2-|
- -4-44-44-44-44-4/5-222-4-44-44-44-44-4/5-222-4-44-44-44-44-4/5-222-2-|
- -2-22-22-22-22-2/3-000-2-22-22-22-22-2/3-000-2-22-22-22-22-2/3-000-0-|
PM   ...........     ...   ...........     ...   ...........     ...

  ---------------------------------------------------------------------|
  --------------------------------------------2-2----------------------|
  ------9-9999-----------------------------------2-2-4-1-1-1-----------|
  -2222-x-xxxx--4-4-4-4-4-4-4-4-4-2-4-5-4-2-4----------------2-4-5-4-2-|
  -2222-7-7777--4-----------------2-4-5-4-2-4----------------2-4-5-4-2-|
  -0000-0-0000--2-----------------0-2-3-2-0-2----------------0-2-3-2-0-|
PM                                .........                  .........

  ------------------------------------------------------------------|
  ------------------------------------------------------------------|
  ------------------------9-9999------1111111111-11\6-6-666-8-8-888-|
  -4-444-444-444/7-2-2222-x-xxxx------x-x-x-x-x--x--x-x-xxx-x-x-xxx-|
  -4-444-444-444/7-2-2222-7-7777-9~---9-9-9-9-9--9-\4-4-444-6-6-666-|
  -2-222-222-222/5-0-0000-0-0000------0-0-0-0-0--0--0-0-000-0-0-000-|
PM   ..........

  --------------------------|
  --------------------------|
  -10-10-101010-11-11-11-11-|
  -x--x--x-x-x--x--x--x--x--|
  -8--8--8-8-8--9--9--9--9--|
  -0--0--0-0-0--0--0--0--0--|

[Chorus 2] - [1:20] - [01:46]
- -5-5-5-5-5-5-5-5-5-5-5-5-5-5-5-5-0-0-0-0-0-0-0-0-0-0-0-0-0-0-0-0-----|
- -5-5-5-5-5-5-5-5-5-5-5-5-5-5-5-5-0-0-0-0-0-0-0-0-0-0-0-0-0-0-0-0-----|
- -6-6-6-6-6-6-6-6-6-6-6-6-6-6-6-6-1-1-1-1-1-1-1-1-1-1-1-1-1-1-1-1-----|
- -7-7-7-7-7-7-7-7-7-7-7-7-7-7-7-7-2-2-2-2-2-2-2-2-2-2-2-2-2-2-2-2-12\-|
- -7-7-7-7-7-7-7-7-7-7-7-7-7-7-7-7-2-2-2-2-2-2-2-2-2-2-2-2-2-2-2-2-12\-|
- -5-5-5-5-5-5-5-5-5-5-5-5-5-5-5-5-0-0-0-0-0-0-0-0-0-0-0-0-0-0-0-0-12\-|

  ---------------------------------------------------5-5-5-5-5-5-5-5-5-|
  ---------------------------------------------------5-5-5-5-5-5-5-5-5-|
  -11-9-----------------11-9-14-14-14/16-16-16-16-16-6-6-6-6-6-6-6-6-6-|
  -11-9-x-x-7/9-7-2-x-x-11-9-x--x--x--x--x--x--x--x--7-7-7-7-7-7-7-7-7-|
  -9--7-x-x-7/9-7-2-x-x-9--7-12-12-12/14-14-14-14-14-7-7-7-7-7-7-7-7-7-|
  ------x-x-5/7-5-0-x-x------0--0--0--0--0--0--0--0--5-5-5-5-5-5-5-5-5-|

  -5-5-5-5-5-5-5-0-0-0-0-0-0-4-4-5-5-5-5-5-5--------------------------|
  -5-5-5-5-5-5-5-0-0-0-0-0-0-x-x-x-x-x-x-x-x-5-5----------------------|
  -6-6-6-6-6-6-6-1-1-1-1-1-1-1-1-2-2-2-2-2-2-x-x-11\9-----------------|
  -7-7-7-7-7-7-7-2-2-2-2-2-2-0-0-0-0-0-0-0-0-2-2-x--x-x-x-7/9-7-2-x-x-|
  -7-7-7-7-7-7-7-2-2-2-2-2-2-----------------0-0-9-\7-x-x-7/9-7-2-x-x-|
  -5-5-5-5-5-5-5-0-0-0-0-0-0---------------------0--0-x-x-5/7-5-0-x-x-|

  ------5-5-5\4-4-4-4-4----|
  ------x-x-x-x-x-x-x-x----|
  -11-9-2-2-2\1-1-1-1-1----|
  -11-9-0-0-0-0-0-0-0-0----|
  -9--7--------------------|
  ----------------------2~-|

[Bridge] - [01:46] - [02:16]
- ------------------------------------<3>-------<3>--------------------|
- ------------------------------------<3>-------<3>--------------------|
- -----------------2------------------<3>-------<3>------2-----------2-|
- -4---4-44--4-2-4-2-2-2-4-2-4->4<->4<--->4<->4<---4-2-4-2-2-2-4-2-4-2-|
- -4---4-44--4-2-4-0-2-2-4-2-4->4<->4<--->4<->4<---4-2-4-0-2-2-4-2-4-0-|
- -2---2-22--2-0-2---0-0-2-0-2->2<->2<--->2<->2<---2-0-2---0-0-2-0-2---|
PM     ....                    .......   .......

  ------------------------------------------------------------------------|
  ------------------------------------------------------------------------|
  -2-2-2-4-4-4-4----------------------------------------------------------|
  -2-2-2-4-4-4-4-4-4-4-22222222-4-4-4-22222222-44444444-22244444-444/666--|
  -0-0-0-2-2-2-2----------------------------------------------------------|
  ------------------------------------------------------------------------|
PM               .................................
TP                                                               *******

  -------------------------------------------------<3>-------<3>--------|
  -------------------------------------------------<3>-------<3>--------|
  ------------------------------2------------------<3>-------<3>------2-|
  /777\666/777/999/111111-4-2-4-2-2-2-4-2-4->4<->4<--->4<->4<---4-2-4-2-|
  ------------------------4-2-4-0-2-2-4-2-4->4<->4<--->4<->4<---4-2-4-0-|
  ------------------------2-0-2---0-0-2-0-2->2<->2<--->2<->2<---2-0-2---|
PM                                          .......   .......
TP **********************

  -------------------------|
  -------------------------|
  -2-2-2-4-4-4-4-----------|
  -2-2-2-4-4-4-4-2---2---2-|
  -0-0-0-2-2-2-2-2---2---2-|
  ---------------0---0---0-|

[Outro] - [02:16] - [02:38]
- -5-5-5-5-5-5-5-5-5-5-5-5-5-5-5-5-0-0-0-0-0-0-0-0-0-0-0-0-0-0-0-0-----|
- -5-5-5-5-5-5-5-5-5-5-5-5-5-5-5-5-0-0-0-0-0-0-0-0-0-0-0-0-0-0-0-0-----|
- -6-6-6-6-6-6-6-6-6-6-6-6-6-6-6-6-1-1-1-1-1-1-1-1-1-1-1-1-1-1-1-1-----|
- -7-7-7-7-7-7-7-7-7-7-7-7-7-7-7-7-2-2-2-2-2-2-2-2-2-2-2-2-2-2-2-2-12\-|
- -7-7-7-7-7-7-7-7-7-7-7-7-7-7-7-7-2-2-2-2-2-2-2-2-2-2-2-2-2-2-2-2-12\-|
- -5-5-5-5-5-5-5-5-5-5-5-5-5-5-5-5-0-0-0-0-0-0-0-0-0-0-0-0-0-0-0-0-12\-|

  ---------------------------------------------------5-5-5-5-5-5-5-5-5-|
  ---------------------------------------------------5-5-5-5-5-5-5-5-5-|
  -11-9-----------------11-9-14-14-14\13-13-13-13-13-6-6-6-6-6-6-6-6-6-|
  -11-9-x-x-7/9-7-2-x-x-11-9-x--x--x--x--x--x--x--x--7-7-7-7-7-7-7-7-7-|
  -9--7-x-x-7/9-7-2-x-x-9--7-12-12-12\11-11-11-11-11-7-7-7-7-7-7-7-7-7-|
  ------x-x-5/7-5-0-x-x------0--0--0--0--0--0--0--0--5-5-5-5-5-5-5-5-5-|

  -5-5-5-5-5-5-5-0-0-0-0-0-0-4-4-5-5-5-5-5-5--------------------------|
  -5-5-5-5-5-5-5-0-0-0-0-0-0-x-x-x-x-x-x-x-x-5-5----------------------|
  -6-6-6-6-6-6-6-1-1-1-1-1-1-1-1-2-2-2-2-2-2-x-x-11\9-----------------|
  -7-7-7-7-7-7-7-2-2-2-2-2-2-0-0-0-0-0-0-0-0-2-2-x--x-x-x-7/9-7-2-x-x-|
  -7-7-7-7-7-7-7-2-2-2-2-2-2-----------------0-0-9-\7-x-x-7/9-7-2-x-x-|
  -5-5-5-5-5-5-5-0-0-0-0-0-0---------------------0--0-x-x-5/7-5-0-x-x-|

  ------6--6--6--6--6-------|
  ------10-10-10-10-10------|
  -11-9-9--9--9--9--9-------|
  -11-9------------------4/-|
  -9--7------------------4/-|
  -----------------------2/-|


3.) [Miss Murder] - [03:15]
Tuning: D# G# C# F# A# D#

[Intro] - [00:00] - [00:27]
- ------0~-----------------------------------------------------------|
- -0-0-1~--------------------------------------------5-55-3-33-------|
- -2-2~-----------------------------------------5-55-7-77-5-55-33-33-|
- -2-2~----<2><3><4><6><7><8><9><7><5><4><3><2>-7-77-7-77-5-55-55-55-|
- -0-0~-----------------------------------------7-77-5-55-3-33-55-55-|
- ----------------------------------------------5-55-5-55-3-33-33-33-|

  ------------------------------------------------------------------------|
  ------5-55-3-33-------------------5-55-3-33-----------------------------|
  -5-55-7-77-5-55-33-----------5-55-7-77-5-55-33-33-----------------------|
  -7-77-7-77-5-55-55-----------7-77-7-77-5-55-55-55-3-3-33-33-22-22-22-22-|
  -7-77-5-55-3-33-55-----------7-77-5-55-3-33-55-55-3-3-33-33-22-22-22-22-|
  -5-55-5-55-3-33-33-<3><3><3>-5-55-5-55-3-33-33-33-1-1-11-11-00-00-00-00-|
PM                                                  ...

  -----------------------------------------------------------|
  -----------------------------------------------------------|
  ----9-9-10--9-9----------------9-9-10--9-9-----------------|
  -7-7-7-----7-7-7-5----------7-7-7-----7-7-7-5--------------|
  -0----------------<5><5><5>-0----------------<5><5><5><5~>-|
  -----------------------------------------------------------|
PM .                          .

[Verse 1 Bass] - [00:27] - [00:40]

[Verse 1 Guitar] - [00:40] - [00:53]
- ------------------------------------------------------------------|
- ------------------------------------------------------------------|
- ------------------------------------------------------------------|
- -7-7-7-77--7-7-7-77--5-5-5-55--2-2-2-22--7-7-7-77--7-7-7-77--5-55-|
- -7-7-7-77--7-7-7-77--5-5-5-55--2-2-2-22--7-7-7-77--7-7-7-77--5-55-|
- -5-5-5-55--5-5-5-55--3-3-3-33--0-0-0-00--5-5-5-55--5-5-5-55--3-33-|
PM   ......    ......    ......    ......    ......    ......    ..

  ------|
  ------|
  ------|
  -5~-2-
  -5~-2-
  -3~-0-

[Chorus 1] - [00:53] - [01:06]
- ---------------------------------------------------------------------|
- ------5-55-3-33-------------5-55-3-33-------------------5-55-3-33----|
- -5-55-7-77-5-55-33-33--5-55-7-77-5-55-33-----------5-55-7-77-5-55-33-|
- -7-77-7-77-5-55-55-55--7-77-7-77-5-55-55-----------7-77-7-77-5-55-55-|
- -7-77-5-55-3-33-55-55--7-77-5-55-3-33-55-----------7-77-5-55-3-33-55-|
- -5-55-5-55-3-33-33-33--5-55-5-55-3-33-33-<3><3><3>-5-55-5-55-3-33-33-|

  --------------------------|
  --------------------------|
  -33-----------------------|
  -55-3-3-33-33-22-22-22-22-|
  -55-3-3-33-33-22-22-22-22-|
  -33-1-1-11-11-00-00-00-00-|
PM    ...

[Fill] - [01:06] - [01:19]
- ---------------------------------------------------------------------|
- -------1------------3---------------------------5-------------1------|
- -222222-22222-222222-22222-000000-4-00000---------------222222-22222-|
- ------------------------------------------222222-22222---------------|
- ---------------------------------------------------------------------|
- ---------------------------------------------------------------------|
PM ...... ..... ...... ..... ......   ..... ...... .....  ...... .....

  ---------------------------------------------|
  -------1--1h3-3----------------5-5-5-5-5-5-5-|
  -222222-22------000000-4-00000-x-x-x-x-x-x-x-|
  -------------------------------2-2-2-2-2-2-2-|
  -------------------------------0-0-0-0-0-0-0-|
  ---------------------------------------------|

[Verse 2 Bass] - [01:19] - [01:27]

[Fill 2] - [01:27] - [01:33]
- -12~-13~-10~-----|
- -------------12~-|
- -----------------|
- -----------------|
- -----------------|
- -----------------|

[Verse 2 Guitar] - [01:33] - [01:47]
- ------------------------------------------------------------------|
- ------------------------------------------------------------------|
- ------------------------------------------------------------------|
- -7-7-7-77--7-7-7-77--5-5-5-55--2-2-2-22--7-7-7-77--7-7-7-77--5-55-|
- -7-7-7-77--7-7-7-77--5-5-5-55--2-2-2-22--7-7-7-77--7-7-7-77--5-55-|
- -5-5-5-55--5-5-5-55--3-3-3-33--0-0-0-00--5-5-5-55--5-5-5-55--3-33-|
PM   ......    ......    ......    ......    ......    ......    ..

  ------|
  ------|
  ------|
  -5~-2-
  -5~-2-
  -3~-0-

[Chorus 2] - [01:47] - [02:00]
- ---------------------------------------------------------------------|
- ------5-55-3-33-------------5-55-3-33-------------------5-55-3-33----|
- -5-55-7-77-5-55-33-33--5-55-7-77-5-55-33-----------5-55-7-77-5-55-33-|
- -7-77-7-77-5-55-55-55--7-77-7-77-5-55-55-----------7-77-7-77-5-55-55-|
- -7-77-5-55-3-33-55-55--7-77-5-55-3-33-55-----------7-77-5-55-3-33-55-|
- -5-55-5-55-3-33-33-33--5-55-5-55-3-33-33-<3><3><3>-5-55-5-55-3-33-33-|

  --------------------------|
  --------------------------|
  -33-----------------------|
  -55-3-3-33-33-22-22-22-22-|
  -55-3-3-33-33-22-22-22-22-|
  -33-1-1-11-11-00-00-00-00-|
PM    ...

[Bridge] - [02:22] - [02:47]
- -------------------------------------------------------------------|
- -------------------------------------------------------------------|
- ------9---8------------------9---8----9--9--------9---8------------|
- --7----7-7-7-------------7----7-7-7---10-10---7----7-7-7-----------|
- -0-0-0--0---0-----------0-0-0--0---0--10-10--0-0-0--0---0----------|
- --------------0-8-8-8-0-------------0-8--8---------------0-8-8-8-0-|

  --------------------------------------------5-5-------------------|
  --------------------------------------------5-5----Distortion-Now-|
  ------9---8----9--9--------9---8------------5-5-------------------|
  --7----7-7-7---10-10---7----7-7-7-----------7-7----7-7-7-7-7-7-7--|
  -0-0-0--0---0--10-10--0-0-0--0---0----------7-7----7-7-7-7-7-7-7--|
  -------------0-8--8---------------0-8-8-8-0-5-5----5-5-5-5-5-5-5--|
PM                                                   .....

  -------------------------------------------------------------------|
  -------------------------------------------------------------------|
  ------9---8------------------9---8----9--9--------9---8------------|
  --7----7-7-7-------------7----7-7-7---10-10---7----7-7-7-----------|
  -0-0-0--0---0-----------0-0-0--0---0--10-10--0-0-0--0---0----------|
  --------------0-8-8-8-0-------------0-8--8---------------0-8-8-8-0-|
PM                                             . ... ... ...

  -5-5----0-00-00-00-00-00-00-00-0-00---------------------------------|
  -5-5----0-00-00-00-00-00-00-00-0-00---------------------------------|
  -5-5----0-00-00-00-00-00-00-00-0-00---------------------------------|
  -7-7----2-22-22-22-22-22-22-22-2-22-------7-77-5-55------------7-77-|
  -7-7----2-22-22-22-22-22-22-22-2-22--7-77-5-55-3-33-55-55-7-77-5-55-|
  -5-5----0-00-00-00-00-00-00-00-0-00--5-55-5-55-3-33-33-33-5-55-5-55-|

  --------------------------------------|
  --------------------------------------|
  --------------------------------------|
  -<9><9><9><9><9><9><5><5><5><5><5><5>-
  --------------------------------------|
  --------------------------------------|

[Chorus 3] - [02:47] - [03:15]
- ---------------------------------------------------------------------|
- ------5-55-3-33-------------5-55-3-33-------------------5-55-3-33----|
- -5-55-7-77-5-55-33-33--5-55-7-77-5-55-33-----------5-55-7-77-5-55-33-|
- -7-77-7-77-5-55-55-55--7-77-7-77-5-55-55-----------7-77-7-77-5-55-55-|
- -7-77-5-55-3-33-55-55--7-77-5-55-3-33-55-----------7-77-5-55-3-33-55-|
- -5-55-5-55-3-33-33-33--5-55-5-55-3-33-33-<3><3><3>-5-55-5-55-3-33-33-|

  ----------------------------------------------------------------------|
  -------------------------------5-55-3-33-------------5-55-3-33--------|
  -33-----------------------5-55-7-77-5-55-33-33--5-55-7-77-5-55-33-----|
  -55-3-3-33-33-22-22-22-22-7-77-7-77-5-55-55-55--7-77-7-77-5-55-55-----|
  -55-3-3-33-33-22-22-22-22-7-77-5-55-3-33-55-55--7-77-5-55-3-33-55-----|
  -33-1-1-11-11-00-00-00-00-5-55-5-55-3-33-33-33--5-55-5-55-3-33-33-<3>-|
PM    ...

  ---------------------------------------------------5-5-|
  -------------5-55-3-33-----------------------------5-5-|
  --------5-55-7-77-5-55-33-33-----------------------5-5-|
  --------7-77-7-77-5-55-55-55-3-3-33-33-22-22-22-22-7-7-|
  --------7-77-5-55-3-33-55-55-3-3-33-33-22-22-22-22-7-7-|
  -<3><3>-5-55-5-55-3-33-33-33-1-1-11-11-00-00-00-00-5-5-|

[Overdubbed End Bit] - [03:00] - [03:15]
- -5555-7777-88888888-4444-5555-7777-10101010-8888-5555-7777-8888-4444-|
- ---------------------------------------------------------------------|
- ---------------------------------------------------------------------|
- ---------------------------------------------------------------------|
- ---------------------------------------------------------------------|
- ---------------------------------------------------------------------|
TP *******************************************************************

  -5~-4~-5-5-|
  -------5-5-|
  -------5-5-|
  -------7-7-|
  -------7-7-|
  -------5-5-|


4.) [Summer Shudder] - [03:07]
Tuning: C# G# C# F# A# D#

[Noises] - [00:00] - [00:14]

[Intro/Verse 1] - [00:14] - [00:36]
                               V                                 V
- ------------------------------------------------------------------|
- ------------------------------------------------------------------|
- -------7----------------9p7------------7----------------9p7h9-----|
- -7/9-9-7-9-7/9-12\9-9-0~----x7~--7/9-9-7-9-7/9-12\9-9-0~------x7~-|
- -7/9-9-5-9-7/9-12\9-9-0~----x7~--7/9-9-5-9-7/9-12\9-9-0~------x7~-|
- -7/9-9---9-7/9-12\9-9-0~----x7~--7/9-9---9-7/9-12\9-9-0~------x7~-|

                                    V
  --------------<7>-------------------------------------------------|
  --------------<7>-------------------------------------------------|
  --------------<7>------------9p7-------------7--------------------|
  -7/9-9-12\9-9----7/9-12\9-0~-----x7~---7/9-9-7-9-7/9-12\9-9-0-0-0-|
  -7/9-9-12\9-9----7/9-12\9-0~-----x7~---7/9-9-5-9-7/9-12\9-9-0-0-0-|
  -7/9-9-12\9-9----7/9-12\9-0~-----x7~---7/9-9---9-7/9-12\9-9-0-0-0-|
PM                                                            .....

  -----------------------|
  -----------------------|
  -----------------------|
  -0-0-0-0-x-x-x-x-x-x-x-|
  -0-0-0-0-x-x-x-x-x-x-x-|
  -0-0-0-0-x-x-x-x-x-x-x-|
   .

[Chorus 1, Guitar 1] - [00:36] - [00:48]
                                                             V
- --------------------------------------------------------------|
- --------------------------------------------------------------|
- --------------------------------------------------------------|
- -5-5-5-5--7-7-7-7--9-9-9-9--9-9-9-9--5-5-5-5--7-7-7-7-0~--x7~-|
- -5-5-5-5--7-7-7-7--9-9-9-9--9-9-9-9--5-5-5-5--7-7-7-7-0~--x7~-|
- -5-5-5-5--7-7-7-7--9-9-9-9--9-9-9-9--5-5-5-5--7-7-7-7-0~--x7~-|

[Chorus 1, Guitar 2] - [00:37] - [00:48]
- --------------------------------------------------------------|
- --------------10h11p10----------------------------------------|
- -11-11-11-11----------12p11~--These two scores are not in any-|
- -x--x--x--x-------------------way lined up, just so you know.-|
- -9--9--9--9---------------------------------------------------|
- -0--0--0--0---------------------------------------------------|

[Bridge 1] - [00:48] - [00:59]
- ----------------------------------------------------------------------|
- ----------------------------------------------------------------------|
- -----------------12-------11-------7/11-------------------14----------|
- -9-9-9-9-9-9-9-9----9-9-9----9-9-9-9/12-12-12-12-12-12-12----12-12-12-|
- ----------------------------------------------------------------------|
- ----------------------------------------------------------------------|
PM ...............    .....    .....      .................    ........

  -----------------------------------------------------------------------|
  -----------------------------------------------------------------------|
  -12p11-----------------------12-------11-------7-7-7-7-7-7-7-7-6-6-6-6-|
  -------14p12-9-9-9-9-9-9-9-9----9-9-9----9-9-9-9-9-9-9-0-0-0-0-0-0-0-0-|
  -----------------------------------------------------------------------|
  -----------------------------------------------------------------------|
PM             ...............    .....    .........

[Verse 2 Bass] - [00:59] - [01:07]

[Verse 2 Guitar] - [01:07] - [01:21]
- --------------------------------------------------------------------|
- -00-000-000-000--------------0--------------------------------------|
- -44-444-444-444--------------4------------11-11-11-11-9-9-9-9-12-12-|
- -----------------2h4-4-7-4-4---7/9-12\9-9-0~------------------------|
- -----------------0h2-2-5-2-2---7/9-12\9-9-0~------------------------|
- -------------------------------7/9-12\9-9-0~------------------------|

  -------------------------------------------------------------------|
  -------------------------------------------------------------------|
  -12-12-11-11-11-11---------7-7------------------------------Flange-|
  -------------------7/9-9-9-7-7-9-9-7/9-12\9-9-0-0-0-0-0-0-0--Here--|
  -------------------7/9-9-9-5-5-9-9-7/9-12\9-9-0-0-0-0-0-0-0--------|
  -------------------7/9-9-9-----9-9-7/9-12\9-9-0-0-0-0-0-0-0--------|
PM                                              .......

[Chorus 2, Guitar 1] - [01:21] - [01:44]
- -------------------------------------------------------------------|
- -------------------------------------------------------------------|
- -------------------------------------------------------------------|
- -5-5-5-5--7-7-7-7--9-9-9-9--9-9-9-9--5-5-5-5--7-7-7-7--9-9-9-9-9-9-|
- -5-5-5-5--7-7-7-7--9-9-9-9--9-9-9-9--5-5-5-5--7-7-7-7--9-9-9-9-9-9-|
- -5-5-5-5--7-7-7-7--9-9-9-9--9-9-9-9--5-5-5-5--7-7-7-7--9-9-9-9-9-9-|

  ------------------------------------------------------------------|
  ------------------------------------------------------------------|
  ------------------------------------------------------------------|
  -9-9-0-0-0-0-0-0-0-0--5-5-5-5--7-7-7-7--9-9-9-9--9-9-9-9--5-5-5-5-|
  -9-9-0-0-0-0-0-0-0-0--5-5-5-5--7-7-7-7--9-9-9-9--9-9-9-9--5-5-5-5-|
  -9-9-0-0-0-0-0-0-0-0--5-5-5-5--7-7-7-7--9-9-9-9--9-9-9-9--5-5-5-5-|

                 V
  -----------------|
  -----------------|
  -----------------|
  -7-7-7-7--0~--x7-|
  -7-7-7-7--0~--x7-|
  -7-7-7-7--0~--x7-|

[Chorus 2, Guitar 2] - [01:22] - [01:44]
- ---------------------------------------------|
- --------------10h11p10-----------------------|
- -11-11-11-11----------12p11~-----9p7h9p7/11~-|
- -x--x--x--x----------------------------------|
- -9--9--9--9----------------------------------|
- -0--0--0--0----------------------------------|

[Bridge 2, Guitar 1] - [01:44] - [02:18]
- ----------------------------------------------------------------------|
- ----------------------------------------------------------------------|
- -----------------12-------11-------7/11-------------------14----------|
- -9-9-9-9-9-9-9-9----9-9-9----9-9-9-9/12-12-12-12-12-12-12----12-12-12-|
- ----------------------------------------------------------------------|
- ----------------------------------------------------------------------|
PM ...............    .....    .....      .................    ........

  -----------------------------------------------------------------------|
  -----------------------------------------------------------------------|
  -12p11-----------------------12-------11-------7-7-7-7-7-7-7-7-6-6-6-6-|
  -------14p12-9-9-9-9-9-9-9-9----9-9-9----9-9-9-9-9-9-9-0-0-0-0-0-0-0-0-|
  -----------------------------------------------------------------------|
  -----------------------------------------------------------------------|
PM             ...............    .....    .........

  ---------------------------------------------------------------------|
  ---------------------------------------------------------------------|
  ---------------------------------------------------------------------|
  -0-0-0-0--7~-9-9-9-9--7~-5-5-5-5-5-5-5-5-7-7-7-7-7-7-7-7-9-9-9-9-9-9-|
  -0-0-0-0--7~-9-9-9-9--7~-5-5-5-5-5-5-5-5-7-7-7-7-7-7-7-7-9-9-9-9-9-9-|
  -0-0-0-0--7~-9-9-9-9--7~-5-5-5-5-5-5-5-5-7-7-7-7-7-7-7-7-9-9-9-9-9-9-|

  ---------------------------------------------------------------------|
  ---------------------------------------------------------------------|
  ---------------------------------------------------------------------|
  -9-9-5-5-5-5-5-5-5-5-0-0-0-0--7~-9-9-9-9--7~-5-5-5-5-5-5-5-5-7-7-7-7-|
  -9-9-5-5-5-5-5-5-5-5-0-0-0-0--7~-9-9-9-9--7~-5-5-5-5-5-5-5-5-7-7-7-7-|
  -9-9-5-5-5-5-5-5-5-5-0-0-0-0--7~-9-9-9-9--7~-5-5-5-5-5-5-5-5-7-7-7-7-|

  -----------------------------------------|
  -----------------------------------------|
  -----------------------------------------|
  -7-7-7-7-9-9-9-9-9-9-9-9-5-5-5-5-5-5-5-5-|
  -7-7-7-7-9-9-9-9-9-9-9-9-5-5-5-5-5-5-5-5-|
  -7-7-7-7-9-9-9-9-9-9-9-9-5-5-5-5-5-5-5-5-|

[Bridge 2, Guitar 2] - [01:56] - [02:18]
- --------------------------------------------------------------------|
- --------------------------------------------------------------------|
- -7-7-7-7-7-7-7-7--9-9-9-9-9/11-11-11-11-11-11-11-11-11--11-11-------|
- --------------------------------------------------------------12-12-|
- --------------------------------------------------------------------|
- --------------------------------------------------------------------|

  --------------------------------------9-9-9-9-9/10-10-10-14-14-14-14-|
  -10-10-------------------10-10---------------------------------------|
  -------------11-11---------------------------------------------------|
  -------12-12-------12-12-------12-12---------------------------------|
  ---------------------------------------------------------------------|
  ---------------------------------------------------------------------|

  -14-14-14-14--------------------------------------------------------|
  --------------------------------------------------------------------|
  --------------7-7-7-7-7-7-7-7--9-9-9-9-9/11-11-11-11-11-11-11-11-11-|
  --------------------------------------------------------------------|
  --------------------------------------------------------------------|
  --------------------------------------------------------------------|

  -------------------------------------------------9-9-9-9-9/10-10-14-|
  -------------10-10-------------------10-10--------------------------|
  -11-11-------------------11-11--------------------------------------|
  -------12-12-------12-12-------12-12-------12-12--------------------|
  --------------------------------------------------------------------|
  --------------------------------------------------------------------|

  -14-14-14-14-14-14-14-|
  ----------------------|
  ----------------------|
  ----------------------|
  ----------------------|
  ----------------------|

[Fill] - [02:18] - [02:29]
- -14~-15-12~-------17~-|
- -----------14-15~-----|
- ----------------------|
- ------Flange-On.------|
- ----------------------|
- ----------------------|

[Singing] - [02:29] - [02:40]

[Outro, Guitar 1] - [02:40] - [03:07]
- -------------------------------------------------------------------|
- -------------------------------------------------------------------|
- -------------------------------------------------------------------|
- -5-5-5-5--7-7-7-7--9-9-9-9--9-9-9-9--5-5-5-5--7-7-7-7--9-9-9-9-9-9-|
- -5-5-5-5--7-7-7-7--9-9-9-9--9-9-9-9--5-5-5-5--7-7-7-7--9-9-9-9-9-9-|
- -5-5-5-5--7-7-7-7--9-9-9-9--9-9-9-9--5-5-5-5--7-7-7-7--9-9-9-9-9-9-|

  ------------------------------------------------------------------|
  ------------------------------------------------------------------|
  ------------------------------------------------------------------|
  -9-9-0-0-0-0-0-0-0-0--5-5-5-5--7-7-7-7--9-9-9-9--9-9-9-9--5-5-5-5-|
  -9-9-0-0-0-0-0-0-0-0--5-5-5-5--7-7-7-7--9-9-9-9--9-9-9-9--5-5-5-5-|
  -9-9-0-0-0-0-0-0-0-0--5-5-5-5--7-7-7-7--9-9-9-9--9-9-9-9--5-5-5-5-|

                 V
  -----------------|
  -----------------|
  -----------------|
  -7-7-7-7--0~--x7-|
  -7-7-7-7--0~--x7-|
  -7-7-7-7--0~--x7-|

[Outro, Guitar 2] - [02:41] - [03:07]
- ---------------------------------------------|
- --------------10h11p10-----------------------|
- -11-11-11-11----------12p11~-----9p7h9p7/11~-|
- -x--x--x--x----------------------------------|
- -9--9--9--9----------------------------------|
- -0--0--0--0----------------------------------|


5.) [The Interview] - [04:18]
Tuning: D# G# C# F# A# D#

[Intro/Verse 1] - [00:00] - [00:56]
- ------------------------------------3--3--2-------------------------|
- ----------------------------------0---0--0--------------------------|
- --------------------------------------------------------------------|
- -0-0-0-0-0-0-0-0-0-0-0-0-0-0-0-0---0-0--0---0-0-0-0-0-0-0-0-0-0-0-0-|
- --------------------------------------------------------------------|
- --------------------------------------------------------------------|

  ------------3--3--2------------------------------------3--3--2-----|
  ----------0---0--0-----------------------------------0---0--0------|
  -------------------------------------------------------------------|
  -0-0-0-0---0-0--0---0-0-0-0-0-0-0-0-0-0-0-0-0-0-0-0---0-0--0---0-0-|
  -------------------------------------------------------------------|
  -------------------------------------------------------------------|

  ---------------------------------3--3--2---------------------------|
  -------------------------------0---0--0----------------------------|
  -------------------------------------------------------------------|
  --0-0-0-0-0-0-0-0-0-0-0-0-0-0---0-0--0---0-0-0-0-0-0-0-0-0-0-0-0-0-|
  -------------------------------------------------------------------|
  -------------------------------------------------------------------|

  ----------3--3--2------------------------------------3--3--2---------|
  --------0---0--0-----------------------------------0---0--0----------|
  ---------------------------------------------------------------------|
  -0-0-0---0-0--0---0-0-0-0-0-0-0-0-0-0-0-0-0-0-0-0---0-0--0---0-0-0-0-|
  ---------------------------------------------------------------------|
  ---------------------------------------------------------------------|

  ----------------------------1---1--------------------------3-3-2~-|
  ------------------------------------2---------------------0-0-0---|
  ------------------------------------------------------------------|
  -0-0-0-0-0-0-0-0-0-0-0-0------------------------------------------|
  -------------------------0-0-0-0-0-0-0-0-0-0-0-0-0-0-0-0----------|
  ------------------------------------------------------------------|

[Verse 2] - [00:56] - [01:23]
- ------------------------------------3--3--2-------------------------|
- ----------------------------------0---0--0--------------------------|
- --------------------------------------------------------------------|
- -0-0-0-0-0-0-0-0-0-0-0-0-0-0-0-0---0-0--0---0-0-0-0-0-0-0-0-0-0-0-0-|
- --------------------------------------------------------------------|
- --------------------------------------------------------------------|

  ------------3--3--2------------------------------------1---1--------|
  ----------0---0--0---------------------------------------------2----|
  --------------------------------------------------------------------|
  -0-0-0-0---0-0--0---0-0-0-0-0-0-0-0-0-0-0-0-0-0-0-0-----------------|
  ----------------------------------------------------0-0-0-0-0-0-0-0-|
  --------------------------------------------------------------------|

  ----------0~---------------------------3-3-2~-|
  ------------------------2~------------0-0-0---|
  ----------------------------------------------|
  ----------------------------------------------|
  -0-0-0-0-0-0-0-0-0-0-0-0-0-0-0-0-0-0-0--------|
  ----------------------------------------------|

[Chorus] - [01:23] - [01:51]
- -----------------------------------------------------------------|
- -----------------------------------------------------------------|
- -4-4-4-4-4-4-4-4-------------------------------------------------|
- -4-4-4-4-4-4-4-4-4-4-4-4-4-4-4-4-5-5-5-5-5-5-5-5-5-5-5-5-5-5-5-5-|
- -2-2-2-2-2-2-2-2-2-2-2-2-2-2-2-2-5-5-5-5-5-5-5-5-5-5-5-5-5-5-5-5-|
- -----------------3-3-3-3-3-3-3-3-3-3-3-3-3-3-3-3-3-3-3-3-3-3-3-3-|

  ---------------------------------------------------------------------|
  ---------------------------------------------------------------------|
  ---------------------------------11-11--9-9-9--6-6-6--7-7-7-7~-4-4-4-|
  -7-7-7-7-7-7-7-7-7-7-7-7-7-7-7-7-x--x---x-x-x--x-x-x--x-x-x-x--4-4-4-|
  -7-7-7-7-7-7-7-7-7-7-7-7-7-7-7-7-9--9---7-7-7--4-4-4--5-5-5-5~-2-2-2-|
  -5-5-5-5-5-5-5-5-5-5-5-5-5-5-5-5-0--0---0-0-0--0-0-0--0-0-0-0~-------|

  ----------------------------------------------------------------------|
  ----------------------------------------------------------------------|
  -4-4-4-4-4------------------------------------------------------------|
  -4-4-4-4-4-4-4-4-4-4-4-4-4-5-5-5-5-5-5-5-5-5-5-5-5-5-5-5-5-7-7-<7><7>-|
  -2-2-2-2-2-2-2-2-2-2-2-2-2-5-5-5-5-5-5-5-5-5-5-5-5-5-5-5-5-7-7-<7><7>-|
  -----------3-3-3-3-3-3-3-3-3-3-3-3-3-3-3-3-3-3-3-3-3-3-3-3-5-5-<5><5>-|

  --------------------------------------------------------------------|
  --------------------------------------------------------------------|
  ------------------------------------11-11--9-9-9--6-6-6--7-7-7-7----|
  -<7><7>-7-7-<7><7><7><7>-7-7-<7><7>-x--x---x-x-x--x-x-x--x-x-x-x----|
  -<7><7>-7-7-<7><7><7><7>-7-7-<7><7>-9--9---7-7-7--4-4-4--5-5-5-5\2~-|
  -<5><5>-5-5-<5><5><5><5>-5-5-<5><5>-0--0---0-0-0--0-0-0--0-0-0-0----|

[Quietness] - [01:51] - [02:03]

[Verse 3] - [02:03] - [02:29]
- ---3--3--2-----------------------------------3--3--2-----------------|
- -0---0--0----------------------------------0---0--0------------------|
- ---------------------------------------------------------------------|
- ---------------------------------------------------------------------|
- --2-2--2--2-2-2-2-2-2-2-2-2-2-2-2-2-2-2-2---2-2--2---2-2-2-2-2-2-2-2-|
- ---------------------------------------------------------------------|

  --------------------3--3--2-----------------------------------------|
  ------------------0---0--0------------------------------------------|
  --------------------------------------------------------------------|
  --------------------------------------------------------------------|
  -2-2-2-2-2-2-2-2---2-2--2---2-2-2-2-2-2-2-2-2-2-2-2-2-2-2-2-0-0-0-0-|
  --------------------------------------------------------------------|

  ----1---1----------------------0---0------------------3-3-2~-|
  ------------2----------------3--3---3-2~-------------0-0-----|
  -------------------------------------------------------------|
  -------------------------------------------------------------|
  -0-0-0-0-0-0-0-0-0-0-0-0-0-0--0--0---0-0-0-0-0-0-0-0---------|
  -------------------------------------------------------------|

[Outro] - [02:29] - [03:21]
- -----------------------------------------------------------------|
- -----------------------------------------------------------------|
- -4-4-4-4-4-4-4-4-------------------------------------------------|
- -4-4-4-4-4-4-4-4-4-4-4-4-4-4-4-4-5-5-5-5-5-5-5-5-5-5-5-5-5-5-5-5-|
- -2-2-2-2-2-2-2-2-2-2-2-2-2-2-2-2-5-5-5-5-5-5-5-5-5-5-5-5-5-5-5-5-|
- -----------------3-3-3-3-3-3-3-3-3-3-3-3-3-3-3-3-3-3-3-3-3-3-3-3-|

  ---------------------------------------------------------------------|
  ---------------------------------------------------------------------|
  ---------------------------------11-11--9-9-9--6-6-6--7-7-7-7~-4-4-4-|
  -7-7-7-7-7-7-7-7-7-7-7-7-7-7-7-7-x--x---x-x-x--x-x-x--x-x-x-x--4-4-4-|
  -7-7-7-7-7-7-7-7-7-7-7-7-7-7-7-7-9--9---7-7-7--4-4-4--5-5-5-5~-2-2-2-|
  -5-5-5-5-5-5-5-5-5-5-5-5-5-5-5-5-0--0---0-0-0--0-0-0--0-0-0-0~-------|

  ----------------------------------------------------------------------|
  ----------------------------------------------------------------------|
  -4-4-4-4-4------------------------------------------------------------|
  -4-4-4-4-4-4-4-4-4-4-4-4-4-5-5-5-5-5-5-5-5-5-5-5-5-5-5-5-5-7-7-<7><7>-|
  -2-2-2-2-2-2-2-2-2-2-2-2-2-5-5-5-5-5-5-5-5-5-5-5-5-5-5-5-5-7-7-<7><7>-|
  -----------3-3-3-3-3-3-3-3-3-3-3-3-3-3-3-3-3-3-3-3-3-3-3-3-5-5-<5><5>-|

  ---------------------------------------------------------{5}{4}--|
  -----------------------------------------------------------------|
  ------------------------------------11-11--9-9-9--2-2-2----------|
  -<7><7>-7-7-<7><7><7><7>-7-7-<7><7>-x--x---x-x-x--x-x-x----------|
  -<7><7>-7-7-<7><7><7><7>-7-7-<7><7>-9--9---7-7-7--0-0-0----------|
  -<5><5>-5-5-<5><5><5><5>-5-5-<5><5>-0--0---0-0-0--0-0-0----------|

  -----------------------------------------------------------------|
  -----------------------------------------------------------------|
  -------------14-14-14-14-14\11-11-11-11-11-------------6-6-2-2-2-|
  -5-5-5-5-5-5-x--x--x--x--x--x--x--x--x--x--7-7-7-7-7-7-x-x-x-x-x-|
  -5-5-5-5-5-5-12-12-12-12-12\9--9--9--9--9--7-7-7-7-7-7-4-4-0-0-0-|
  -3-3-3-3-3-3-0--0--0--0--0--0--0--0--0--0--5-5-5-5-5-5-0-0-0-0-0-|

  -------------------------------------------------------------------|
  -------------------------------------------------------------------|
  -2-2-6-6-6-4-4-4-4-4-4-4-4-4-4-4-4-6-6-6-6-------------14-14-14-14-|
  -x-x-x-x-x-4-4-4-4-4-4-4-4-4-4-4-4-x-x-x-x-5-5-5-5-5-5-x--x--x--x--|
  -0-0-4-4-4-2-2-2-2-2-2-2-2-2-2-2-2-4-4-4-4-5-5-5-5-5-5-12-12-12-12-|
  -0-0-0-0-0-------------------------0-0-0-0-3-3-3-3-3-3-0--0--0--0--|

  -------------------------------------------------------------------|
  -------------------------------------------------------------------|
  -14\11-11-11-11-11-------------6-6-2-2-2-2-2-6-6-6-4-4-4-4-4-4-4-4-|
  -x--x--x--x--x--x--7-7-7-7-7-7-x-x-x-x-x-x-x-x-x-x-4-4-4-4-4-4-4-4-|
  -12\9--9--9--9--9--7-7-7-7-7-7-4-4-0-0-0-0-0-4-4-4-2-2-2-2-2-2-2-2-|
  -0--0--0--0--0--0--5-5-5-5-5-5-0-0-0-0-0-0-0-0-0-0-----------------|

  -----------------------------------------------------------------|
  -----------------------------------------------------------------|
  -4-4-4-4-6-6-6-6---------------------------------11-11--9-9-9--6-|
  -4-4-4-4-x-x-x-x-5-5-5-5-5-5-5-5-5-5-5-5-5-5-5-5-x--x---x-x-x--x-|
  -2-2-2-2-4-4-4-4-5-5-5-5-5-5-5-5-5-5-5-5-5-5-5-5-9--9---7-7-7--4-|
  ---------0-0-0-0-3-3-3-3-3-3-3-3-3-3-3-3-3-3-3-3-0--0---0-0-0--0-|

  --------------------------------------------------------|
  --------------------------------------------------------|
  -6-6--7-7-7-11-11-12-12-9-9-9--12-12-12--18-18-18-18----|
  -x-x--x-x-x-x--x--x--x--x-x-x--x--x--x---x--x--x--x--9~-|
  -4-4--5-5-5-9--9--10-10-7-7-7--10-10-10--16-16-16-16-9~-|
  -0-0--0-0-0-0--0--0--0--0-0-0--0--0--0---0--0--0--0--7~-|

[Piano] - [03:21] - [04:18]


6.) [Love Like Winter] - [02:47]
Tuning: D# G# C# F# A# D#

Okay, there's lotsa weird noises in this song so i tabbed how yu can
make some of them.

[Intro/Noise] - [00:00] - [00:22]
- -------------------------------------|
- -------------------------------------|
- -7-7-7-7--7-7-7-7--7-7-7-7--7-7-7-7--|
- -------------------------------------|
- -------------------------------------|
- -------------------------------------|
PM ..................................

[Verse 1] - [00:22] - [00:38]
- ---------------------------------------------------------------------|
- ---------------------------------------------------------------------|
- ---------------------------------------------------------------------|
- ---------------------------------------------------------------------|
- -----------------------------------------------------------------2-2-|
- -3-3-3-3-3-3-3-3-3-3-3-3-3-3-3-3-3-3-3-3-3-3-3-3-3-3-3-3-3-3-3-3-----|

  ---------------------------------------------------------------------|
  ---------------------------------------------------------------------|
  ---------------------------------------------------------------------|
  ---------------------------------------------------------------------|
  -2-2-2-2-2-2-2-2-2-2-2-2-2-2-2-2-2-2-2-2-2-2-2-2-2-2-2-2-2-2---------|
  -------------------------------------------------------------3-3-3-3-|

  ---------------------------------------------------------------------|
  ---------------------------------------------------------------------|
  ---------------------------------------------------------------------|
  ---------------------------------------------------------------------|
  ---------------------------------------------------------0-0-0-0-0-0-|
  -3-3-3-3-3-3-3-3-3-3-3-3-3-3-3-3-3-3-3-3-3-3-3-3-3-3-3-3-------------|

  -----------------------------------------------------|
  -----------------------------------------------------|
  -----------------------------------------------------|
  -----------------------------------------------------|
  -0-0-0-0-0-0-0-0-0-0-0-0-0-0-0-0-0-0-0-0-0-0-0-0-0-0-|
  -----------------------------------------------------|

[Chorus 1] - [00:38] - [01:02]
- -------------------------------------------------------------------|
- -------------------------------------------------------------------|
- -------------------------------------------------7-7-7-7-----------|
- -9-9-9-9-9-9-9-9-5-5-5-5-5-5-5-5-7x7x7x7x7x7x7x7-7-7-7-7-7-7-7-7-9-|
- -9-9-9-9-9-9-9-9-5-5-5-5-5-5-5-5-7x7x7x7x7x7x7x7-5-5-5-5-7-7-7-7-9-|
- -7-7-7-7-7-7-7-7-3-3-3-3-3-3-3-3-5x5x5x5x5x5x5x5---------5-5-5-5-7-|

  -----------------------------------------------------------------|
  -----------------------------------------------------------------|
  -------------------------------------------------7-7-7-7---------|
  -9-9-9-9-9-9-9-9-5-5-5-5-5-5-5-5-7-7-7-7-7-7-7-7-7-7-7-7-7-7-7-7-|
  -9-9-9-9-9-9-9-9-5-5-5-5-5-5-5-5-7-7-7-7-7-7-7-7-5-5-5-5-7-7-7-7-|
  -7-7-7-7-7-7-7-7-3-3-3-3-3-3-3-3-5-5-5-5-5-5-5-5---------5-5-5-5-|

  -------------------------------------------------------------------|
  -------------------------------------------------------------------|
  -------------------------------------------------7-7-7-7-----------|
  -9-9-9-9-9-9-9-9-5-5-5-5-5-5-5-5-7x7x7x7x7x7x7x7-7-7-7-7-7-7-7-7-9-|
  -9-9-9-9-9-9-9-9-5-5-5-5-5-5-5-5-7x7x7x7x7x7x7x7-5-5-5-5-7-7-7-7-9-|
  -7-7-7-7-7-7-7-7-3-3-3-3-3-3-3-3-5x5x5x5x5x5x5x5---------5-5-5-5-7-|

  -----------------------------------------------------------------|
  -----------------------------------------------------------------|
  -------------------------------------------------7-7-7-7---------|
  -9-9-9-9-9-9-9-9-5-5-5-5-5-5-5-5-7-7-7-7-7-7-7-7-7-7-7-7-7-7-7-7-|
  -9-9-9-9-9-9-9-9-5-5-5-5-5-5-5-5-7-7-7-7-7-7-7-7-5-5-5-5-7-7-7-7-|
  -7-7-7-7-7-7-7-7-3-3-3-3-3-3-3-3-5-5-5-5-5-5-5-5---------5-5-5-5-|
PM                                   .............

  -------------------------------------------------------|
  -------------------------------------------------------|
  -------------------------------------------------------|
  -9-9--9-5-5--5-7-7--7-7-7--7-9-9--9-5-5--5-7-7--7-7-7--|
  -9-9--9-5-5--5-7-7--7-7-7--7-9-9--9-5-5--5-7-7--7-7-7--|
  -7-7--7-3-3--3-5-5--5-5-5--5-7-7--7-3-3--3-5-5--5-5-5--|

[Fill/Noise] - [01:02] - [01:04]
- ---------------------------------|
- ---------------------------------|
- ---------------------------------|
- ---------5p0-------------5p0-----|
- -------------9p0-------------9p0-|
- -7p0-7p0---------7p0-7p0---------|

[Verse 2] - [01:04] - [01:36]
- ---------------------------------------------------------------------|
- ---------------------------------------------------------------------|
- ---------------------------------------------------------------------|
- ---------------------------------------------------------------------|
- -----------------------------------------------------------------2-2-|
- -3-3-3-3-3-3-3-3-3-3-3-3-3-3-3-3-3-3-3-3-3-3-3-3-3-3-3-3-3-3-3-3-----|

  ---------------------------------------------------------------------|
  ---------------------------------------------------------------------|
  ---------------------------------------------------------------------|
  ---------------------------------------------------------------------|
  -2-2-2-2-2-2-2-2-2-2-2-2-2-2-2-2-2-2-2-2-2-2-2-2-2-2-2-2-2-2---------|
  -------------------------------------------------------------3-3-3-3-|

  ---------------------------------------------------------------------|
  ---------------------------------------------------------------------|
  ---------------------------------------------------------------------|
  ---------------------------------------------------------------------|
  ---------------------------------------------------------0-0-0-0-0-0-|
  -3-3-3-3-3-3-3-3-3-3-3-3-3-3-3-3-3-3-3-3-3-3-3-3-3-3-3-3-------------|

  --------------------------------------------------------------------|
  --------------------------------------------------------------------|
  --------------------------------------------------------------------|
  --------------------------------------------------------------------|
  -0-0-0-0-0-0-0-0-0-0-0-0-0-0-0-0-0-0-0-0-0-0-0-0-0-0----2-2-2-2-2-2-|
  -----------------------------------------------------3~-------------|

  ---------------------------------------------------------------------|
  ---------------------------------------------------------------------|
  ---------------------------------------------------------------------|
  ---------------------------------------------------------------------|
  -2-2-2-2-2-2-2-2-2-2-2-2-2-2-2-2-2-2-2-2-2-2-2-2-2-2-----------------|
  -----------------------------------------------------3-3-3-3-3-3-3-3-|

  ---------------------------------------------------------|
  ---------------------------------------------------------|
  -------------------------------------------------7-7-7-7-|
  ---------------------------------------------------------|
  ---------------------------------------------------------|
  -3-3-3-3-3-3-3-3-3-3-3-3-3-3-3-3-3-3-3-3-3-3-3-3---------|
PM                                                 .......

[Chorus 2] - [01:36] - [02:00]
- -------------------------------------------------------------------|
- -------------------------------------------------------------------|
- -------------------------------------------------7-7-7-7-----------|
- -9-9-9-9-9-9-9-9-5-5-5-5-5-5-5-5-7x7x7x7x7x7x7x7-7-7-7-7-7-7-7-7-9-|
- -9-9-9-9-9-9-9-9-5-5-5-5-5-5-5-5-7x7x7x7x7x7x7x7-5-5-5-5-7-7-7-7-9-|
- -7-7-7-7-7-7-7-7-3-3-3-3-3-3-3-3-5x5x5x5x5x5x5x5---------5-5-5-5-7-|

  -----------------------------------------------------------------|
  -----------------------------------------------------------------|
  -------------------------------------------------7-7-7-7---------|
  -9-9-9-9-9-9-9-9-5-5-5-5-5-5-5-5-7-7-7-7-7-7-7-7-7-7-7-7-7-7-7-7-|
  -9-9-9-9-9-9-9-9-5-5-5-5-5-5-5-5-7-7-7-7-7-7-7-7-5-5-5-5-7-7-7-7-|
  -7-7-7-7-7-7-7-7-3-3-3-3-3-3-3-3-5-5-5-5-5-5-5-5---------5-5-5-5-|

  -------------------------------------------------------------------|
  -------------------------------------------------------------------|
  -------------------------------------------------7-7-7-7-----------|
  -9-9-9-9-9-9-9-9-5-5-5-5-5-5-5-5-7x7x7x7x7x7x7x7-7-7-7-7-7-7-7-7-9-|
  -9-9-9-9-9-9-9-9-5-5-5-5-5-5-5-5-7x7x7x7x7x7x7x7-5-5-5-5-7-7-7-7-9-|
  -7-7-7-7-7-7-7-7-3-3-3-3-3-3-3-3-5x5x5x5x5x5x5x5---------5-5-5-5-7-|

  -----------------------------------------------------------------|
  -----------------------------------------------------------------|
  -------------------------------------------------7-7-7-7---------|
  -9-9-9-9-9-9-9-9-5-5-5-5-5-5-5-5-7-7-7-7-7-7-7-7-7-7-7-7-7-7-7-7-|
  -9-9-9-9-9-9-9-9-5-5-5-5-5-5-5-5-7-7-7-7-7-7-7-7-5-5-5-5-7-7-7-7-|
  -7-7-7-7-7-7-7-7-3-3-3-3-3-3-3-3-5-5-5-5-5-5-5-5---------5-5-5-5-|
PM                                   .............

  -------------------------------------------------------|
  -------------------------------------------------------|
  -------------------------------------------------------|
  -9-9--9-5-5--5-7-7--7-7-7--7-9-9--9-5-5--5-7-7--7-7-7--|
  -9-9--9-5-5--5-7-7--7-7-7--7-9-9--9-5-5--5-7-7--7-7-7--|
  -7-7--7-3-3--3-5-5--5-5-5--5-7-7--7-3-3--3-5-5--5-5-5--|

[Quiet] - [02:00] - [02:20]
During this the guitar hits the 9th fret on the high e string
(The really skinny one.) at 02:16..its just a waste of space to
tab it out..jsut to let yu kno lol.

[Outro] - [02:20] - [02:47]
- -------------------------------------------------------------------|
- -------------------------------------------------------------------|
- -------------------------------------------------7-7-7-7-----------|
- -9-9-9-9-9-9-9-9-5-5-5-5-5-5-5-5-7x7x7x7x7x7x7x7-7-7-7-7-7-7-7-7-9-|
- -9-9-9-9-9-9-9-9-5-5-5-5-5-5-5-5-7x7x7x7x7x7x7x7-5-5-5-5-7-7-7-7-9-|
- -7-7-7-7-7-7-7-7-3-3-3-3-3-3-3-3-5x5x5x5x5x5x5x5---------5-5-5-5-7-|

  -----------------------------------------------------------------|
  -----------------------------------------------------------------|
  -------------------------------------------------7-7-7-7---------|
  -9-9-9-9-9-9-9-9-5-5-5-5-5-5-5-5-7-7-7-7-7-7-7-7-7-7-7-7-7-7-7-7-|
  -9-9-9-9-9-9-9-9-5-5-5-5-5-5-5-5-7-7-7-7-7-7-7-7-5-5-5-5-7-7-7-7-|
  -7-7-7-7-7-7-7-7-3-3-3-3-3-3-3-3-5-5-5-5-5-5-5-5---------5-5-5-5-|

  -------------------------------------------------------------------|
  -------------------------------------------------------------------|
  -------------------------------------------------7-7-7-7-----------|
  -9-9-9-9-9-9-9-9-5-5-5-5-5-5-5-5-7x7x7x7x7x7x7x7-7-7-7-7-7-7-7-7-9-|
  -9-9-9-9-9-9-9-9-5-5-5-5-5-5-5-5-7x7x7x7x7x7x7x7-5-5-5-5-7-7-7-7-9-|
  -7-7-7-7-7-7-7-7-3-3-3-3-3-3-3-3-5x5x5x5x5x5x5x5---------5-5-5-5-7-|

  -----------------------------------------------------------------|
  -----------------------------------------------------------------|
  -------------------------------------------------7-7-7-7---------|
  -9-9-9-9-9-9-9-9-5-5-5-5-5-5-5-5-7-7-7-7-7-7-7-7-7-7-7-7-7-7-7-7-|
  -9-9-9-9-9-9-9-9-5-5-5-5-5-5-5-5-7-7-7-7-7-7-7-7-5-5-5-5-7-7-7-7-|
  -7-7-7-7-7-7-7-7-3-3-3-3-3-3-3-3-5-5-5-5-5-5-5-5---------5-5-5-5-|
PM                                   .............

  -------------------------------------------------------|
  -------------------------------------------------------|
  -------------------------------------------------------|
  -9-9--9-5-5--5-7-7--7-7-7--7-9-9--9-5-5--5-7-7--7-7-7--|
  -9-9--9-5-5--5-7-7--7-7-7--7-9-9--9-5-5--5-7-7--7-7-7--|
  -7-7--7-3-3--3-5-5--5-5-5--5-7-7--7-3-3--3-5-5--5-5-5--|

[Extra Noises To Play]
During the Chorus ends you here a synth play this..
- -7-5----------------7-5----------------|
- -----8-7~--8p7h8-7~-----8-7~--8p7h8-7~-|
- ---------------------------------------|
- ---------------------------------------|
- ---------------------------------------|
- ---------------------------------------|


7.) [Affliction] - [03:37]
Tuning: D# G# C# F# A# D#

[Intro] - [00:00] - [00:10]
- -------------------------------------------------------------|
- -------------------------------------------------------------|
- -------------------------------------------------------------|
- -14-14-141414-14-1414-14-14-15-15-151515-15-1515-15-15-12-12-|
- -0--0--0-0-0--0--0-0--0--0--0--0--0-0-0--0--0-0--0--0--0--0--|
- -12-12-121212-12-1212-12-12-13-13-131313-13-1313-13-13-10-10-|

  -------------------------------------------------|
  -------------------------------------------------|
  ----------------------0--0--0-0-0--0--0-0--0--0--|
  -121212-12-1212-12-12-11-11-111111-11-1111-11-11-|
  -0-0-0--0--0-0--0--0--x--x--x-x-x--x--x-x--x--x--|
  -101010-10-1010-10-10-9--9--9-9-9--9--9-9--9--9--|

[Verse 1] - [00:10] - [00:28]
- -------------------------------------------------------------|
- -------------------------------------------------------------|
- -------------------------------------------------------------|
- -14-14-141414-14-1414-14-14-15-15-151515-15-1515-15-15-12-12-|
- -0--0--0-0-0--0--0-0--0--0--0--0--0-0-0--0--0-0--0--0--0--0--|
- -12-12-121212-12-1212-12-12-13-13-131313-13-1313-13-13-10-10-|

  --------------------------------------------------------------|
  --------------------------------------------------------------|
  ----------------------0--0--0-0-0--0--0-0--0--0---------------|
  -121212-12-1212-12-12-11-11-111111-11-1111-11-11-14-14-141414-|
  -0-0-0--0--0-0--0--0--x--x--x-x-x--x--x-x--x--x--0--0--0-0-0--|
  -101010-10-1010-10-10-9--9--9-9-9--9--9-9--9--9--12-12-121212-|

  ---------------------------------------------------------------|
  ---------------------------------------------------------------|
  ---------------------------------------------------------------|
  -14-1414-14-14-15-15-151515-15-1515-15-15-12-12-121212-12-1212-|
  -0--0-0--0--0--0--0--0-0-0--0--0-0--0--0--0--0--0-0-0--0--0-0--|
  -12-1212-12-12-13-13-131313-13-1313-13-13-10-10-101010-10-1010-|

  ----------------------------------|
  ----------------------------------|
  -------14-14--14-14--14-14--14-14-|
  -12-12-x--x---x--x---x--x---x--x--|
  -0--0--12-12--12-12--12-12--12-12-|
  -10-10-0--0---0--0---0--0---0--0--|

[Bridge 1] - [00:28] - [00:37]
- --------------------------------------------------------12--11~-|
- ------------------------------------------------------10--10----|
- ----------------------------------------------------------------|
- ----------------------------------------------------------------|
- -0-14p12-14h15-15-0-0-14p12-14h15-15-0-14p12-14h15-15-----------|
- ----------------------------------------------------------------|

  ------------------------------------------------------|
  ------------------------------------------------------|
  ------------------------------------------------------|
  ------------------------------------------------------|
  -0-14p12-14h15-15-0-0-14p12-14h15-15-0-14p12-14h15-15-|
  ------------------------------------------------------|


[Chorus 1] - [00:37] - [00:55]
- --0--0--0-------------------------1---3----0--0--0---------------|
- ------------0-0--0---1-1-1-1-1---1-1-3-3-------------0-0--0------|
- ---7--7------0-0----------------2---4-------7--7------0-0--------|
- -5--5--5---5--5-5---3---3---3-------------5--5--5---5--5-5-------|
- -----------------------------------------------------------------|
- -------------------------------------------------------------1-1-|

  --------------4-4-4-4-4-4-4-4-4-|
  --------------x-x-x-x-x-x-x-x-x-|
  --------------1-1-1-1-1-1-1-1-1-|
  --------------0-0-0-0-0-0-0-0-0-|
  --------------------------------|
  -111-1-11-1-1-------------------|

[Fill 1] - [00:55] -
- -------------------------------------------------------------|
- -------------------------------------------------------------|
- -------------------------------------------------------------|
- -14-14-141414-14-1414-14-14-15-15-151515-15-1515-15-15-12-12-|
- -0--0--0-0-0--0--0-0--0--0--0--0--0-0-0--0--0-0--0--0--0--0--|
- -12-12-121212-12-1212-12-12-13-13-131313-13-1313-13-13-10-10-|

  -------------------------------------------------|
  -------------------------------------------------|
  ----------------------0--0--0-0-0--0--0-0--0--0--|
  -121212-12-1212-12-12-11-11-111111-11-1111-11-11-|
  -0-0-0--0--0-0--0--0--x--x--x-x-x--x--x-x--x--x--|
  -101010-10-1010-10-10-9--9--9-9-9--9--9-9--9--9--|

[Verse 2] - [00:55] - [01:23]
- -------------------------------------------------------------|
- -------------------------------------------------------------|
- -------------------------------------------------------------|
- -14-14-141414-14-1414-14-14-15-15-151515-15-1515-15-15-12-12-|
- -0--0--0-0-0--0--0-0--0--0--0--0--0-0-0--0--0-0--0--0--0--0--|
- -12-12-121212-12-1212-12-12-13-13-131313-13-1313-13-13-10-10-|

  --------------------------------------------------------------|
  --------------------------------------------------------------|
  ----------------------0--0--0-0-0--0--0-0--0--0---------------|
  -121212-12-1212-12-12-11-11-111111-11-1111-11-11-14-14-141414-|
  -0-0-0--0--0-0--0--0--x--x--x-x-x--x--x-x--x--x--0--0--0-0-0--|
  -101010-10-1010-10-10-9--9--9-9-9--9--9-9--9--9--12-12-121212-|

  ---------------------------------------------------------------|
  ---------------------------------------------------------------|
  ---------------------------------------------------------------|
  -14-1414-14-14-15-15-151515-15-1515-15-15-12-12-121212-12-1212-|
  -0--0-0--0--0--0--0--0-0-0--0--0-0--0--0--0--0--0-0-0--0--0-0--|
  -12-1212-12-12-13-13-131313-13-1313-13-13-10-10-101010-10-1010-|

  -------------------------------------------|
  -------------------------------------------|
  -------14-14--16-16-16--17-17-17--19-19-19-|
  -12-12-x--x---x--x--x---x--x--x---x--x--x--|
  -0--0--12-12--14-14-14--15-15-15--17-17-17-|
  -10-10-0--0---0--0---0--0---0--0--0--0--0--|

[Bridge 2] - [01:23] - [01:32]
- --------------------------------------------------------12--11~-|
- ------------------------------------------------------10--10----|
- ----------------------------------------------------------------|
- ----------------------------------------------------------------|
- -0-14p12-14h15-15-0-0-14p12-14h15-15-0-14p12-14h15-15-----------|
- ----------------------------------------------------------------|

  ------------------------------------------------------|
  ------------------------------------------------------|
  ------------------------------------------------------|
  ------------------------------------------------------|
  -0-14p12-14h15-15-0-0-14p12-14h15-15-0-14p12-14h15-15-|
  ------------------------------------------------------|

[Chorus 2] - [01:32] - [01:53]
- --0--0--0-------------------------1---3----0--0--0---------------|
- ------------0-0--0---1-1-1-1-1---1-1-3-3-------------0-0--0------|
- ---7--7------0-0----------------2---4-------7--7------0-0--------|
- -5--5--5---5--5-5---3---3---3-------------5--5--5---5--5-5-------|
- -----------------------------------------------------------------|
- -------------------------------------------------------------1-1-|

  --------------4-4-4-4-4-4-4-4-4-4-10-10-10-10-10-10-10-10-12-12-12-|
  --------------x-x-x-x-x-x-x-x-x-x-x--x--x--x--x--x--x--x--x--x--x--|
  --------------1-1-1-1-1-1-1-1-1-1-7--7--7--7--7--7--7--7--9--9--9--|
  --------------0-0-0-0-0-0-0-0-0-0-0--0--0--0--0--0--0--0--0--0--0--|
  -------------------------------------------------------------------|
  -111-1-11-1-1------------------------------------------------------|

  -12-12-12-12-12-|
  -x--x--x--x--x--|
  -9--9--9--9--9--|
  -0--0--0--0--0--|
  ----------------|
  ----------------|

[Interlude] - [01:53] - [03:33]
- ----------------------------------------------------------------|
- ----------------------------------------------------------------|
- ----------------------------------------------------------------|
- ----------------------------------------------------------------|
- ----------------------------------------------------------------|
- -5~-5-7-8-7-5-7-5\1~-1-1p0-0-0-0--5~-5-7-8-7-5-7-5\1~-1-1p0-0-0-|

  -------------------------------------------------------------|
  -------------------------------------------------------------|
  -------------------------------------------------------------|
  -------------------------------------------------------------|
  -------------------------------------------------------------|
  -0--5~-5-7-8-7-5-7-5\1~-1-1p0-0-0-0--5~-7-8-7-5-7-5\1~-1-1p0-|

  -4-4-4-4-----------------------------4-4-4/5\4-4---------------|
  -x-x-x-x-----------------------------x-x-x-x-x-x---------------|
  -1-1-1-1-----------------------------1-1-1/2\1-1---------------|
  -0-0-0-0-x5~-------------------------0-0-0-0-0-0---------------|
  ---------x5~---------------------------------------------------|
  ---------x3~-5~-7-8-7-5-7-5\1~-1-1p0------------~-5~-7-8-7-5-7-|

  --------------------------------------------------0----------|
  ---------------------------------------------------1---------|
  -----------------------------2~-2-2p0-5~-5-5-5------2(p0)----|
  -----------------------------2~-2-2p0-5~-5-5-5-4~---------2~-|
  -----------------------------0~-0-0~--3~-3-3-3-4~---------2~-|
  -5\1~-1-1p0-0-0-0-0-0-0-0-0--------------------2~---------0~-|

  -------------------0----------|
  --------------------1---------|
  -------2~-2-2-2------2(p0)----|
  -2-2-2-2~-2-2-2-4~---------5~-|
  -2-2-2-0~-0-0-0-4~---------5~-|
  -0-0-0----------2~---------3~-|

[Fill 2] - [03:00] - [03:07]
- -0~----------------------------------------------------------------|
- -0~----------------------------------------------------------------|
- -1~----------------------------------------------------------------|
- -2~-15\------------------------------------------------------------|
- -2~-15\--0-14p12-14h15-15-0-0-14p12-14h15-15-0-14p12-14h15-15-0-17-|
- -0~-15\------------------------------------------------------------|

  ----------------|
  ----------------|
  ----------------|
  ----------------|
  -0-0-19-0-0-22~-|
  ----------------|

[Chorus 3] - [03:07] - [03:27]
- -8--8-8-8-8-8-8-8-8-8-8-8-8-8-8--3-33333333333333-1-11111111111111-|
- -8--8-8-8-8-8-8-8-8-8-8-8-8-8-8--3-33333333333333-1-11111111111111-|
- -9--9-9-9-9-9-9-9-9-9-9-9-9-9-9--4-44444444444444-2-22222222222222-|
- -10-1010101010101010101010101010-5-55555555555555-3-33333333333333-|
- -10-1010101010101010101010101010-5-55555555555555-3-33333333333333-|
- -8--8-8-8-8-8-8-8-8-8-8-8-8-8-8--3-33333333333333-1-11111111111111-|

  -5-5-5-5-5-5-5-5-7-7-7-7-7-7-7-7-8--8-8-8-8-8-8-8-8-8-8-8-8-8-8--|
  -x-x-x-x-x-x-x-x-x-x-x-x-x-x-x-x-8--8-8-8-8-8-8-8-8-8-8-8-8-8-8--|
  -2-2-2-2-2-2-2-2-4-4-4-4-4-4-4-4-9--9-9-9-9-9-9-9-9-9-9-9-9-9-9--|
  -0-0-0-0-0-0-0-0-0-0-0-0-0-0-0-0-10-1010101010101010101010101010-|
  ---------------------------------10-1010101010101010101010101010-|
  ---------------------------------8--8-8-8-8-8-8-8-8-8-8-8-8-8-8--|

  -3-33333333333333------------------4-4-4-4-4-4-4-4-4-4-4-4-4-4-4-4-|
  -3-33333333333333------------------x-x-x-x-x-x-x-x-x-x-x-x-x-x-x-x-|
  -4-44444444444444------------------1-1-1-1-1-1-1-1-1-1-1-1-1-1-1-1-|
  -5-55555555555555------------------0-0-0-0-0-0-0-0-0-0-0-0-0-0-0-0-|
  -5-55555555555555--------------------------------------------------|
  -3-33333333333333-1-1-111-1-11-1-1---------------------------------|

  -10-10-10-10-10-10-10-10/12-12-|
  -x--x--x--x--x--x--x--x--x--x--|
  -7--7--7--7--7--7--7--7-/9--9--|
  -0--0--0--0--0--0--0--0--0--0--|
  -------------------------------|
  -------------------------------|

[Outro] - [03:27] - [03:37]
- --------------------------------------------------------12--11~-|
- ------------------------------------------------------10--10----|
- ----------------------------------------------------------------|
- ----------------------------------------------------------------|
- -0-14p12-14h15-15-0-0-14p12-14h15-15-0-14p12-14h15-15-----------|
- ----------------------------------------------------------------|

  ------------------------------------------------------12-12-12-|
  ------------------------------------------------------10-10-10-|
  ---------------------------------------------------------------|
  ---------------------------------------------------------------|
  -0-14p12-14h15-15-0-0-14p12-14h15-15-0-14p12-14h15-15----------|
  ---------------------------------------------------------------|

  -12-11-11-11-----|
  -10-10-10-10-----|
  -----------------|
  -------------7\--|
  -------------7\--|
  -------------5\--|


8.) [The Missing Frame] - [04:38]
Tuning: D# G# C# F# A# D#

[Drums] - [00:00] - [00:08]

[Intro] - [00:08] - [00:30]
- ---------------------------------------------------------------|
- ---------------------------------------------------------------|
- -----44-4-22-2-44-4----44-4-22-2--------44-4-22-2-44-4----44-4-|
- --------------------------------44-4---------------------------|
- -22-2--------------22-2-------------22-2--------------22-2-----|
- ---------------------------------------------------------------|

  --------------------------------------------|
  --------------------------------------------|
  -22-2--------44-4-22-2-44-4----44-4-2brbrbr-|
  -----44-4-----------------------------------|
  ---------22-2--------------22-2-------------|
  --------------------------------------------|

[Verse 1] - [00:30] - [01:05]
- -----------------------------------------------------------------|
- -----------------------------------------------------------------|
- -7-7-7-7-7-7-7-7-6-6-6-6-6-6-6-6-7-7-7-7-7-7-7-7-6-6-6-6-6-6-6-6-|
- -----------------------------------------------------------------|
- -----------------------------------------------------------------|
- -----------------------------------------------------------------|
PM ...............................................................

  -----------------------------------------------------------------|
  -----------------------------------------------------------------|
  -4-4-4-4-4-4-4-4-6-6-6-6-6-6-6-6-7-7-7-7-7-7-7-7-6-6-6-6-6-6-6-6-|
  -----------------------------------------------------------------|
  -----------------------------------------------------------------|
  -----------------------------------------------------------------|
PM ...............................

  ------------------------------------------------------------------|
  ------------------------------------------------------------------|
  ------------------7-7-7-7-7-7-7-7-6-6-6-6-6-6-6-6-7-7-7-7-7-7-7-7-|
  ------3~----------------------------------------------------------|
  -5~---4~----------------------------------------------------------|
  ----------6-6-6-6-------------------------------------------------|
PM                  ...............................

  ------------------------------------------|
  ------------------------------------------|
  -6-6-6-6-6-6-6-6--------------------------|
  ----------------------3~--7-7-7-7-7-7-7-7-|
  -----------------5~---4~--7-7-7-7-7-7-7-7-|
  --------------------------5-5-5-5-5-5-5-5-|
PM                          .......

[Chorus 1, Guitar 1] - [01:05] - [01:35]
- -----------------------------------------------------------------|
- -----------------------------------------------------------------|
- -7-7-7-7-7-7-7-7-7-7-7-7-7-7-7-7-7-7-7-7-7-7-7-7-7-7-7-7-7-7-7-7-|
- -7-7-7-7-7-7-7-7-7-7-7-7-7-7-7-7-7-7-7-7-7-7-7-7-7-7-7-7-7-7-7-7-|
- -5-5-5-5-5-5-5-5-5-5-5-5-5-5-5-5-5-5-5-5-5-5-5-5-5-5-5-5-5-5-5-5-|
- -----------------------------------------------------------------|

  -----------------------------------------------------------------|
  -----------------------------------------------------------------|
  -----------------------------------------------------------------|
  -9-9-9-9-9-9-9-9-9-9-9-9-9-9-9-9-9-9-9-9-9-9-9-9-9-9-9-9-9-9-9-9-|
  -9-9-9-9-9-9-9-9-9-9-9-9-9-9-9-9-9-9-9-9-9-9-9-9-9-9-9-9-9-9-9-9-|
  -7-7-7-7-7-7-7-7-7-7-7-7-7-7-7-7-7-7-7-7-7-7-7-7-7-7-7-7-7-7-7-7-|

  -----------------------------------------------------------------|
  -----------------------------------------------------------------|
  -----------------------------------------------------------------|
  -7-7-7-7-7-7-7-7-7-7-7-7-7-7-7-7-7-7-7-7-7-7-7-7-7-7-7-7-7-7-7-7-|
  -7-7-7-7-7-7-7-7-7-7-7-7-7-7-7-7-7-7-7-7-7-7-7-7-7-7-7-7-7-7-7-7-|
  -5-5-5-5-5-5-5-5-5-5-5-5-5-5-5-5-5-5-5-5-5-5-5-5-5-5-5-5-5-5-5-5-|

  -----------------------------------------------------------------|
  -----------------------------------------------------------------|
  ---------------------------------7-7-7-7-7-7-7-7-6-6-6-6-6-6-6-6-|
  -5-5-5-5-5-5-5-5-5-5-5-5-5-5-5-5-5-5-5-5-5-5-5-5-4-4-4-4-4-4-4-4-|
  -5-5-5-5-5-5-5-5-5-5-5-5-5-5-5-5---------------------------------|
  -3-3-3-3-3-3-3-3-3-3-3-3-3-3-3-3---------------------------------|

[Chorus 1, Guitar 2] - [01:05] - [01:35]
- -----------------------------------------------------------------|
- -5-7-3~--5-7-3~--5-7-3~--5-7-3~----------------------------------|
- -x-x-x---x-x-x---x-x-x---x-x-x---7-6~--7-6~----------------------|
- -2-4-0~--2-4-0~--2-4-0~--2-4-0~--x-x---x-x--5-5-5-5-5-5-5-5-5-5--|
- -0-0-0~--0-0-0~--0-0-0~--0-0-0~--5-4~--5-4~-5-5-5-5-5-5-5-5-5-5--|
- ---------------------------------0-0~--0-0~-3-3-3-3-3-3-3-3-3-3--|

  ---------------------------------------------|
  ---------------------------------------------|
  -------------7-7-7-7-7-7-7-7-6-6-6-6-6-6-6-6-|
  -5-5-5-5-5-5-5-5-5-5-5-5-5-5-4-4-4-4-4-4-4-4-|
  -5-5-5-5-5-5---------------------------------|
  -3-3-3-3-3-3---------------------------------|

[Bridge 1] - [01:25] - [01:54]
- ----------------------------------------------------------------|
- ----------------------------------------------------------------|
- -----44-4-22-2-444-----44-4-22-2-4444----44-4-22-2---------44-4-|
- ---------------------------------------------------4444---------|
- -22-2--------------22-2--------------22-2--------------22-2-----|
- ----------------------------------------------------------------|

  ---------------------------|
  -------------------3brbrbr-|
  -22-2-4444----44-4---------|
  ---------------------------|
  ----------22-2-------------|
  ---------------------------|

[Verse 2] - [01:54] - [02:16]
- -----------------------------------------------------------------|
- -----------------------------------------------------------------|
- -7-7-7-7-7-7-7-7-6-6-6-6-6-6-6-6-7-7-7-7-7-7-7-7-6-6-6-6-6-6-6-6-|
- -----------------------------------------------------------------|
- -----------------------------------------------------------------|
- -----------------------------------------------------------------|
PM ...............................................................

  -----------------------------------------------------------------|
  -----------------------------------------------------------------|
  -4-4-4-4-4-4-4-4-6-6-6-6-6-6-6-6-7-7-7-7-7-7-7-7-6-6-6-6-6-6-6-6-|
  -----------------------------------------------------------------|
  -----------------------------------------------------------------|
  -----------------------------------------------------------------|
PM ...............................

  ------------|
  ------------|
  ------------|
  ----0h4~-3~-|
  -5~-5~---4~-|
  ------------|

[Chorus 2] - [02:16] - [02:45]
- -----------------------------------------------------------------|
- -----------------------------------------------------------------|
- -7-7-7-7-7-7-7-7-7-7-7-7-7-7-7-7-7-7-7-7-7-7-7-7-7-7-7-7-7-7-7-7-|
- -7-7-7-7-7-7-7-7-7-7-7-7-7-7-7-7-7-7-7-7-7-7-7-7-7-7-7-7-7-7-7-7-|
- -5-5-5-5-5-5-5-5-5-5-5-5-5-5-5-5-5-5-5-5-5-5-5-5-5-5-5-5-5-5-5-5-|
- -----------------------------------------------------------------|

  -----------------------------------------------------------------|
  -----------------------------------------------------------------|
  -----------------------------------------------------------------|
  -9-9-9-9-9-9-9-9-9-9-9-9-9-9-9-9-9-9-9-9-9-9-9-9-9-9-9-9-9-9-9-9-|
  -9-9-9-9-9-9-9-9-9-9-9-9-9-9-9-9-9-9-9-9-9-9-9-9-9-9-9-9-9-9-9-9-|
  -7-7-7-7-7-7-7-7-7-7-7-7-7-7-7-7-7-7-7-7-7-7-7-7-7-7-7-7-7-7-7-7-|

  -----------------------------------------------------------------|
  -----------------------------------------------------------------|
  -----------------------------------------------------------------|
  -7-7-7-7-7-7-7-7-7-7-7-7-7-7-7-7-7-7-7-7-7-7-7-7-7-7-7-7-7-7-7-7-|
  -7-7-7-7-7-7-7-7-7-7-7-7-7-7-7-7-7-7-7-7-7-7-7-7-7-7-7-7-7-7-7-7-|
  -5-5-5-5-5-5-5-5-5-5-5-5-5-5-5-5-5-5-5-5-5-5-5-5-5-5-5-5-5-5-5-5-|

  -----------------------------------------------------------------|
  -----------------------------------------------------------------|
  ---------------------------------7-7-7-7-7-7-7-7-6-6-6-6-6-6-6-6-|
  -5-5-5-5-5-5-5-5-5-5-5-5-5-5-5-5-5-5-5-5-5-5-5-5-4-4-4-4-4-4-4-4-|
  -5-5-5-5-5-5-5-5-5-5-5-5-5-5-5-5---------------------------------|
  -3-3-3-3-3-3-3-3-3-3-3-3-3-3-3-3---------------------------------|

[Chorus 1, Guitar 2] - [01:05] - [01:35]
- -----------------------------------------------------------------|
- -5-7-3~--5-7-3~--5-7-3~--5-7-3~----------------------------------|
- -x-x-x---x-x-x---x-x-x---x-x-x---7-6~--7-6~----------------------|
- -2-4-0~--2-4-0~--2-4-0~--2-4-0~--x-x---x-x--5-5-5-5-5-5-5-5-5-5--|
- -0-0-0~--0-0-0~--0-0-0~--0-0-0~--5-4~--5-4~-5-5-5-5-5-5-5-5-5-5--|
- ---------------------------------0-0~--0-0~-3-3-3-3-3-3-3-3-3-3--|

  ---------------------------------------------|
  ---------------------------------------------|
  -------------7-7-7-7-7-7-7-7-6-6-6-6-6-6-6-6-|
  -5-5-5-5-5-5-5-5-5-5-5-5-5-5-4-4-4-4-4-4-4-4-|
  -5-5-5-5-5-5---------------------------------|
  -3-3-3-3-3-3---------------------------------|

[Bass] - [01:35] - [02:48]

[Fill] - [02:48] - [02:59]
- -14~-12~/17~--------|
- ------------15~-14~-|
- --------------------|
- --------------------|
- --------------------|
- --------------------|

[Bridge 2] - [02:59] - [03:30]
- -----------------------------------------------------------------|
- -----11--11--11--11-----10--10--10--10-----11--11--11--11-----10-|
- -8-88--88--88--88---7-77--77--77--77---8-88--88--88--88---7-77---|
- -----------------------------------------------------------------|
- -----------------------------------------------------------------|
- -----------------------------------------------------------------|
PM ...............................................................

  ----------------------------------------------------------------|
  ---10--10--10-----11--11--11--11-----10---10--10--10-----10--10-|
  -77--77--77---8-88--88--88--88---7-77---77--77--77---8-88--88---|
  ----------------------------------------------------------------|
  ----------------------------------------------------------------|
  ----------------------------------------------------------------|
PM ..............................................................

  ---------------------------------------------------------------|
  ---10-----10--10--10--10-----11--11--11--11-----10--10--10--10-|
  -88---7-77--77--77--77---8-88--88--88--88---7-77--77--77--77---|
  ---------------------------------------------------------------|
  ---------------------------------------------------------------|
  ---------------------------------------------------------------|
PM .............................................................

  --------------------------------------------------------|
  ----11-----11-----10-----10-----------------------------|
  -8-8--8-8-8--8-7-7--7-7-7--7--8-7-8-10-8-10-12-10-12----|
  ------------------------------Distortion-Here--------8~-|
  -----------------------------------------------------8~-|
  -----------------------------------------------------6~-|

[Outro, Guitar 1] - [03:30] -[04:38]
- -----------------------------------------------------------------|
- -----------------------------------------------------------------|
- -7-7-7-7-7-7-7-7-7-7-7-7-7-7-7-7-7-7-7-7-7-7-7-7-7-7-7-7-7-7-7-7-|
- -7-7-7-7-7-7-7-7-7-7-7-7-7-7-7-7-7-7-7-7-7-7-7-7-7-7-7-7-7-7-7-7-|
- -5-5-5-5-5-5-5-5-5-5-5-5-5-5-5-5-5-5-5-5-5-5-5-5-5-5-5-5-5-5-5-5-|
- -----------------------------------------------------------------|

  -----------------------------------------------------------------|
  -----------------------------------------------------------------|
  -----------------------------------------------------------------|
  -9-9-9-9-9-9-9-9-9-9-9-9-9-9-9-9-9-9-9-9-9-9-9-9-9-9-9-9-9-9-9-9-|
  -9-9-9-9-9-9-9-9-9-9-9-9-9-9-9-9-9-9-9-9-9-9-9-9-9-9-9-9-9-9-9-9-|
  -7-7-7-7-7-7-7-7-7-7-7-7-7-7-7-7-7-7-7-7-7-7-7-7-7-7-7-7-7-7-7-7-|

  -----------------------------------------------------------------|
  -----------------------------------------------------------------|
  -----------------------------------------------------------------|
  -7-7-7-7-7-7-7-7-7-7-7-7-7-7-7-7-7-7-7-7-7-7-7-7-7-7-7-7-7-7-7-7-|
  -7-7-7-7-7-7-7-7-7-7-7-7-7-7-7-7-7-7-7-7-7-7-7-7-7-7-7-7-7-7-7-7-|
  -5-5-5-5-5-5-5-5-5-5-5-5-5-5-5-5-5-5-5-5-5-5-5-5-5-5-5-5-5-5-5-5-|

  -----------------------------------------------------------------|
  -----------------------------------------------------------------|
  ---------------------------------7-7-7-7-7-7-7-7-6-6-6-6-6-6-6-6-|
  -5-5-5-5-5-5-5-5-5-5-5-5-5-5-5-5-5-5-5-5-5-5-5-5-4-4-4-4-4-4-4-4-|
  -5-5-5-5-5-5-5-5-5-5-5-5-5-5-5-5---------------------------------|
  -3-3-3-3-3-3-3-3-3-3-3-3-3-3-3-3---------------------------------|

  -----------------------------------------------------------------|
  -----------------------------------------------------------------|
  -7-7-7-7-7-7-7-7-7-7-7-7-7-7-7-7-7-7-7-7-7-7-7-7-7-7-7-7-7-7-7-7-|
  -7-7-7-7-7-7-7-7-7-7-7-7-7-7-7-7-7-7-7-7-7-7-7-7-7-7-7-7-7-7-7-7-|
  -5-5-5-5-5-5-5-5-5-5-5-5-5-5-5-5-5-5-5-5-5-5-5-5-5-5-5-5-5-5-5-5-|
  -----------------------------------------------------------------|

  -----------------------------------------------------------------|
  -----------------------------------------------------------------|
  -----------------------------------------------------------------|
  -9-9-9-9-9-9-9-9-9-9-9-9-9-9-9-9-9-9-9-9-9-9-9-9-9-9-9-9-9-9-9-9-|
  -9-9-9-9-9-9-9-9-9-9-9-9-9-9-9-9-9-9-9-9-9-9-9-9-9-9-9-9-9-9-9-9-|
  -7-7-7-7-7-7-7-7-7-7-7-7-7-7-7-7-7-7-7-7-7-7-7-7-7-7-7-7-7-7-7-7-|

  -----------------------------------------------------------------|
  -----------------------------------------------------------------|
  -----------------------------------------------------------------|
  -7-7-7-7-7-7-7-7-7-7-7-7-7-7-7-7-7-7-7-7-7-7-7-7-7-7-7-7-7-7-7-7-|
  -7-7-7-7-7-7-7-7-7-7-7-7-7-7-7-7-7-7-7-7-7-7-7-7-7-7-7-7-7-7-7-7-|
  -5-5-5-5-5-5-5-5-5-5-5-5-5-5-5-5-5-5-5-5-5-5-5-5-5-5-5-5-5-5-5-5-|

  -----------------------------------------------------------------|
  -----------------------------------------------------------------|
  ---------------------------------7-7-7-7-7-7-7-7-6-6-6-6-6-6-6-6-|
  -5-5-5-5-5-5-5-5-5-5-5-5-5-5-5-5-5-5-5-5-5-5-5-5-4-4-4-4-4-4-4-4-|
  -5-5-5-5-5-5-5-5-5-5-5-5-5-5-5-5---------------------------------|
  -3-3-3-3-3-3-3-3-3-3-3-3-3-3-3-3---------------------------------|

  ----
  ----
  ----
  -9~-
  -9~-
  -7~-

[Outro, Guitar 2] - [03:30] -[04:38]
- ----------------------------------------------------------------|
- -5-7-3~--5-7-3~--5-7-3~--5-7-3~---------------------------------|
- -x-x-x---x-x-x---x-x-x---x-x-x---7-6~--7-6~---------------------|
- -2-4-0~--2-4-0~--2-4-0~--2-4-0~--x-x---x-x--5-5-5-5-5-5-5-5-5-5-|
- -0-0-0~--0-0-0~--0-0-0~--0-0-0~--5-4~--5-4~-5-5-5-5-5-5-5-5-5-5-|
- ---------------------------------0-0~--0-0~-3-3-3-3-3-3-3-3-3-3-|

  --------------------------------------------------------------|
  ----------------------------------------------5-7-3~--5-7-3~--|
  -------------7-7-7-7-7-7-7-7-6-6-6-6-6-6-6-6--x-x-x---x-x-x---|
  -5-5-5-5-5-5-5-5-5-5-5-5-5-5-4-4-4-4-4-4-4-4--2-4-0~--2-4-0~--|
  -5-5-5-5-5-5----------------------------------0-0-0~--0-0-0~--|
  -3-3-3-3-3-3--------------------------------------------------|

  ----------------------------7-7-7-9-9-9-10-10-10-10-10-10-10-10-|
  -5-7-3~--5-7-3~-------------------------------------------------|
  -x-x-x---x-x-x---7-6~--7-6~-------------------------------------|
  -2-4-0~--2-4-0~--x-x---x-x--------------------------------------|
  -0-0-0~--0-0-0~--5-4~--5-4~-------------------------------------|
  -----------------0-0~--0-0~-------------------------------------|

  -10-7-7-7-9-9-9-10-10-10-10-10-10-10-10-10----|
  ----------------------------------------------|
  ----------------------------------------------|
  -------------------------------------------9~-|
  -------------------------------------------9~-|
  -------------------------------------------7~-|


9.) [Kiss And Control] - [04:18]
Tuning: D# G# C# F# A# D#

[Drumming] - [00:00] - [00:31]

[Intro/Verse 1] - [00:31] - [01:07]
- ------------2--0----------2--3--3--5--2--2-3-3--5-----------7--3--|
- --0--0--0----3--0-0--0-----3--0--0--0--3------0--0-----------8--0-|
- ---0--0--0---------0--0--------------2----------------------------|
- -2--------0---2--------0h2--2-----------2---------4h5p4h5p4-------|
- ----3--2---------3--2----------3--2---------3--2-----------7--3---|
- ------------------------------------------------------------------|

  --2-3-2--2-3--3--2-3-2----7-8-7-5----------------------------------|
  -------3-------0------3--------------------------------------------|
  --------------------0----------------------------------------------|
  -----0--2--------------7/9-------0-7-9-7-7-7-4-4-4-4-4-4-4-4-4-4-4-|
  -2-----------3--2------5/7-------------5-5-5-2-2-2-2-2-2-2-2-2-2-2-|
  -------------------------------------------------------------------|

  ---------------5-|
  -----------5-5-5-|
  -------7-7-7-7-7-|
  -4-7-7-7-7-7-7-7-|
  -2-5-5-5-5-5-5-5-|
  -----------------|

[Chorus 1] - [01:07] - [01:34]
- --0----0-----------------------------------3-3-3---0----0---------|
- ----0----0-----3-3-3-5~-555-5-5-5----------x-x-x-----0----0-----3-|
- ---0-0--0-0----5-5-5-7~-777-7-7-7-0-00-0-0-0-0-0----0-0--0-0----5-|
- -2~---4~----5~-5-5-5-7~-777-7-7-7-2-22-2-2-2-2-2--2~---4~----5~-5-|
- -2~---4~----5~-3-3-3-5~-555-5-5-5-2-22-2-2-2-2-2--2~---4~----5~-3-|
- -0~---2~----3~-3-3-3-5~-555-5-5-5-0-00-0-0-0-0-0--0~---2~----3~-3-|

  ----------------------------------------<12>--------|
  -3-3-5~-555-5-5-5---------------------------<7>-----|
  -5-5-7~-777-7-7-7-9-11-12-9-11-12-16~----------<5~>-|
  -5-5-7~-777-7-7-7-x-x--x--x-x--x--x-----------------|
  -3-3-5~-555-5-5-5-7-9--10-7-9--10-14~---------------|
  -3-3-5~-555-5-5-5-0-0--0--0-0--0--0~----------------|

[Verse 2] - [01:34] - [02:09]
- --------------------------------------------------------------|
- --------------------------------------------------------------|
- --------------------------------------------------------------|
- -999999---------------------777777-999999---------------------|
- -777777-101010101010-999999-555555-777777-101010101010-999999-|
- --------8-8-8-8-8-8--777777---------------8-8-8-8-8-8--777777-|

  -----------------------------------------------------------|
  -13b-13--13--13--------------------------------------------|
  -17----16--16--16------------------------------------------|
  ------------------999999---------------------777777-999999-|
  ------------------777777-101010101010-999999-555555-777777-|
  -------------------------8-8-8-8-8-8--777777---------------|

  ----------------------12b-------------------------------------|
  -----------------------------7-7-7-7-7--3-3-3-3-3--2-2-2-2-2--|
  ---------------------9-------9-9-9-9-9--5-5-5-5-5--4-4-4-4-4--|
  -------------------------x-x-9-9-9-9-9--5-5-5-5-5--4-4-4-4-4--|
  -101010101010-999999-----x-x-7-7-7-7-7--3-3-3-3-3--2-2-2-2-2--|
  -8-8-8-8-8-8--777777-----x-x-0-0-0-0-0--0-0-0-0-0--0-0-0-0-0--|
PM                         ...

  ---------------------------------------------------------------|
  -5-5-5-5-5------------------------------------5-5-5--7-7-7-7-7-|
  -7-7-7-7-7-12-12-12~-12----------14-14-14~-14-7-7-7--9-9-9-9-9-|
  -7-7-7-7-7-x--x--x---x--10-10-10-x--x--x---x--7-7-7--9-9-9-9-9-|
  -5-5-5-5-5-10-10-10~-10-10-10-10-12-12-12~-12-5-5-5--7-7-7-7-7-|
  -0-0-0-0-0-0--0--0---0--8--8--8--0--0--0---0---------0-0-0-0-0-|

  ------------------------------------------------------------|
  -3-3-3-3-3--2-2-2-2-2--5-5-5-5-5----------------------------|
  -5-5-5-5-5--4-4-4-4-4--7-7-7-7-7----------------------------|
  -5-5-5-5-5--4-4-4-4-4--7-7-7-7-7--------------------------7-|
  -3-3-3-3-3--2-2-2-2-2--5-5-5-5-5--2-2-2-2-2-2-2-2-2-2-2-2-5-|
  -0-0-0-0-0--0-0-0-0-0--0-0-0-0-0----------------------------|
PM                                                          .

  -----------5-|
  ---------5-5-|
  -------7-7-7-|
  -777-7-7-7-7-|
  -555-5-5-5-5-|
  -------------|
PM ...

[Verse 2 Overdub] - [01:43] - [01:52]
- ------------------------------------------------------------------|
- ------------------------------------------------------------------|
- -11-12-12-11-12-12----<7><7><7><7>----<9><9><9><9>-11-12-12-11-12-|
- -------------------12-<9><9><9><9>-12-----------------------------|
- ------------------------------------------------------------------|
- ------------------------------------------------------------------|

  ------------------------12b-----|
  --------------------------------|
  -12-12----<7><7><7><7>-9--------|
  -------12-<9><9><9><9>------x-x-|
  ----------------------------x-x-|
  ----------------------------x-x-|

[Chorus 2] - [02:09] - [02:36]
- --0----0-----------------------------------3-3-3--0----0---------|
- ----0----0-----3-3-3-5~-555-5-5-5----------x-x-x----0----0-----3-|
- ---0-0--0-0----5-5-5-7~-777-7-7-7-0-00-0-0-0-0-0---0-0--0-0----5-|
- -2~---4~----5~-5-5-5-7~-777-7-7-7-2-22-2-2-2-2-2-2~---4~----5~-5-|
- -2~---4~----5~-3-3-3-5~-555-5-5-5-2-22-2-2-2-2-2-2~---4~----5~-3-|
- -0~---2~----3~-3-3-3-5~-555-5-5-5-0-00-0-0-0-0-0-0~---2~----3~-3-|

  ------------------------------------------------------------|
  -3-3-5~-555-5-5-5-----------------555555555555-777777777777-|
  -5-5-7~-777-7-7-7-9-11-12-9-11-12-777777777777-999999999999-|
  -5-5-7~-777-7-7-7-x-x--x--x-x--x--777777777777-999999999999-|
  -3-3-5~-555-5-5-5-7-9--10-7-9--10-555555555555-777777777777-|
  -3-3-5~-555-5-5-5-0-0--0--0-0--0--555555555555-777777777777-|

  -------------------------|
  -----------555555-666666-|
  -------5---777777-888888-|
  -4h5----5--777777-888888-|
  ----3-3--3-555555-666666-|
  -----------555555-666666-|

[Solo] - [02:36] - [03:05]
- ------------0-----0--------------------------0-------------------|
- -----------0------5br-----------------------0--------------------|
- -4------4-------------------------4------4-----9-9-9-8-8-8-4-----|
- --------------2-2-----2-2-5-5-5\---------------x-x-x-x-x-x-------|
- ----------0---2-2-----2-2------------------0---7-7-7-6-6-6-------|
- ---3-0---3----0-0-----0-0-----------3-0---3----0-0-0-0-0-0---3-0-|
PM              ...     ...

  -----------0-0-0--------------------------------------7-7-7-8-7-5-|
  -----0-----4/5-5\-----------------------0-------------x-x-x-x-x-x-|
  -4--5------------------------4------4--5--9-9-9-8-8-8-4-4-4-5-4-2-|
  -------2-2---------2-2-4/5\---------------x-x-x-x-x-x-0-0-0-0-0-0-|
  ---0---2-2---------2-2----------------0---7-7-7-6-6-6-------------|
  --3----0-0---------0-0---------3-0---3----0-0-0-0-0-0-------------|
PM       ...         ...

  -8-8-8-7-5-3-3~--------------------------------0~-|
  -x-x-x-x-x-x-x--4~-----------------------------0~-|
  -5-5-5-4-2-0-0~-x------------------------------0~-|
  -0-0-0-0-0-0-0~-1~-4h5-4h5-4h5-4h5-4h5-4h5-4h5-2~-|
  ----------------0~-----------------------------2~-|
  -----------------------------------------------0~-|

[Davey Speaks] - [03:05] - [03:20]

[Outro] - [03:20] - [04:18]
- --0----0---------------------------------3-3-3--0----0-------|
- ----0----0-----3-3-3-5~-555-5-5-5--------x-x-x----0----0-----|
- ---0-0--0-0----5-5-5-7~-777-7-7-7-0-00-0-0-0-0---0-0--0-0----|
- -2~---4~----5~-5-5-5-7~-777-7-7-7-2-22-2-2-2-2-2~---4~----5~-|
- -2~---4~----5~-3-3-3-5~-555-5-5-5-2-22-2-2-2-2-2~---4~----5~-|
- -0~---2~----3~-3-3-3-5~-555-5-5-5-0-00-0-0-0-0-0~---2~----3~-|

  -------------------------------------0----0--------------------|
  -3-3-3-5~-555-5-5-5--------------------0----0-----3-3-3-5~-555-|
  -5-5-5-7~-777-7-7-7-9-11-12-9-11-12---0-0--0-0----5-5-5-7~-777-|
  -5-5-5-7~-777-7-7-7-x-x--x--x-x--x--2~---4~----5~-5-5-5-7~-777-|
  -3-3-3-5~-555-5-5-5-7-9--10-7-9--10-2~---4~----5~-3-3-3-5~-555-|
  -3-3-3-5~-555-5-5-5-0-0--0--0-0--0--0~---2~----3~-3-3-3-5~-555-|

  --------------3-3-3--0----0--------------------------------------|
  -5-5-5--------x-x-x----0----0------3-3-3-5~-555-5-5-5------------|
  -7-7-7-0-00-0-0-0-0---0-0--0-0-----5-5-5-7~-777-7-7-7-9-11-12-9--|
  -7-7-7-2-22-2-2-2-2-2~---4~----5~--5-5-5-7~-777-7-7-7-x-x--x--x--|
  -5-5-5-2-22-2-2-2-2-2~---4~----5~--3-3-3-5~-555-5-5-5-7-9--10-7--|
  -5-5-5-0-00-0-0-0-0-0~---2~----3~--3-3-3-5~-555-5-5-5-0-0--0--0--|

  -------0~----0-----0~-|
  -------0~-3~--1~-3~---|
  -11-12-0~-------------|
  -x--x--2~-------------|
  -9--10-2~-------------|
  -0--0--0~-------------|


10.) [The Killing Lights] - [04:05]
Tuning: D# G# C# F# A# D#

[Intro] - [00:00] - [00:22]
- ------------------------------------------------------------------------|
- ------------------------------------------------------------------------|
- ------------------------------------------------------------------------|
- ------------------------------------------------------------------------|
- -3-3-3333-35555555-0-0-0000000-0-0-0-0/3-3-3333-3/5555555-0-0-0000000-0-|
- ------------------------------------------------------------------------|

  ------------------------------------------------------------------------|
  ------------------------------------------------------------------------|
  -----------------------------------------------------------------2-0----|
  --------------------------------------------------------------------3-2-|
  -0-0-0-3-3-3333-3/5555555-0-0-0000000-0-0-0-0-3-3-3333-35555555-0-------|
  ------------------------------------------------------------------------|

[Verse 1] - [00:22] - [00:44]
- ---------------------------------------------------------------------|
- ---------------------------------------------------------------------|
- -------------------------------------------------------------2-0-----|
- -----------------------------------------------------------------3-2-|
- -3-3-3333-3/5555555-0-0-0000000-0-0-0-0-3-3-3333-3/5555555-0---------|
- ---------------------------------------------------------------------|

  ----------------------------------------------------5-3h5p3h5-5-3--|
  -------------------------------------------------------------------|
  -------------------------------------------2~---4~-2-------------2-|
  -------------------------------------------------------------------|
  -3-3-3333-3/5555555-0-0-0000000-0-0-0-0--3~--/5~-------------------|
  -------------------------------------------------------------------|

[Pre-Chorus 1] - [00:44] - [00:55-----------------------------------------|
- -0~-0~------------------------------------------------------------------|
- -1~---1~------------------------------------5-5--------5-5-5------------|
- -2~---------2-2-2-2-2-2-2-2-2-2-2-2-2-2-2-2----5-5----------3h5---------|
- -3~-----3~--3-3-3-3-3-3-3-3-3-3-3-3-3-3-3-3-------5-5-5--------3-3-3-3--|
- ------------------------------------------------------------------------|
- ------------------------------------------------------------------------|

[Chorus 1] - [00:55] - [01:06]
- --------------------3-3------------------------------------------------|
- -5-5-555-3-33-3-333-3-3-333-1-11-1-111-3-3-3-3-3-3-3-3-5-5-5-5-5-5-5-5-|
- -5-5-555-3-33-3-333-5-5-333-1-11-1-111-3-3-3-3-3-3-3-3-5-5-5-5-5-5-5-5-|
- -7-7-777-5-55-5-555-5-5-555-3-33-3-333-5-5-5-5-5-5-5-5-7-7-7-7-7-7-7-7-|
- -7-7-777-5-55-5-555-3-3-555-3-33-3-333-5-5-5-5-5-5-5-5-7-7-7-7-7-7-7-7-|
- -5-5-555-3-33-3-333-3-3-333-1-11-1-111-3-3-3-3-3-3-3-3-5-5-5-5-5-5-5-5-|

  --------------------------|
  -------5-5---------5-5----|
  ----5-5---5-5---5-5---5-5-|
  -3-3---------3-3----------|
  --------------------------|
  --------------------------|

[Fill] - [01:06] - [01:17]
- ---------------------------------------------------------------------|
- ---------------------------------------------------------------------|
- -------------------------------------------------------------2-0-----|
- -----------------------------------------------------------------3-2-|
- -3-3-3333-3/5555555-0-0-0000000-0-0-0-0-3-3-3333-3/5555555-0---------|
- ---------------------------------------------------------------------|

[Verse 2] - [01:17] - [01:39]
- ---------------------------------------------------------------------|
- ---------------------------------------------------------------------|
- -------------------------------------------------------------2-0-----|
- -----------------------------------------------------------------3-2-|
- -3-3-3333-3/5555555-0-0-0000000-0-0-0-0-3-3-3333-3/5555555-0---------|
- ---------------------------------------------------------------------|

  ----------------------------------------------------5-3h5p3h5-5-3--|
  -------------------------------------------------------------------|
  -------------------------------------------2~---4~-2-------------2-|
  -------------------------------------------------------------------|
  -3-3-3333-3/5555555-0-0-0000000-0-0-0-0--3~--/5~-------------------|
  -------------------------------------------------------------------|

[Pre-Chorus 2] - [01:39] - [01:50-----------------------------------------|
- -0~-0~------------------------------------------------------------------|
- -1~---1~------------------------------------5-5--------5-5-5------------|
- -2~---------2-2-2-2-2-2-2-2-2-2-2-2-2-2-2-2----5-5----------3h5---------|
- -3~-----3~--3-3-3-3-3-3-3-3-3-3-3-3-3-3-3-3-------5-5-5--------3-3-3-3--|
- ------------------------------------------------------------------------|
- ------------------------------------------------------------------------|

[Chorus 2] - [01:50] - [02:15]
- --------------------3-3------------------------------------------------|
- -5-5-555-3-33-3-333-3-3-333-1-11-1-111-3-3-3-3-3-3-3-3-5-5-5-5-5-5-5-5-|
- -5-5-555-3-33-3-333-5-5-333-1-11-1-111-3-3-3-3-3-3-3-3-5-5-5-5-5-5-5-5-|
- -7-7-777-5-55-5-555-5-5-555-3-33-3-333-5-5-5-5-5-5-5-5-7-7-7-7-7-7-7-7-|
- -7-7-777-5-55-5-555-3-3-555-3-33-3-333-5-5-5-5-5-5-5-5-7-7-7-7-7-7-7-7-|
- -5-5-555-3-33-3-333-3-3-333-1-11-1-111-3-3-3-3-3-3-3-3-5-5-5-5-5-5-5-5-|

  ---------------------------------------------3-3----------------------|
  -------5-5---------5-5----5-5-555-3-33-3-333-3-3-333-1-11-1-111-3-3-3-|
  ----5-5---5-5---5-5---5-5-5-5-555-3-33-3-333-5-5-555-1-11-1-111-3-3-3-|
  -3-3---------3-3----------7-7-777-5-55-5-555-5-5-555-3-33-3-333-5-5-5-|
  --------------------------7-7-777-5-55-5-555-3-3-333-3-33-3-333-5-5-5-|
  --------------------------5-5-555-3-33-3-333-3-3-333-1-11-1-111-3-3-3-|

  ----------------------------------------------------------------3-3-|
  -3-3-3-3-3-5-5-5-5-5-5-5-5-------5-5---------5-5----6-6-6-6-6-6-6-6-|
  -3-3-3-3-3-5-5-5-5-5-5-5-5----5-5---5-5---5-5---5-5-5-5-5-5-5-5-5-5-|
  -5-5-5-5-5-7-7-7-7-7-7-7-7-3-3---------3-3----------3-3-3-3-3-3-----|
  -5-5-5-5-5-7-7-7-7-7-7-7-7------------------------------------------|
  -3-3-3-3-3-5-5-5-5-5-5-5-5------------------------------------------|

  -----------------|
  -5-5-5-5-5-5-5-5-|
  -5-5-5-5-5-5-5-5-|
  -3-3-3-3-3-3-3-3-|
  -----------------|
  -----------------|

[Bass] - [02:15] - [02:26]

[Bridge] - [02:26] - [02:49]
- ------5~-6-6-5~-------5~-6---------------------------------------------|
- -6p5h6-----------6p5h6----6--------------------------------------------|
- ---------------------------3-5~-7-7-7-7-3-3-3333-5-5-5-5-5-5-5555--7-7-|
- --------------------------------7-7-7-7-3-3-3333-5-5-5-5-5-5-5555--7-7-|
- -----------------------------------------------------------------------|
- -----------------------------------------------------------------------|

  ----------------------------------------------|
  ----------------------------------------------|
  -7-7-3-3-3333---------------------------------|
  -7-7-3-3-3333-3-3-3-3-3-3-3-3-5-5-5-5-5-5-5-5-|
  ----------------------------------------------|
  ----------------------------------------------|

[Solo] - [02:49] - [03:00]
- --------------------------------------------------8b-9b-10b-12b-12b-|
- ---------10-10-10--------------12-12-12------10h12------------------|
- -10-10-10--------10-10-12-12-12--------12-12------------------------|
- --------------------------------------------------------------------|
- --------------------------------------------------------------------|
- --------------------------------------------------------------------|

  -12b-----------------------------------------------------------------|
  -----11--12--14-16-16-16-14-14-14-13-13------------------------------|
  -----------------------------------------9-9--------------9-9-9------|
  --------------------------------------------10-10--------------8h10--|
  --------------------------------------------------10-10-10---------8-|
  ---------------------------------------------------------------------|

  -------|
  -------|
  -------|
  -------|
  -8-8-8-|
  -------|

[Outro] - [03:00] - [04:05]
- --------------------3-3------------------------------------------------|
- -5-5-555-3-33-3-333-3-3-333-1-11-1-111-3-3-3-3-3-3-3-3-5-5-5-5-5-5-5-5-|
- -5-5-555-3-33-3-333-5-5-333-1-11-1-111-3-3-3-3-3-3-3-3-5-5-5-5-5-5-5-5-|
- -7-7-777-5-55-5-555-5-5-555-3-33-3-333-5-5-5-5-5-5-5-5-7-7-7-7-7-7-7-7-|
- -7-7-777-5-55-5-555-3-3-555-3-33-3-333-5-5-5-5-5-5-5-5-7-7-7-7-7-7-7-7-|
- -5-5-555-3-33-3-333-3-3-333-1-11-1-111-3-3-3-3-3-3-3-3-5-5-5-5-5-5-5-5-|

  ---------------------------------------------3-3----------------------|
  -------5-5---------5-5----5-5-555-3-33-3-333-3-3-333-1-11-1-111-3-3-3-|
  ----5-5---5-5---5-5---5-5-5-5-555-3-33-3-333-5-5-555-1-11-1-111-3-3-3-|
  -3-3---------3-3----------7-7-777-5-55-5-555-5-5-555-3-33-3-333-5-5-5-|
  --------------------------7-7-777-5-55-5-555-3-3-333-3-33-3-333-5-5-5-|
  --------------------------5-5-555-3-33-3-333-3-3-333-1-11-1-111-3-3-3-|

  ----------------------------------------------------------------------|
  -3-3-3-3-3-5-5-5-5-5-5-5-5-------5-5---------5-5----5-5-555-3-33-3-33-|
  -3-3-3-3-3-5-5-5-5-5-5-5-5----5-5---5-5---5-5---5-5-5-5-555-3-33-3-33-|
  -5-5-5-5-5-7-7-7-7-7-7-7-7-3-3---------3-3----------7-7-777-5-55-5-55-|
  -5-5-5-5-5-7-7-7-7-7-7-7-7--------------------------7-7-777-5-55-5-55-|
  -3-3-3-3-3-5-5-5-5-5-5-5-5--------------------------5-5-555-3-33-3-33-|

  -3-3---------------------------------------------------|
  -3-3-333-1-11-1-111-3-3-3-3-3-3-3-3-5-5-5-5-5-5-5-5-1~-|
  -5-5-555-1-11-1-111-3-3-3-3-3-3-3-3-5-5-5-5-5-5-5-5-1~-|
  -5-5-555-3-33-3-333-5-5-5-5-5-5-5-5-7-7-7-7-7-7-7-7-3~-|
  -3-3-333-3-33-3-333-5-5-5-5-5-5-5-5-7-7-7-7-7-7-7-7-3~-|
  -3-3-333-1-11-1-111-3-3-3-3-3-3-3-3-5-5-5-5-5-5-5-5-1~-|


[Overdubbed Solo] - [03:22] - [04:05]
- -------------------15-15----------------12----------------------------|
- -13p12-13p12-12h13-------12-12-12h13-13---13--------13----------------|
- --------------------------------------------16-12-16--16-14--14-16p14-|
- ----------------------------------------------------------------------|
- ----------------------------------------------------------------------|
- ----------------------------------------------------------------------|

  -------------------------------------------------------|
  -------------------------------------------------------|
  -17p14-19p14-------------------------------------------|
  --------------------------------------14--15--17---17~-|
  --------------14-14-14-14-14-14-15--15--15--15--15-----|
  -------------------------------------------------------|


11.) [37mm] - [03:54]
Tuning: D# G# C# F# A# D#

Thers not much guitar in this song either so i tabbed out some of the
sounds yu can make here too..

[Intro/Noise] - [00:00] - [00:15]
- ----8-7--------8-7---|
- -10---------10-------|
- -------9~---------9~-|
- ---------------------|
- ---------------------|
- ---------------------|

[Verse 1 Bass] - [00:15] - [00:45]

[Chorus 1] - [00:45] - [01:03]
- -----------------------------------------------------------------|
- -----------------------------------------------------------------|
- -5-5-x-x-x-x-5-5-x-x-x-x-5-5-x-x-x-x-5-5-x-x-x-x-----------------|
- -3-3-x-x-x-x-3-3-x-x-x-x-5-5-x-x-x-x-5-5-x-x-x-x-3-3-x-x-x-x-3-3-|
- -------------------------3-3-x-x-x-x-3-3-x-x-x-x-3-3-x-x-x-x-3-3-|
- -------------------------------------------------1-1-x-x-x-x-1-1-|

  -----------------------------------------------------------------|
  -----------------------------------------------------------------|
  ---------------------------------5-5-x-x-x-x-5-5-x-x-x-x-5-5-x-x-|
  -x-x-x-x-3-3-x-x-x-x-3-3-x-x-x-x-3-3-x-x-x-x-3-3-x-x-x-x-5-5-x-x-|
  -x-x-x-x-3-3-x-x-x-x-3-3-x-x-x-x-------------------------3-3-x-x-|
  -x-x-x-x-1-1-x-x-x-x-1-1-x-x-x-x---------------------------------|

  -----------------------------------------------------------------|
  -----------------------------------------------------------------|
  -x-x-5-5-x-x-x-x-------------------------------------------------|
  -x-x-5-5-x-x-x-x-5-5-x-x-x-x-5-5-x-x-x-x-5-5-x-x-x-x-5-5-x-x-x-x-|
  -x-x-3-3-x-x-x-x-5-5-x-x-x-x-5-5-x-x-x-x-5-5-x-x-x-x-5-5-x-x-x-x-|
  -----------------3-3-x-x-x-x-3-3-x-x-x-x-3-3-x-x-x-x-3-3-x-x-x-x-|

  ----
  ----
  ----
  -7~-
  -7~-
  -5~-

[Verse 2 Bass] - [01:03] - [01:33]

[Chorus 2] - [01:33] - [01:47]
- -----------------------------------------------------------------|
- -----------------------------------------------------------------|
- -5-5-x-x-x-x-5-5-x-x-x-x-5-5-x-x-x-x-5-5-x-x-x-x-----------------|
- -3-3-x-x-x-x-3-3-x-x-x-x-5-5-x-x-x-x-5-5-x-x-x-x-3-3-x-x-x-x-3-3-|
- -------------------------3-3-x-x-x-x-3-3-x-x-x-x-3-3-x-x-x-x-3-3-|
- -------------------------------------------------1-1-x-x-x-x-1-1-|

  -----------------------------------------------------------------|
  -----------------------------------------------------------------|
  ---------------------------------5-5-x-x-x-x-5-5-x-x-x-x-5-5-x-x-|
  -x-x-x-x-3-3-x-x-x-x-3-3-x-x-x-x-3-3-x-x-x-x-3-3-x-x-x-x-5-5-x-x-|
  -x-x-x-x-3-3-x-x-x-x-3-3-x-x-x-x-------------------------3-3-x-x-|
  -x-x-x-x-1-1-x-x-x-x-1-1-x-x-x-x---------------------------------|

  -----------------------------------------------------------------|
  -----------------------------------------------------------------|
  -x-x-5-5-x-x-x-x-------------------------------------------------|
  -x-x-5-5-x-x-x-x-5-5-x-x-x-x-5-5-x-x-x-x-5-5-x-x-x-x-5-5-x-x-x-x-|
  -x-x-3-3-x-x-x-x-5-5-x-x-x-x-5-5-x-x-x-x-5-5-x-x-x-x-5-5-x-x-x-x-|
  -----------------3-3-x-x-x-x-3-3-x-x-x-x-3-3-x-x-x-x-3-3-x-x-x-x-|

[Piano] - [01:47] - [02:17]

[Oooing Noise] - [02:17] - [02:31]
- ----9~-7~------------------|
- -10~---------(6)-(7)-9~-6~-|
- ----------7~---------------|
- ---------------------------|
- ---------------------------|
- ---------------------------|

[Bridge] - [02:31] - [02:46]
- -------------------------------|
- -7~-5~-5-3-2~---7~-5~-5-3-2-0~-|
- -------------2~----------------|
- -------------------------------|
- -------------------------------|
- -------------------------------|

[Chorus 3/Outro] - [02:31] - [03:16]
- -----------------------------------------------------------------|
- -----------------------------------------------------------------|
- -5-5-x-x-x-x-5-5-x-x-x-x-5-5-x-x-x-x-5-5-x-x-x-x-----------------|
- -3-3-x-x-x-x-3-3-x-x-x-x-5-5-x-x-x-x-5-5-x-x-x-x-3-3-x-x-x-x-3-3-|
- -------------------------3-3-x-x-x-x-3-3-x-x-x-x-3-3-x-x-x-x-3-3-|
- -------------------------------------------------1-1-x-x-x-x-1-1-|

  -----------------------------------------------------------------|
  -----------------------------------------------------------------|
  ---------------------------------5-5-x-x-x-x-5-5-x-x-x-x-5-5-x-x-|
  -x-x-x-x-3-3-x-x-x-x-3-3-x-x-x-x-3-3-x-x-x-x-3-3-x-x-x-x-5-5-x-x-|
  -x-x-x-x-3-3-x-x-x-x-3-3-x-x-x-x-------------------------3-3-x-x-|
  -x-x-x-x-1-1-x-x-x-x-1-1-x-x-x-x---------------------------------|

  -----------------------------------------------------------------|
  -----------------------------------------------------------------|
  -x-x-5-5-x-x-x-x-------------------------------------------------|
  -x-x-5-5-x-x-x-x-5-5-x-x-x-x-5-5-x-x-x-x-5-5-x-x-x-x-5-5-x-x-x-x-|
  -x-x-3-3-x-x-x-x-5-5-x-x-x-x-5-5-x-x-x-x-5-5-x-x-x-x-5-5-x-x-x-x-|
  -----------------3-3-x-x-x-x-3-3-x-x-x-x-3-3-x-x-x-x-3-3-x-x-x-x-|

  -----------------------------------------------------------------|
  -----------------------------------------------------------------|
  -5-5-x-x-x-x-5-5-x-x-x-x-5-5-x-x-x-x-5-5-x-x-x-x-----------------|
  -3-3-x-x-x-x-3-3-x-x-x-x-5-5-x-x-x-x-5-5-x-x-x-x-3-3-x-x-x-x-3-3-|
  -------------------------3-3-x-x-x-x-3-3-x-x-x-x-3-3-x-x-x-x-3-3-|
  -------------------------------------------------1-1-x-x-x-x-1-1-|

  -----------------------------------------------------------------|
  -----------------------------------------------------------------|
  ---------------------------------5-5-x-x-x-x-5-5-x-x-x-x-5-5-x-x-|
  -x-x-x-x-3-3-x-x-x-x-3-3-x-x-x-x-3-3-x-x-x-x-3-3-x-x-x-x-5-5-x-x-|
  -x-x-x-x-3-3-x-x-x-x-3-3-x-x-x-x-------------------------3-3-x-x-|
  -x-x-x-x-1-1-x-x-x-x-1-1-x-x-x-x---------------------------------|

  -----------------------------------------------------------------|
  -----------------------------------------------------------------|
  -x-x-5-5-x-x-x-x-------------------------------------------------|
  -x-x-5-5-x-x-x-x-5-5-x-x-x-x-5-5-x-x-x-x-5-5-x-x-x-x-5-5-x-x-x-x-|
  -x-x-3-3-x-x-x-x-5-5-x-x-x-x-5-5-x-x-x-x-5-5-x-x-x-x-5-5-x-x-x-x-|
  -----------------3-3-x-x-x-x-3-3-x-x-x-x-3-3-x-x-x-x-3-3-x-x-x-x-|

[Drums] - [03:16] - [03:54]


12.) [Endlessly, She Said] - [04:28]
Tuning: C# G# C# F# A# D#

[Sounds] - [00:00] - [00:25]

[Intro] - [00:25] - [00:41]
- -----------------------------------------------------------------------|
- --7----5--------7--7----5-------------------7----5--------7-8-----5----|
- ---7--6-6-6--6/7-7--7----7-6-----------------7--6-6-6--6/7---7-----7-6-|
- -9----------------9----7--7--9--9-9-9--9-9-9---------------9--9--7--7--|
- -----------------------------10-9-9-10-9-9-----------------------------|
- -----------------------------9--9-9-9--9-9-----------------------------|

  ---------------|
  ---------------|
  ---------------|
  -9--9-9-9--9-9-|
  -10-9-9-10-9-9-|
  -9--9-9-9--9-9-|

[Verse 1] - [00:41] - [01:15]
- ---------------------------------------------------------------------|
- --------------------------7----5--------7-8-----5--------------------|
- -7~----7-6-----------------7--6-6-6--6\7---7-----7-6-----------------|
- ------7-7--9--9-9-9--9-9-9---------------9--9--7--7---9--9--9-9-9--9-|
- -----------10-9-9-10-9-9------------------------------10-10-9-9-9--9-|
- -----------9--9-9-9--9-9------------------------------9--9--9-9-9--9-|

  ---------------------------------------------------------------------|
  ---------------------------------------------------------------------|
  ------------777-6-6-6------999-7-7-7------777-6-6-6------------------|
  9-9\-0-7\9/-----------7\9/-----------7\9/-----------9--9--9-9-9--9-9-|
  9-9\-0-7\9/-----------7\9/-----------7\9/-----------10-10-9-9-9--9-9-|
  9-9\-0-7\9/-----------7\9/-----------7\9/-----------9--9--9-9-9--9-9-|

  ---------------------------------------------------------------------|
  ---------------------------------------------------------------------|
  ----------777-6-6-6--------999-7-7-7--------111111-9-9-9-------------|
  9\-0-7\9/-----------7-7\9/-----------7-7\9/--------------9--9--9-9-9-|
  9\-0-7\9/-----------7-7\9/-----------7-7\9/--------------10-10-9-9-9-|
  9\-0-7\9/-----------7-7\9/-----------7-7\9/--------------9--9--9-9-9-|

  ---------------------------|
  ---------------------------|
  ---------------------------|
  -9-9-9-9-9--9-9-9-9-9--7-5-|
  -9-9-9-9-9--9-9-9-9-9--7-5-|
  -9-9-9-9-9--9-9-9-9-9--7-5-|

[Chorus 1] - [01:15] - [01:35]
- ----------------------------------------------------------------------|
- ----------------------------------------------------------------------|
- -------------9\11-11-11-11-11-11-11-11-11-----------------------------|
- -9-999-9-9-9-x-x--x--x--x--x--x--x--x--x--7-777-7-7-7--7-777--7-5--9--|
- -9-999-9-9-9-7\9--9--9--9--9--9--9--9--9--7-777-7-7-7--7-777--7-5--9--|
- -9-999-9-9-9-0-0--0--0--0--0--0--0--0--0--7-777-7-7-7--7-777--7-5--9--|

  ----------------------------------------------------------------------|
  ----------------------------------------------------------------------|
  -------------11-11-11-11-11\12-12-12-12-12----------------------------|
  -999-9-9-9-0-x--x--x--x--x--x--x--x--x--x--7-777-7-7-7--7-777--7-5--9-|
  -999-9-9-9-0-9--9--9--9--9-\10-10-10-10-10-7-777-7-7-7--7-777--7-5--9-|
  -999-9-9-9-0-0--0--0--0--0--0--0--0--0--0--7-777-7-7-7--7-777--7-5--9-|

  -------------------|
  -------------------|  I know theres other octave chords in ther, i just
  -------------------|  din't tab them in cuz most of them you can't play
  999-9-9-9--9-999-9-|  seeing as how they're a second guitar behind the
  999-9-9-9--9-999-9-|  first.
  999-9-9-9--9-999-9-|

[Verse 2] - [01:35] - [02:09]
- ------<7>--------<12>---------------------------------------------------|
- ---<7>--------<7>-------------------------------------------------------|
- <7>---------<7>----------------------------------777-6-6-6------999-7-7-|
- -^------------------9--9--9-9-9--9-9-9\-0---7\9/-----------7\9/---------|
- -|------------------9--9--9-9-9--9-9-9\-0---7\9/-----------7\9/---------|
- -|------------------9--9--9-9-9--9-9-9\-0---7\9/-----------7\9/---------|
   |_____That note is either very quiet or not there at all..your call.

  ------------------------------------------------------------------------|
  ------------------------------------------------------------------------|
  7------777-6-6-6-----------------------------777-6-6-6--------999-7-7-7-|
  --7\9/-----------9--9--9-9-9--9-9-9\-0--7\9/-----------7-7\9/-----------|
  --7\9/-----------9--9--9-9-9--9-9-9\-0--7\9/-----------7-7\9/-----------|
  --7\9/-----------9--9--9-9-9--9-9-9\-0--7\9/-----------7-7\9/-----------|

  --------------------------------------------------------------|
  --------------------------------------------------------------|
  --------111111-9-9-9--------------------------------   <-- 11-|s
  -7-7\9/--------------9--9--9-9-9--9-9-9-9-9-----7-5-----------|
  -7-7\9/--------------10-10-9-9-9--9-9-9-9-9-----7-5-----------|
  -7-7\9/--------------9--9--9-9-9--9-9-9-9-9-----7-5-----------|

[Chorus 2] - [02:09] - [02:29]
- ----------------------------------------------------------------------|
- ----------------------------------------------------------------------|
- -------------9\11-11-11-11-11-11-11-11-11-----------------------------|
- -9-999-9-9-9-x-x--x--x--x--x--x--x--x--x--7-777-7-7-7--7-777--7-5--9--|
- -9-999-9-9-9-7\9--9--9--9--9--9--9--9--9--7-777-7-7-7--7-777--7-5--9--|
- -9-999-9-9-9-0-0--0--0--0--0--0--0--0--0--7-777-7-7-7--7-777--7-5--9--|

  ----------------------------------------------------------------------|
  ----------------------------------------------------------------------|
  -------------11-11-11-11-11\12-12-12-12-12----------------------------|
  -999-9-9-9-0-x--x--x--x--x--x--x--x--x--x--7-777-7-7-7--7-777--7-5--9-|
  -999-9-9-9-0-9--9--9--9--9-\10-10-10-10-10-7-777-7-7-7--7-777--7-5--9-|
  -999-9-9-9-0-0--0--0--0--0--0--0--0--0--0--7-777-7-7-7--7-777--7-5--9-|

  -------------------|
  -------------------|
  -------------------|
  999-9-9-9--9-999-9-|
  999-9-9-9--9-999-9-|
  999-9-9-9--9-999-9-|

[Bridge 1] - [02:29] - [02:45]
- -------10---------------------------------10---------------------------|
- -7h8-----8--------------------------7h8-----8--------------------------|
- ----9-9---9----------------------------9-9---9-------------------------|
- ------------9-9-9-9-9-9-9-9-9-9-9-9------------9-9-9-9-9-9-9-9-9-9-9-9-|
- ------------9-9-9-9-9-9-9-9-9-9-9-9------------9-9-9-9-9-9-9-9-9-9-9-9-|
- ------------9-9-9-9-9-9-9-9-9-9-9-9------------9-9-9-9-9-9-9-9-9-9-9-9-|
PM            ...........                        ...........

  -------10----------------------------------------------|
  -7h8-----8---------------------------------------------|
  ----9-9---9--------------------------------------------|
  ------------9-9-9-9-9-9-9-9-9-9-9-9--5~--5-55555-5\7-7-|
  ------------9-9-9-9-9-9-9-9-9-9-9-9--5~--5-55555-5\7-7-|
  ------------9-9-9-9-9-9-9-9-9-9-9-9--5~--5-55555-5\7-7-|
PM            ...........

[Solo] - [02:45] - [03:01]
- -------10-----------------------------------10-------------------------|
- -7h8-----8----------------------------7h8-----8------------------------|
- ----9-9---9------------------------------9-9---9-------------------<7>-|
- ----------------11-11-11-----11h12-12------------------------<7><7>----|
- ------------------------12-12--------------------------7h9-9-----------|
- -----------9-9-9---------------------------------7h9-9-----------------|

  ---------------------<12>--------------------------------------------|
  --------7h8-------<7>------------------------------------------------|
  -<7>-------9-9-<5>---------------------------------------------------|
  -------------------------------12-12-12-0-4/5\0-5~-----7/9-----------|
  ----<9>---------------------------------0-------5~---------(7)(7)(7)-|
  --------------------------9-9-9---------0-------5~---------(7)(7)(7)-|

[Fill] - [03:01] - [03:07]
- ----------------------------------------------------------------------|
- ----------------------------------------------------------------------|
- ----------------------------------------------------------------------|
- -9-9---9-9---9-9---9-9--9-9---9-9---9-9---9-9--9-9---9-9---9-9---9-9--|
- -9-10--9-10--9-10--9-9--9-10--9-10--9-10--9-9--9-10--9-10--9-10--9-9--|
- -9-9---9-9---9-9---9-9--9-9---9-9---9-9---9-9--9-9---9-9---9-9---9-9--|
PM .....................................................

  -----------------|
  -----------------|
  -----------------|
  -9-9--9-9--9-9-9-|
  -9-9--9-9--9-9-9-|
  -9-9--9-9--9-9-9-|
                                      |-----This note is held and then
[Bridge 2] - [03:07] - [03:17]        V     some effect makes it come
- -----------------------------------------|  on and off a couple times.
- --3--3------------------------------2~---|
- ----------------------------2--4----2~---|  If you don't have the effect
- ---4--4---2/4-4-4-4/5-4-2----0--2---4~---|  you can just hit it a couple
- -2--2--2-------------------0--0--0--2~---|  of times with rests..up to
- -----------------------------------------|  you.

[Chorus 3] - [03:17] - [03:48]
- ----------------------------------------------------------------------|
- ----------------------------------------------------------------------|
- -------------9\11-11-11-11-11-11-11-11-11-----------------------------|
- -9-999-9-9-9-x-x--x--x--x--x--x--x--x--x--7-777-7-7-7--7-777--7-5--9--|
- -9-999-9-9-9-7\9--9--9--9--9--9--9--9--9--7-777-7-7-7--7-777--7-5--9--|
- -9-999-9-9-9-0-0--0--0--0--0--0--0--0--0--7-777-7-7-7--7-777--7-5--9--|

  ----------------------------------------------------------------------|
  ----------------------------------------------------------------------|
  -------------11-11-11-11-11\12-12-12-12-12----------------------------|
  -999-9-9-9-0-x--x--x--x--x--x--x--x--x--x--7-777-7-7-7--7-777--7-5--9-|
  -999-9-9-9-0-9--9--9--9--9-\10-10-10-10-10-7-777-7-7-7--7-777--7-5--9-|
  -999-9-9-9-0-0--0--0--0--0--0--0--0--0--0--7-777-7-7-7--7-777--7-5--9-|

  ---------------------------------------------------------------------|
  ---------------------------------------------------------------------|
  -----------11-11-11-11-11-11-14-14-14-14-14-14-----------------------|
  999-9-9-9--x--x--x--x--x--x--x--x--x--x--x--x--7-777-7-7-7--7-777--7-|
  999-9-9-9--9--9--9--9--9--9--12-12-12-12-12-12-7-777-7-7-7--7-777--7-|
  999-9-9-9--0--0--0--0--0--0--0--0--0--0--0--0--7-777-7-7-7--7-777--7-|

  -----------------------------------------------------------------------|
  -----------------------------------------------------------------------|
  ---------------------6-6-6-6-6-6-6-6-6-6-6-6-6-6-6-6-11-11-11-11-11-11-|
  -5-------------------x-x-x-x-x-x-x-x-x-x-x-x-x-x-x-x-x--x--x--x--x--x--|
  -5--2~-2/4-5~-5/7-4~-4-4-4-4-4-4-4-4-4-4-4-4-4-4-4-4-9--9--9--9--9--9--|
  -5---------------------------------------------------------------------|

[Outro] - [03:48] - [04:04]
- ---------------------------------------------------------------------|
- ---------------------------------------------------------------------|
- ----------------6-6-6-6-6-6---------------6-6-6-6-6-6----------------|
- -9--9-9-9--9-9--6-6-6-6-6-6--5-5-5-5-5-5--6-6-6-6-6-6--9--9-9-9--9-9-|
- -10-9-9-10-9-9--4-0-0-4-0-0--5-5-5-5-5-5--4-0-0-4-0-0--10-9-9-10-9-9-|
- -9--9-9-9--9-9---------------5-5-5-5-5-5---------------9--9-9-9--9-9-|

  ----------------------------------------------|
  ----------------------------------------------|
  -6-6-6-6-6-6---------------------3-3------6-6-|
  -6-6-6-6-6-6--5-5-5-5-5-5-----4-4------4-4----|
  -4-0-0-4-0-0--5-5-5-5-5-5-----------0-0-------|
  --------------5-5-5-5-5-5--5-5----------------|

[Bass & Drums] - [04:04] - [04:28]

[Symbols Used]
~     Let Ring.
p     Pull Of.
h     Hammer On.
\     Slide Up.
/     Slide Down.
( )   These are Ghost Notes played very quietly.
< >   Numbers in these are Natural Harmonics.
\-    Slide Down and slowly let go so you are not sliding to specific
      number, but until the sound is gone.
/-    Slide Up and slowly let go so you are not sliding to specific
      number, but until the sound is gone.
x     Dead Note - hit this string so it makes very little or no noise.
PM... Palm Mute the notes with dots(.)under them.
TP*** Tremolo Pick (Pick really fast.) the notes with stars (*) under
      them.
> <   This represents a Dead Note, but the number inside is where you
      put your fingers while you hit the Dead Note. Apposed to a
      regular Dead Note (x) where you can hit it anywhere.
V     Up Stroke (You hit the string towards you not away from you.)
b     Bend.
r     Release Bend.
{}    Numbers in these are Pinch Harmonics.
-/    Slide Up from a note being held from before without rehitting the
      string before the slide.
comments
print report bad tab
14 comments total. Showing first comments.
0 reply
OhYeah12321 wrote on August 10 2006, 11:32 am

Pretty good tab for an album as such! There were a few points that I wasn't sure about, but definitely a good tab.

0 reply
shugo449 wrote on August 10 2006, 01:16 pm

AMAZING

0 reply
shugo449 wrote on August 10 2006, 01:17 pm

except miss murder

I want to post or [tab]
guest
You may want to rate the tab now too:
select rating
Please do not post tabs as comments. Select "correction" instead!