Oops, an error
Loading. Please wait.

Shut Your Mouth And Open Your Eyes Tab

by Afi
1,882 views 3 this week
2 commentsread comments
1 2 3 4 5
accurate
x 3
Autoscroll
+/-
esc
set tempo
stop
Contributor
Difficulty
intermediate
Hey! There's an official Ultimate Guitar app which is ideal
for learning songs when you're away from computer. Get the app
WARNING: You are trying to view
                                    content from Ultimate-Guitar.com
                                    in an unauthorized application,
                                    which is prohibited.

                                    Please use an official Ultimate
                                    Guitar Tabs application for iPhone,
                                    iPad or Android to access legitimate
                                    chords, guitar, bass, and drum tabs
                                    from Ultimate-Guitar.com database.

                                    Type "ultimate guitar tabs" in Apple
                                    App Store's or Android Market's
                                    search to find the application.
AFI

shut your mouth and open your eyes

standard tuning
(EADG)
p=pull off
h=hammer on
>>=pickslide
.=palm mute
~=let it ring


1.Keeping out of direct sunlight
  Intro
E|-------------------|
B|-------------------|
G|-------------------|
D|-----8-------------|
A|>>-7-6-7-----5-7~~-|
E|>>-5---5-----3-5~~-|
               .

  Verse
E|------------------------------------------------|
B|------------------------------------------------|
G|------------------------------------------------|
D|----------8------------------8------------------|
A|>>-7------6-7---5-5-5-5---7--6-7>>-12-10-9-757--|
E|>>-5--------5---3-3-3-3---5----5>>-10--8-7-535--|

  Time change
E|-----------------------------------------------------------|
B|-----------------------------------------------------------|
G|-----------------------------------------------------------|
D|---------9-1010101010101010-----------10101010-------------|
A|-7777777-7--8-8-8-8-8-8-8-8-77777777--8-8-8-8--5555-777777-|
E|-5555555--------------------55555555-----------3333-555555-|

E|----------------------------------------------------|
B|----------------------------------------------------|
G|----------------------------------------------------|
D|--9-1010101010101010------------------10101010-9999-|
A|--7--8-8-8-8-8-8-8-8-1010101010101010--8-8-8-8-7777-|
E|----------------------8-8-8-8-8-8-8-8---------------|

  Outro
E|---------------|
B|---------------|
G|---------------|
D|-----8---------|
A|---7-6-7-----5-|
E|---5---5-----3-|x2
               .

E|-----------------|
B|-----------------|
G|-----------------|
D|-5-5-5--7--------|
A|-3-3-3--5--5-5-5-|
E|-----------3-3-3-|

E|---------------|
B|---------------|
G|---------------|
D|-----8---------|
A|---7-6-7-----5-|
E|---5---5-----3-|x2
               .

E|-------------------------|
B|-------------------------|
G|-------------------------|
D|-5-5-5--7---------555555-|
A|-3-3-3--5--5-5-5--333333-|
E|-----------3-3-3---------|
                    ......

2.three reasons

intro                        * stop here on 4th time
e|-0-0---0-3p0-0---0-0---0-0-|-3-2-|
B|-0-0---0-----3---1-1---1-0-|-----|
G|---------------------------|-----| repeat 4x
D|---------------------------|-----|
A|---------------------------|-----|
E|---------------------------|-----|

verse
e|--------|---------------------------------------------------|
B|--------|*--------------------------------------------------|
G|-12--11-|--9--9-9-------9--9-9-11-12--9--9-9----------------|repeat
D|-12--11-|--9--9-9-9-10--9--9-9-11-12--9--9-9--9-10---5--5-7-|
A|-10---9-|*-7--7-7-9-10--7--7-7--9-10--7--7-7--9-10---5--5-7-|
E|--------|---------7--8------------------------7--8---3--3-5-|

  drown down your fear     suffocate every  spark of clarity
e|------------------------------------------------------------|
B|------------------------------------------------------------|
G|-9-9-------7-7-7--12-12-12---9-9-9---------7-7-7-7-7-5------|
D|-9-9--5-5--7-7-7--12-12-12---9-9-9--5-5-5--7-7-7-7-7-5------|
A|-7-7--5-5--5-5-5--10-10-10---7-7-7--5-5-5--5-5-5-5-5-3------|
E|------3-3---------------------------3-3-3-------------------|
                                                        *
e|----------------------------------------------------|-------|
B|----------------------------------------------------|-------|
G|-9-9-9-------5x7--10x12---9-9-9-9-------7-7-7-7-7-5-|---9---|
D|-9-9-9--5x7--5x7--10x12---9-9-9-9--5-7--7-7-7-7-7-5-|---9---|
A|-7-7-7--5x7--3x5---8x10---7-7-7-7--5-7--5-5-5-5-5-3-|---7---|
E|--------3x5------------------------3-5--------------|-------|

screw around with the intro for the solo

3.A Single Second


|E|---------------|-----------|----------------------------|
|B|---------------|-----------|----------------------------|
|G|---------------|-----------|-8-777777777777777-8->TO----|
|D|-555555555---5-|-bass solo-|-8-777777777777777-8->VERSE-|
|A|-555555555---5-|-----------|-6-555555555555555-6->------|
|E|-333333333---3-|-----------|----------------------------|

VERSE - "Oh My God! My God..."

|E|-----------------------------------------|
|B|-----------------------------------------|
|G|----------------------------------7-8888-|
|D|-55555-8-10--10-10-10-10-10-10-10-7-8888-|  REPEAT x3
|A|-55555-8-10--10-10-10-10-10-10-10-5-6666-|
|E|-33333-6-8----8--8--8--8--8--8--8--------|

  "Cannot for a single second stand the way I feel"

|E|----------------------------------|
|B|----------------------------------|
|G|-10-10-10-10-10-10-10-10-777777-8-|
|D|-10-10-10-10-10-10-10-10-777777-8-|  Once
|A|--8--8--8--8--8--8--8--8-555555-6-|
|E|----------------------------------|


 REPEAT THE WHOLE VERSE ONE MORE TIME


 CHORUS - "Fear Tradegy, is all that lies Aheeahhed!"


    Play Each Chord the Amount of times needed
|E|--------------|
|B|--------------|
|G|-12--8-----10-|
|D|-12--8--8--10-|
|A|-10--6--8---8-|
|E|--------6-----|


 BREAK - no singing, but zoom right into the Verse again after.

|E|-----------|
|B|-----------|
|G|-----------|
|D|-5555555->-|
|A|-5555555->-|
|E|-3333333->-|

 VERSE AGAIN

 CHORUS AGAIN

 BREAK AGAIN

 PAUSE (about 2 seconds)

 BRIDGE  1                                               [      A      ]

|E|--------------------------------------------------------------------|
|B|--------------------------------------------------------------------|
|G|--------------------------------------------------------------------|
|D|-5555555-88888888-10-10-10-10-10-10-10-10-10-10-10-10--12-12--13-13-|
|A|-5555555-88888888-10-10-10-10-10-10-10-10-10-10-10-10--12-12--13-13-|
|E|-3333333-66666666--8--8--8--8--8--8--8--8--8--8--8--8--10-10--11-11-|

INFO A = Hit these chords on the "...FEEL SO" backing vocal part.

 BRIDGE 2

                             [    B    ]
|E|--------------------------------------|
|B|--------------------------------------|
|G|--------------------------------------|
|D|-5555555-88888888-33333333-1111-3333--|
|A|-5555555-88888888-33333333-1111-3333--|
|E|-3333333-66666666-11111111------0000--|

INFO B = These "chords" look wierd, but play them, they sound exactly right.

BRIDGE 1

BRIDGE 2

END OF BRIDGE - play this after INFO B

            [C                            C                         C][D]
|E|------------------------------------------------------------------------|
|B|------------------------------------------------------------------------|
|G|---------/12-12-12-12-\\\\\\\\\\\\\\\\\\\\\\-0--------------------------|
|D|-55555555/12-12-12-12-keep picking and sliding down until u reach-0-----|
|A|-55555555/10-10-10-10-\\\\\\\\\\\\\\\\\\\\\\-0--------------------------|
|E|-33333333/----------------------------------------------------------0---|

INFO C: Pick In Here Really Fast

INFO D: This note is barely noticible, dont worry about it if you cant play fast
        enough.

CHORUS

CHORUS

ENDING

|E|---------------------------|
|B|---------------------------|
|G|---------------------------|
|D|-5555555555555555555555555-|
|A|-5555555555555555555555555-|
|E|-3333333333333333333333333-|

 99.9% Right

4.PH Low


Intro:
e-|---------------------------------|
B-|---------------------------------|
G-|---------------------------------|
D-|--------7-12-12--------7-12-12---|
A-|-7-9-10-5-10-10-7-9-10-5-10-10-7-|
E-|-5-7--8---------5-7--8---------5-|

Verse:
e-|------------------------------------------------------------------------------|
B-|------------------------------------------------------------------------------|
G-|------------------------------------------------------------------------------|
D-|---------9-9-9-9-------------------------------------7-7-7-7-12-12-12-12------|
A-|-7-7-7-7-7-7-7-7-9-9-9-9-9-9-9-9-10-10-10-10-10-10-10-10-5-5-5-5-10-10-10-10--|
E-|-5-5-5-5---------7-7-7-7-7-7-7-7--8--8--8--8--8--8--8--8----------------------|

Chorus
e-|-------------------------------|
B-|-------------------------------|
G-|-------------------------------|
D-|---10-9---10-9----10-9-7-12-12-|
A-|-7--8-7-9--8-7-10--8-7-5-10-10-|
E-|-5------7-------8--------------|

Bridge:
e-|-------------------------------------------------------------------------|
B-|-------------------------------------------------------------------------|
G-|-------------------------------------------------------------------------|
D-|-10-10-10-10-10-10-10-10-10-10-10-10-12-12-12-12-------------------------|
A-|--8--8--8--8--8--8--8--8--8--8--8--8-10-10-10-10-7-7-7-7-7-7-7-7-7-7-7-7-|
E-|-------------------------------------------------5-5-5-5-5-5-5-5-5-5-5-5-|

e-|-------------------------------------------------------------------------|
B-|-------------------------------------------------------------------------|
G-|-------------------------------------------------------------------------|
D-|---------10-10-10-10-10-10-10-10-10-10-10-10-12-12-12-12-----------------|
A-|-7-7-7-7--8--8--8--8--8--8--8--8--8--8--8--8-10-10-10-10-7-7-7-7-7-7-7-7-|
E-|-5-5-5-5-------------------------------------------------5-5-5-5-5-5-5-5-|

e-|--------------------------------------------------------------------------|
B-|--------------------------------------------------------------------------|
G-|--------------------------------------------------------------------------|
D-|-9-9-9-9-9-9-9-9-10-10-10-10-10-10-10-10-10-10-10-10-12-12-12-12----------|
A-|-7-7-7-7-7-7-7-7--8--8--8--8--8--8--8--8--8--8--8--8-10-10-10-10-etc------|
E-|--------------------------------------------------------------------------|


5.Let It Be Broke


|---------------------------------------------|
|---------------------------------------------|
|--------------3------------------------------|
|-0------------3------------1-------------0---|
|-0------------1------------1-------------0---|
|-0-------------------------1-------------0---|
  let "roar" throughout- HEAVY MOTHERFUCKING DISTORTION- HEAVY LOWS

|--------------------------------------------------------|
|--------------------------------------------------------|
|----------------3-3-3-----------------------------------|
|-0-0-0----------3-3-3----------1-1-1-1-1---------0-0----|
|-0-0-0----------1-1-1----------1-1-1-1-1---------0-0----|
|-0-0-0-------------------------1-1-1-1-1---------0-0----|
                                    PM-------------------|

off guitar- only bass

lead guitar fill:
|-----10----10---------7----7---------9----9---9---5---5---5---5---5---5--5-|
|---6-----6-----6----6----6----6----6---6---6-------------------------------|
|-7-----------------7---------------7---------------------------------------|
|---------------------------------------------------------------------------|
|---------------------------------------------------------------------------|
|---------------------------------------------------------------------------|

cont'd
|-----10-----10--------6---6---6---6---6---6---6---6--|
|---6-------6-------6---6---6---6---6---6---6---6---6-|
|-7-------7-------7-----7---7---7---7---7---7---7---7-|
|-----------------------------------------------------|
|-----------------------------------------------------|
|-----------------------------------------------------|

|---------------------------------------------------------------------------|
|---------------------------------------------------------------------------|
|---------------------------------------------------------------------------|
|--1--1--1--1--1--1--1--1--1--1--1--1--1--0--0--0--0--0--0--0--0--0--0------|
|--1--1--1--1--1--1--1--1--1--1--1--1--1--0--0--0--0--0--0--0--0--0--0------|
|--1--1--1--1--1--1--1--1--1--1--1--1--1--0--0--0--0--0--0--0--0--0--0------|
      PM--------------------------------------------------------------------|

chourus
|---------------------------------------------|
|---------------------------------------------|
|--------------3------------------------------|    2x
|-0------------3------------1-------------0---|
|-0------------1------------1-------------0---|
|-0-------------------------1-------------0---|
figure out your own goddamn rhythm for this part

do the lead part again

chorus again  x2

lets call this the bridge
|----------------------------------------------------------------|
|----------------------------------------------------------------|
|----------------------------------------------------------------|
|-0----------3----------5-----------1--1--1--0----------------1--|    2x
|-0----------3----------5-----------1--1--1--0----------------1--|
|-0----------3----------5-----------1--1--1--0----------------1--|
                                     ^one beat hesitation

|-------------------------------------------------------------|
|-------------------------------------------------------------|
|-------------------------------------------------------------|
|--0---------------1----------------0--0--0--0--0--0--0--0----|
|--0---------------1----------------0--0--0--0--0--0--0--0----|
|--0---------------1----------------0--0--0--0--0--0--0--0----|
        let ring............ then  PM-------------------------|

chorus again 2x

outro type thingy
|--------------------------------------------------|
|--------------------------------------------------|
|--------------------------3--3--3--3--3--3--3--3--|
|--0--0--0--0--0--3--3--3--3--3--3--3--3--3--3--3--|   x3
|--0--0--0--0--0--3--3--3--1--1--1--1--1--1--1--1--|
|--0--0--0--0--0--3--3--3--------------------------|

ending
|--------------------------------------------|
|--------------------------------------------|
|--------------------------------------------|
|--1--1--1--1--1--1--1--1--0----0----0----0--|
|--1--1--1--1--1--1--1--1--0----0----0----0--|
|--1--1--1--1--1--1--1--1--0----0----0----0--|


7.Lower Your Head And Tak eIt In The Body

*= play a few times
pm= palm mute

INTRO
e|-------------------------------|
B|-------------------------------|
G|----5--------------7-7-7-7-----|
D|-7*-5-7-5-2-5*-7-5-7-7-7-7-----|
A|-7*-3-7-5-2-5*-7-5-5-5-5-5-----|
E|-5*---5-3-0-3*-5-3-------------|

VERSE
   pm-----------------------------------------|
e|-------------|------------------------------|
B|-------------|------------------------------|
G|-------------|---then--7-7-7-7-5-5-5-5------|
D|-7*-5*-7*-5*-|---------7-7-7-7-5-5-5-5------|
A|-7*-5*-7*-5*-|---------5-5-5-5-3-3-3-3------|
E|-5*-3*-5*-3*-|------------------------------|

CHORUS
e|---------------------------------------------------|
B|---------------------------------------------------|
G|----5*-7*----7*-5*----5*-7*----7-7-7--5------------|
D|-7*-5*-7*-5*-7*-5*-7*-5*-7*-5*-7-7-7--5------------|
A|-7*-3*-5*-5*-5*-3*-7*-3*-5*-5*-5-5-5--3-[Note 1]---|
E|-5*-------3*-------5*-------3*---------------------|

BREAKDOWN
e|-------------------------------------------------------------------|
B|-------------------------------------------------------------------|
G|----5*----9*----5*-9*-10*-9----10*-9----10*-9----------------------|
D|-7*-5*-7*-9*-7*-5*-9*-10*-9-10-10*-9-10-10*-9-10-7*----------------|
A|-7*-3*-7*-7*-7*-3*-7*-8*--7-10-8*--7-10-8*--7-10-7*----------------|
E|-5*----5*----5*-------------8--------8--------8--5*-[pickslide]----|

Song Order:
Intro x2
Verse
Chorus
Verse
Chorus
Breakdown
Intro x4
End on A

Note 1 - This note is only played on the first chorus and not the second.
Instead of playing the C note on the second chorus play a G note.

8.Coin Return


#= Pick Slide  /= Slide down  (--)= Palm Mute

Intro
|------------------------------------>
|------------------------------------>
|------------------------------------>
|----8888-----8888-----8888-----888-->
|777-7777-777-7777-777-7777-777-777-->
|------------------------------------>

Intro Cont...
|-------------------->    |------------------------>
|-------------------->    |------------------------>
|-------------------->    |----------------12-9-9-->
|22-255-588-8-10-12--> X3 |22-255-588-8-10-12-9-9-->
|22-255-588-8-10-12-->    |22-255-588-8-10-10-7-7-->
|00-033-366-6-8--10-->    |00-033-366-6-8---------->

Verse
|--------------------------------------->
|--------------------------------------->
|99--999-999-99------------------------->
|99--999-999-99-----22-255-588-8-10-12--> X2
|77--777-777-77-----22-255-588-8-10-12-->
|00--000-000-00-9/--00-033-366-6-8--10-->

Verse Cont...
|------------------------>
|------------------------>
|------------------------>
|99-999-91010-101212-12--> X1
|99-999-91010-101212-12-->
|77-777-78-8--8-1010-10-->

Chorus
|------------------------------------------------>
|------------------------------------------------>
|--------------------------------1212-121111-11-->
|1414-14-1414141212-55-588-8-8-8-1212-121111-11-->
|1414-14-1414141212-55-588-8-8-8-1010-109-9--9--->
|1212-12-1212121010-33-366-6-6-6----------------->

|----------------------------------------------------------->
|----------------------------------------------------------->
|----------------------------------------------------------->
|1414-14-1414141212-55-588-8-8-8-55-544-4-22-2-2-2---------->
|1414-14-1414141212-55-588-8-8-8-55-544-4-22-2-2-2---------->
|1212-12-1212121010-33-366-6-6-6-33-322-2-00-0-0-0##########>

Play Verse again, and Verse Cont...

Play Chorus again( note: Don't play the ending "E" Power Chords and No Pick
Slide. Just
                                 go straight into the Special).

Special
|----------------->    |------------------------------------------------>
|----------------->    |------------------------------------------------>
|----9---12--999-->    |-------------------------------------7-7777777-->
|----9---12--999--> X1 |2-222-22--54-444-44--75-555-55--5777-7-7777777--> X2
|(--)7(-)10--777-->    |2-222-22--54-444-44--75-555-55--5777-5-5555555-->
|0000-000--00000-->    |0-000-00--32-222-22--53-333-33--3555------------>

Bass fill.

Play Intro a little longer.

9.The New Patron Saints And Angels


e|---------------------------------------------------------------------------|
B|-------------------------------------(play this till the pick slide)-------|
G|----------------------------9---------11-11-11-11-11-11-11-11-11-11--------|
D|-(firts bass then)-7-7-7-7--9--9-9-9---------------------------------------|
A|-------------------7-7-7-7--7--9-9-9---9--9--9--9--9--9--9--9--9--9--------|
E|-------------------5-5-5-5-----7-7-7---------------------------------------|

00:11
e|--------------------------------------------------------------------------|
B|--------------------------------------------------------------------------|
G|-9-9-9-9-9-9-9-9--7--5-5-5-5-5-5--7---------------------------------------|
D|-9-9-9-9-9-9-9-9--7--5-5-5-5-5-5--7--7-7-7-7-7-7--9--10-10-10-10--9-9-9-9-|  x2
A|-7-7-7-7-7-7-7-7--5--3-3-3-3-3-3--5--7-7-7-7-7-7--9--10-10-10-10--9-9-9-9-|
E|-------------------------------------5-5-5-5-5-5--7---8--8--8--8--7-7-7-7-|

00:24
e|---------------------------------------------------------------------------|
B|---------------------------------------------------------------------------|
G|-11-11-11-11-11--7-7-7-7---------11-11-11-11-11-----------9-9-9-9-9--------|
D|-11-11-11-11-11--7-7-7-7--7-7-7--11-11-11-11-11--7-7-7-7--9-9-9-9-9--9-9-9-|
A|--9--9--9--9--9--5-5-5-5--7-7-7---9--9--9--9--9--7-7-7-7--7-7-7-7-7--9-9-9-|
E|--------------------------5-5-5------------------5-5-5-5-------------7-7-7-|

e|--------------------------------------------------------------------------|
B|--------------------------------------------------------------------------|
G|-11-11-11-11-11-11-11-11--7-7-7-7-7-7-7-7---------------------------------|
D|-11-11-11-11-11-11-11-11--7-7-7-7-7-7-7-7--9-9-9-9-9-9-9-9-9-9-9----------|
A|--9--9--9--9--9--9--9--9--5-5-5-5-5-5-5-5--9-9-9-9-9-9-9-9-9-9-9----------|
E|-------------------------------------------7-7-7-7-7-7-7-7-7-7-7----------|

00:36
e|--------------------------------------------------------------------------|
B|--------------------------------------------------------------------------|
G|-9-9-9-9-9-9-9-9--7--5-5-5-5-5-5--7---------------------------------------|

D|-9-9-9-9-9-9-9-9--7--5-5-5-5-5-5--7--7-7-7-7-7-7--9--10-10-10-10--9-9-9-9-|            
                  x2
A|-7-7-7-7-7-7-7-7--5--3-3-3-3-3-3--5--7-7-7-7-7-7--9--10-10-10-10--9-9-9-9-|
E|-------------------------------------5-5-5-5-5-5--7---8--8--8--8--7-7-7-7-|

00:48
e|---------------------------------------------------------------------------|
B|---------------------------------------------------------------------------|
G|-11-11-11-11-11--7-7-7-7---------11-11-11-11-11-----------9-9-9-9-9--------|
D|-11-11-11-11-11--7-7-7-7--7-7-7--11-11-11-11-11--7-7-7-7--9-9-9-9-9--9-9-9-|
A|--9--9--9--9--9--5-5-5-5--7-7-7---9--9--9--9--9--7-7-7-7--7-7-7-7-7--9-9-9-|
E|--------------------------5-5-5------------------5-5-5-5-------------7-7-7-|

e|--------------------------------------------------------------------------|
B|--------------------------------------------------------------------------|
G|-11-11-11-11-11-11-11-11--7-7-7-7-7-7-7-7---------------------------------|
D|-11-11-11-11-11-11-11-11--7-7-7-7-7-7-7-7--9-9-9-9-9-9-9-9-9-9-9----------|
A|--9--9--9--9--9--9--9--9--5-5-5-5-5-5-5-5--9-9-9-9-9-9-9-9-9-9-9----------|
E|-------------------------------------------7-7-7-7-7-7-7-7-7-7-7----------|

01:00
e|---------------------------------------------------------------------------|
B|---------------------------------------------------------------------------|
G|-11-11-11-11-11--7-7-7-7---------11-11-11-11-11-----------9-9-9-9-9--------|
D|-11-11-11-11-11--7-7-7-7--7-7-7--11-11-11-11-11--7-7-7-7--9-9-9-9-9--9-9-9-|
A|--9--9--9--9--9--5-5-5-5--7-7-7---9--9--9--9--9--7-7-7-7--7-7-7-7-7--9-9-9-|
E|--------------------------5-5-5------------------5-5-5-5-------------7-7-7-|

e|--------------------------------------------------------------------------|
B|--------------------------------------------------------------------------|
G|-11-11-11-11-11-11-11-11--7-7-7-7-7-7-7-7---------------------------------|
D|-11-11-11-11-11-11-11-11--7-7-7-7-7-7-7-7--9-9-9-9-9-9-9-9-9-9-9----------|
A|--9--9--9--9--9--9--9--9--5-5-5-5-5-5-5-5--9-9-9-9-9-9-9-9-9-9-9----------|
E|-------------------------------------------7-7-7-7-7-7-7-7-7-7-7----------|

01:13
e-|-------------------------------------------------------------------------|
B-|-------------------------------------------------------------------------|
G-|-9-9-9-9--7--5-5--7--5-5------------7--5-5--7--5-5-----------------------|
D-|-9-9-9-9--7--5-5--7--5-5-(play 5x)--7--5-5--7--5-5-(play 5x)-------------|
A-|-7-7-7-7--5--3-3--5--3-3------------5--3-3--5--3-3-----------------------|
E-|-------------------------------------------------------------------------|

01:36
e|--------------------------------------------------------------------------|
B|-----(~=let ring)---------------------------------------------------------|
G|-9~--9~--9~--9~--11~--------------------------------9---------------------|
D|-9~--9~--9~--9~---9~--(after bass plays)-7-7-7-7-7--9--9-9-9--------------|
A|-7~--7~--7~--7~---9~---------------------7-7-7-7-7--7--9-9-9--------------|
E|-----------------------------------------5-5-5-5-5-----7-7-7--------------|

01:54
e|--------------------------------------------------------------------------|
B|--------------------------------------------------------------------------|
G|-11-11-11-11-11-11-11-11--7-7-7-7-7-7-7-7---------------------------------|
D|-11-11-11-11-11-11-11-11--7-7-7-7-7-7-7-7--9-9-9-9-9-9-9-9-9-9-9----------|
A|--9--9--9--9--9--9--9--9--5-5-5-5-5-5-5-5--9-9-9-9-9-9-9-9-9-9-9----------|
E|-------------------------------------------7-7-7-7-7-7-7-7-7-7-7----------|

02:00
e|---------------------------------------------------------------------------|
B|---------------------------------------------------------------------------|
G|-11-11-11-11-11--7-7-7-7---------11-11-11-11-11-----------9-9-9-9-9--------|
D|-11-11-11-11-11--7-7-7-7--7-7-7--11-11-11-11-11--7-7-7-7--9-9-9-9-9--9-9-9-|
A|--9--9--9--9--9--5-5-5-5--7-7-7---9--9--9--9--9--7-7-7-7--7-7-7-7-7--9-9-9-|
E|--------------------------5-5-5------------------5-5-5-5-------------7-7-7-|

e|--------------------------------------------------------------------------|
B|--------------------------------------------------------------------------|
G|-11-11-11-11-11-11-11-11--7-7-7-7-7-7-7-7---------------------------------|
D|-11-11-11-11-11-11-11-11--7-7-7-7-7-7-7-7--9-9-9-9-9-9-9-9-9-9-9----------|
A|--9--9--9--9--9--9--9--9--5-5-5-5-5-5-5-5--9-9-9-9-9-9-9-9-9-9-9----------|
E|-------------------------------------------7-7-7-7-7-7-7-7-7-7-7----------|

02:14
e|---------------------------------------------------------------------------|
B|---------------------------------------------------------------------------|
G|-11--11--11--11------------------------------------------------------------|
D|-11--11--11--11------------------------------------------------------------|

10.Three Seconds Notice

INTRO
e-|----------------------------------------------------------------------|
B-|----------------------------------------------------------------------|
G-|---9---12--7-7--------------------------------------------------------|
D-|---9-7-12--7-7-7-7--9-9-9-9-10101010----------------------------------|
A-|---7-7-10--5-5-7-7--9-9-9-9-10101010--5-7-8---------------------------|
E-|-----5---------5-5--7-7-7-7--8-8-8-8----------------------------------|

e-|----------------------------------------------------------------------|
B-|----------------------------------------------------------------------|
G-|---9---12--7-7--------------------------------------------------------|
D-|---9-7-12--7-7-7-7--9-9-9-9-10101010----------------------------------|
A-|---7-7-10--5-5-7-7--9-9-9-9-10101010--5-7-8---------------------------|
E-|-----5---------5-5--7-7-7-7--8-8-8-8----------------------------------|

e-|----------------------------------------------------------------------|
B-|----------------------------------------------------------------------|
G-|----------------------------------------------------------------------|
D-|--------------------9-9-9-9-10101010----------------------------------|
A-|--------------------9-9-9-9-10101010--7-8-10--------------------------|
E-|--------------------7-7-7-7--8-8-8-8----------------------------------|

e-|----------------------------------------------------------------------|
B-|----------------------------------------------------------------------|
G-|----------------------------------------------------------------------|
D-|--------------------9-9-9-9-10101010----------------------------------|
A-|--------------------9-9-9-9-10101010--5-7-8---------------------------|
E-|--------------------7-7-7-7--8-8-8-8----------------------------------|

e-|----------------------------------------------------------------------|
B-|----------------------------------------------------------------------|
G-|----------------------------------------------------------------------|
D-|--------------------9-9-9-9-10101010----------------------------------|
A-|--------------------9-9-9-9-10101010----------------------------------|
E-|--------------------7-7-7-7--8-8-8-8----------------------------------|

VERSE			      x4
e-|----------------------------------------------------------------------|
B-|----------------------------------------------------------------------|
G-|---9---12-12-12-12--7-7-----------------------------------------------|
D-|---9-7-12-12-12-12--7-7-7-7-------------------------------------------|
A-|---7-7-10-10-10-10--5-5-7-7-------------------------------------------|
E-|-----5------------------5-5-------------------------------------------|

CHORUS
e-|----------------------------------------------------------------------|
B-|----------------------------------------------------------------------|
G-|---------------10101010----12----------------10101010-12121212--------|
D-|--9-9-9-9-7-9--10101010-10-12---9-9-9-9-7-9--10101010-12121212--------|
A-|--9-9-9-9-7-9---8-8-8-8-10-10---9-9-9-9-7-9---8-8-8-8-10101010--------|
E-|--7-7-7-7-5-7------------8------7-7-7-7-5-7---------------------------|

e-|----------------------------------------------------------------------|
B-|----------------------------------------------------------------------|
G-|--9-9-9-9--12121212----9-9-9-9--12-10---------------------------------|
D-|--9-9-9-9--12121212----9-9-9-9--12-10-10-12---------------------------|
A-|--7-7-7-7--10101010----7-7-7-7--10--8-10-12---------------------------|
E-|---------------------------------------8-10---------------------------|

e-|----------------------------------------------------------------------|
B-|----------------------------------------------------------------------|
G-|--9-9-9-9--12121212---------12-10-------------------------------------|
D-|--9-9-9-9--12121212----2-2--12-10-10-12-------------------------------|
A-|--7-7-7-7--10101010----2-2--10--8-10-12-------------------------------|
E-|-----------------------0-0---------8-10-------------------------------|


11.Salt For Your Wounds

\= slide down
PM=palm mute
xx=pick scratch

Intro:
e|-----------------------------------------------------------------------------|
B|-----------------------------------------------------------------------------|
G|--9-9-9-9-9-9-9-9--10-10-10-\-4-4-4------------------------9-9-9-9-9-9-9-9---|
D|--9-9-9-9-9-9-9-9--10-10-10-\-4-4-4-play this 3 times then-9-9-9-9-9-9-9-9---|
A|--7-7-7-7-7-7-7-7--8--8--8--\-2-2-2------------------------7-7-7-7-7-7-7-7---|
E|--7-7-7-7-7-7-7-7--8--8--8--\-2-2-2------------------------7-7-7-7-7-7-7-7---|

Intro:
-------------------------------------------------------------------------------|
-------------------------------------------------------------------------------|
-------------------------------------------------------------------------------|
--3--10------------------------------------------------------------------------|
--3--10------------------------------------------------------------------------|
--1--8-------------------------------------------------------------------------|

Verse 1: Theres a tear in my heart where the blood ran out...............
e|--------------------------------------------------------------------------|
B|--------------------------------------------------------------------------|
G|---------------10-10-10-10-10-10------------------------------------------|
D|--7-7-7-7-7-7--10-10-10-10-10-10-8-8-8-8-8-8-8-8-8--10\8------------------|
A|--7-7-7-7-7-7--8--8--8--8--8--8--8-8-8-8-8-8-8-8-8--10\8------------------|
E|--5-5-5-5-5-5--8--8--8--8--8--8--6-6-6-6-6-6-6-6-6--8-\6------------------|

e|--------------------------------------------------------------------------|
B|--------------------------------------------------------------------------|
G|---------------10-10-10-10-10-10------------------------------------------|
D|--7-7-7-7-7-7--10-10-10-10-10-10-8-8-8-8-8-8-8-8-8---6--------------------|
A|--7-7-7-7-7-7--8--8--8--8--8--8--8-8-8-8-8-8-8-8-8---6--------------------|
E|--5-5-5-5-5-5--8--8--8--8--8--8--6-6-6-6-6-6-6-6-6---4--------------------|

e|--------------------------------------------------------------------------|
B|--------------------------------------------------------------------------|
G|---------------10-10-10-10-10-10------------------------------------------|
D|--7-7-7-7-7-7--10-10-10-10-10-10-8-8-8-8-8-8-8-8-8--10\8------------------|
A|--7-7-7-7-7-7--8--8--8--8--8--8--8-8-8-8-8-8-8-8-8--10\8------------------|
E|--5-5-5-5-5-5--8--8--8--8--8--8--6-6-6-6-6-6-6-6-6--8-\6------------------|

e|--------------------------------------------------------------------------|
B|--------------------------------------------------------------------------|
G|---------------10-10-10-10-10-10------------------------------------------|
D|--7-7-7-7-7-7--10-10-10-10-10-10-8-8-8-8-8-8-8-8-8---6--------------------|
A|--7-7-7-7-7-7--8--8--8--8--8--8--8-8-8-8-8-8-8-8-8---6--------------------|
E|--5-5-5-5-5-5--8--8--8--8--8--8--6-6-6-6-6-6-6-6-6---4--------------------|

Chorus: Disenchanted, disgusted i regret that i trusted.....................
e|--------------------------------------------------------------------------|
B|--------------------------------------------------------------------------|
G|-9-9-9-9-9-9-9-9---------------------------9-9-9-9-9----------------------|
D|-9-9-9-9-9-9-9-9--10-10-10-10-10-10-10-10--9-9-9-9-9--10-10-10-10-10------|
A|-7-7-7-7-7-7-7-7--10-10-10-10-10-10-10-10--7-7-7-7-7--10-10-10-10-10------|
E|-7-7-7-7-7-7-7-7--8--8--8--8--8--8--8--8---7-7-7-7-7--8--8--8--8--8-------|

e|-----------------------------------------------------------------------------|
B|-----------------------------------------------------------------------------|
G|-10-10-10-10-10------------9-9-9-9-9-9-9-9--------------9-9-9-9-9-9-9-9------|
D|-10-10-10-10-10-9-9-9-9-9--9-9-9-9-9-9-9-9--10-10-10-10-9-9-9-9-9-9-9-9-6-6--|
A|-8--8--8--8--8--9-9-9-9-9--7-7-7-7-7-7-7-7--10-10-10-10-7-7-7-7-7-7-7-7-6-6--|
E|-8--8--8--8--8--7-7-7-7-7--7-7-7-7-7-7-7-7--8--8--8--8--7-7-7-7-7-7-7-7-4-4--|

Verse 2: same as verse 1

Chorus:EVERYTHING IS THE SAME EXCEPT THE ENDING
WHICH IS THE breakdown

THEY TWISTED THE KNIFE FURTHER IN............................
e|--------------------------------------------------------------------------|
B|(end of chorus)-----------------------------------------------------------|
G|9---9-------------------------3---3-------3---3-------3---3-------3---3---|
D|9-8-9-7 let ring....------------------------------------------------------|
A|7-8-7-7-----------------1-1-1---1---------------2-2-2---2-----------------|
E|7-6-7-5-----------------------------2-2-2---2---------------1-1-1---1-----|

e|---------------------------------------------------------------------------|
B|---------------------------------------------------------------------------|
G|-------3---3-------3---3--------3----3-------3---3----3XX333--------4XX444-|
D|------------------------------------------------------3XX333-4XX444-4XX444-|
A|-1-1-1---1---------------2-2-2----2-------------------1XX111-4XX444-2XX222-|
E|-------------2-2-2---2-----------------1-1-1---1------1XX111-2XX222-2XX222-|

e|--------------------------------------------------------------------------|
B|--------------------------------------------------------------------------|
G|----------3XX333--------4XX444--222222------------------------------------|
D|-3XX333---3XX333-4XX444-4XX444--222222------------------------------------|
A|-3XX333---1XX111-4XX444-2XX222--XXXXXX------------------------------------|
E|-1XX111---1XX111-2XX222-2XX222--XXXXXX------------------------------------|


12.Todays Lesson


intro/verse:

|-000---3-333---777--5-555------------|   |-000---3-333---77777777---------|
|-222---5-555---999--7-777------------|   |-222---5-555---99999999---------|
|-222---5-555---999--7-777---x3 then--|   |-222---5-555---99999999---------|
|-------------------------------------|   |--------------------------------|
|-------------------------------------|   |--------------------------------|
|-------------------------------------|   |--------------------------------|


chorus:

|-000---3-333---555--8-8-8-8----------------------|
|-222---5-555---777--10101010----5-7777-5-7777----|
|-222---5-555---777--10101010----7-9999-7-9999----|
|--------------------------------7-9999-7-9999----|
|-------------------------------------------------|
|-------------------------------------------------|

13.The Devil Loves You


^ = palm mute
" = I didnt have room to fit it in so do the math yourself dumbass
~ = bend

INTRO                          x4
e-|---------------------------------|
B-|---------------------------------|
G-|---11--9-9-9-9-----12-10101010---|
D-|---11--9-9-9-9-----12-10101010---|
A-|----9--7-7-7-7-----10--8-8-8-8---|
E-|---------------------------------|

VERSE								      x2
e-|-----------------------------------------------------------------------|
B-|-----------------------------------------------------------------------|
G-|--9-9-9-9-----5-5--6-6-6-6-----------9-9-9-9-----5-5--6-6-6-6----------|
D-|--9-9-9-9--6--5-5--6-6-6-6-----------9-9-9-9--6--5-5--6-6-6-6--5-5-5-5-|
A-|--7-7-7-7--6--3-3--4-4-4-4--6/7/6/7--7-7-7-7--6--3-3--4-4-4-4--5-5-5-5-|
E-|-----------4----------------------------------4----------------3-3-3-3-|

CHORUS							z2
e-|-----------------------------------------------------------|
B-|-----------------------------------------------------------|
G-|---11--9-9-9-9-----12-10101010----11--9-9-9-9-----12-10----|
D-|---11--9-9-9-9-----12-10101010----11--9-9-9-9-----12-10----|
A-|----9--7-7-7-7-----10--8-8-8-8-----9--7-7-7-7-----10--8----|
E-|-----------------------------------------------------------|

SOLO
e-|-------------------------------------------------|
B-|-------------------------------------------------|
G-|------------11--10---9---------11--10---9--------|
D-|----9~------11--10---9---9-----11--10---9---9----|
A-|--------6~---9---8---7---9------9---8---7---9----|
E-|-------------------------7------------------7----|

e-|-------------------------------------------------|
B-|-------------------------------------------------|
G-|-------------11--10---9-----------10---12---9----|
D-|----9~--10~--11--10---9---9-------10---12---9----|
A-|--------------9---8---7---9--------8---10---7----|
E-|--------------------------7----------------------|

OUTRO / SECOND PART OF CHORUS
e-|---------------------------------|
B-|---------------------------------|
G-|---------------------------------|
D-|---4--2-2-2-2-----5--3-3-3-3-----|
A-|---4--2-2-2-2-----5--3-3-3-3-----|
E-|---2--0-0-0-0-----3--1-1-1-1-----|

14.Triple Zero


/ - slide to
pm... - palm mute
~ - Vibrato

Intro -
e|-------------|
B|-------------|
G|-------------|
D|--14---5--7--|
A|--12---5--6--|
E|-------3--5--|

Verse - "It Burns! It Burns!"
e|-----------------|
B|-----------------|
G|---------~5---8--|
D|-7--5/7--~5-7-8--|
A|-7--5/7--~3-7-6--|
E|-5--3/5-----5----|

Prechorus -
e|--------------------|
B|--------------------|
G|---------8-------8--|
D|-7-------8-7-----8--|
A|-7-------6-7-----6--|
E|-5---------5--------|
  pm......   ....

Chorus -
e|---------------|
B|---------------|
G|-----10-----7--|
D|--7--10-10--7--|
A|--7--8--10--5--|
E|--5-----8------|

Breakdown -
e|------------------------------------------------|
B|------------------------------------------------|
G|-7----------------------------------------------|
D|-----bass, then-------then pick slide and all---|
A|-5---------------~6---sorts of harmonics stuff--|
E|------------------------------------------------|

Breakdown - (Continued)
e|-----------------------------------------|
B|-----------------------------------------|
G|-------------------5------8------88888---|
D|-77-77-7-5/7-77-7--5-7-77-8-then-88888---|
A|-77-77-7-5/7-77-7-~3-7-77-6------66666---|
E|-55-55-5-3/5-55-5----5-55----------------|
      pm       ..        ..

Play Intro here, then:

Outro - (Be warned, this is only a try)
e|-----------------------|
B|-----------------------|
G|-----------21----------|
D|--14--15---20----------|
A|--12--14---19----13----|
E|-----------------11----|
comments
We did not receive enough feedback on this tab! Please rate:
print report bad tab
1 2 3 4 5
2 comments total.
0 reply
redsoxxplayer wrote on November 7 2006, 10:14 pm

all of the songs are perfect except for the following:
5.Let it be broke sounds nothing like the song
6.You didn't even tab Third season (that was one of the best songs)
9.and the New Patrons saints and angels is kind of confusing
but the rest of the songs are great -4 stars

0 reply
secret ninja wrote on January 18 2007, 07:14 am

Third Season is on here but Let it be Broke isnt. The names are switched. Pretty good album tab glad someone tabbed three reasons finally.

I want to post or [tab]
guest
You may want to rate the tab now too:
select rating
Please do not post tabs as comments. Select "correction" instead!