Oops, an error
Loading. Please wait.

Sing The Sorrow Tab

by Afi
ver1
ver1

Album

More versions @911Tabs.com
9,525 views 6 this week
19 commentsread comments
1 2 3 4 5
worth learning
x 29
Autoscroll
+/-
esc
set tempo
stop
Contributor
Hey! There's an official Ultimate Guitar app which is ideal
for learning songs when you're away from computer. Get the app
WARNING: You are trying to view
                                    content from Ultimate-Guitar.com
                                    in an unauthorized application,
                                    which is prohibited.

                                    Please use an official Ultimate
                                    Guitar Tabs application for iPhone,
                                    iPad or Android to access legitimate
                                    chords, guitar, bass, and drum tabs
                                    from Ultimate-Guitar.com database.

                                    Type "ultimate guitar tabs" in Apple
                                    App Store's or Android Market's
                                    search to find the application.
Here's My try at tabbing the whole album, This is a really great album, if you
dont have it, you really should get it. Afi is awesome.I dont have the book,
so i know its not prefect, but oh well.....................

1.) Miseria Cantare - The Beginning 

e|---------------------------------------------------------------------------|
B|---------------------------------------------------------------------------|
G|-8-8-11-6-8---8-8-11-6-8-6-8-----------------------------------------------|
D|-8-8-11-6-8---8-8-11-6-8-6-8--x2-------------------------------------------|
A|-6-6-9--4-6---6-6-9--4-6-4-6-----------------------------------------------|
E|---------------------------------------------------------------------------|

e|---------------------------------------------------------------------------|
B|---------------------------------------------------------------------------|
G|-11-10--11-13-11-10-11-15----------8---------------------------------------|
D|-x--x---x--x--x--x--x--x-----------8---------------------------------------|
A|-9--8---9--11-9--8--9--13----------6---------------------------------------|
E|---------------------------------------------------------------------------|

2.)The Leaving Song Part 2

e|----11-18-11-14-13-9-14-13-----------11-16-18-14-16-13-11------------------|
B|-11-------------------------------11---------------------------------------|
G|---------------------------------------------------------------------------|
D|----------------------------x3---------------------------------------------|
A|---------------------------------------------------------------------------|
E|---------------------------------------------------------------------------|
Verse
e|---------------------------------------------------------------------------|
B|---------------------------------------------------------------------------|
G|-11-10-8---11-10-8----11-13/15-8--13-11------------------------------------|
D|-x--x--x---x--x--x----x--x-/x--x--x--x-------------------------------------|
A|-9--8--6---9--8--6----9--11/13-6--11-9-------------------------------------|
E|---------------------------------------------------------------------------|

e|-11-14-13-9-13-11------11----14----13----9-----13--11--14-13---------------|
B|--------------------------11----11-----11---11---------11-11---------------|
G|---------------------------------------------------------------------------|
D|-------------------x2------------------------------------------------------|
A|---------------------------------------------------------------------------|
E|---------------------------------------------------------------------------|

e|---------------------------------------------------------------------------|
B|---------------------------------------------------------------------------|
G|-8-8--15-13-15-8-8-15-13-11-----11-13--------------------------------------|
D|-8-8--x--x--x--8-8-x--x--x---11----13--------------------------------------|
A|-6-6--13-11-13-6-6-13-11-9--9------11--------------------------------------|
E|---------------------------------------------------------------------------|

e|---------------------------------------------------------------------------|
B|---------------------------------------------------------------------------|
G|-8-8-8-8-8--------8-9-11-9-------------------------------------------------|
D|-8-8-8-8-8--------------------x2-------------------------------------------|
A|-6-6-6-6-6--------6-7-9--7-------------------------------------------------|
E|---------------------------------------------------------------------------|

e|-11-16-14-------11-11-14--16-14--------16-16-18----------------------------|
B|----------11-11------------------11-11-------------------------------------|
G|---------------------------------------------------------------------------|
D|---------------------------------------------------------------------------|
A|---------------------------------------------------------------------------|
E|---------------------------------------------------------------------------|

e|---------------------------------------------------------------------------|
B|---------------------------------------------------------------------------|
G|--7-10-13-15---------------------------------------------------------------|
D|--x-x--x--x----------------------------------------------------------------|
A|--5-8--11-13---------------------------------------------------------------|
E|---------------------------------------------------------------------------|

3.)Bleed Black

Intro Part 1 
e|-------------------------------------------------------------------------| 
B|-------------------------------------------------------------------------| 
G|-8---8---8-8---8----9---9---9-9---9---6---6---6-6---6---8---8---8-8---8--| 
D|---6---6-----6---6----6---6-----6---6---6---6-----6---6---6---6-----6---6| 
A|-------------------------------------------------------------------------| 
E|-------------------------------------------------------------------------| 

e|-------------------------------------------------------------------------| 
B|-------------------------------------------------------------------------| 
G|-6---6---6-6---6---9---9---9-9---9---6---6---6-6---6----8----------------| 
D|---6---6-----6---6---6---6-----6---6---6---6-----6---6--x----------------| 
A|--------------------------------------------------------6----------------| 
E|-------------------------------------------------------------------------| 

Verse
e|-------------------------------------------------------------------------|
B|-------------------------------------------------------------------------|
G|-8-8-8-6-6-6-8-8-8-4-4-4-8-8-8-6-6-6--9-9-9--------9-9-9-----------------|
D|-x-x-x-x-x-x-x-x-x-x-x-x-x-x-x-x-x-x--x-x-x-----x3-x-x-x---4-4-----------|
A|-6-6-6-4-4-4-6-6-6-2-2-2-6-6-6-4-4-4--7-7-7--------7-7-7---4-4-----------|
E|-----------------------------------------------------------2-2-----------| 


e|----------------------------------------------------------------------------
B|----------------------------------------------------------------------------
G|-------------------------------9------------------------------------9----11-
D|-------------------------------9-9----------------------------------9--9-11-
A|-7---------7---------7---------7-9--7---------7----------7----------7--9-9--
E|---4-7-4-4---4-7-4-4---4-7-4-4---7----4-7-4-4----4-7-4-4----4-7-4-4----7----

Chorus 
e|---------------------------------------| 
B|---------------------------------------| 
G|-4---9---4---3-4-4---9---4-------------| 
D|-4-4-9-6-4-4-X-X-4-4-9-6-4-4---------4-| 
A|-2-4-7-6-2-4-1-2-2-4-7-6-2-4-7-------6-| 
E|---2---4---2-------2---4---2---4-7-4-4-| 

Bridge 
e|--------X2-------------------4-------------------------------|
B|-------------------------------4-----------------------------| 
G|-------6-----4--8-------4-------------6-9-9---4-8-13-12-13---| 
D|-6-5-4-6---2-4--8---------6-----6-5-4-6-9-9-6-4-X--X--X-x--6-| 
A|-6-5-4-4---2-2--6-6-------------6-5-4-4-7-7-6-2-6-11-10-11-6-| 
E|-4-3-2-----0-------4------------4-3-2-------4--------------4-| 

e|----------------------------| 
B|----------------------------| 
G|-13-15-15-16-20-16-15-13-15-| 
D|--X--X--X--X--X--X--X--X--X-| 
A|-11-13-13-14-18-14-13-11-13-| 
E|----------------------------| 


e|---7-----7-----7-----7-----7-----7--------9------9-----7-----7-----7---7-11| 
B|-9-----9-----8-----8-----7-----7--------9------9-----9-----9-----7---7---11| 
G|-----8-----8-----8-----8-----8-----8-10-----10-----9-----9-----8---8-----12| 
D|---------------------------------------------------------------------------| 
A|---------------------------------------------------------------------------| 
E|---------------------------------------------------------------------------| 

Outro 
e|-7---9---7---7---------------------7---9---7----11-----------------| 
B|---7---7--7----7/16/12-11h12p11------7---7--7------12--------------| 
G|--------------------------------11-------------------13-----------| 
D|--------------------------------------------------------13--------| 
A|-------------------------------------------------------------------| 
E|-------------------------------------------------------------------| 

4.)Silver and Cold
Intro
e|---------------------------------------------------------------------------|
B|---------------------------------------------------------------------------|
G|-3------------------15-17-19-3----------------------------------------------|
D|-3---6----4----6----x--x--x--x--------------------------------------------|
A|-1---6----4----6----13-15-17-1--------------------------------------------|
E|-----4----2----4----------------------------------------------------------|
Verse
e|---------------------------------------------------------------------------|
B|---------------------------------------------------------------------------|
G|----3------------------------------------3------------8--------------------|
D|---3-------4------6----4-------x3--------3----4--6----8--------------------|
A|-1-------4------6-----4------------------1----4--6----6--------------------|
E|-------2------4------2------------------------2--4-------------------------|

Second time palm mute
Chorus
e|---------------------------------------------------------------------------|
B|---------------------------------------------------------------------------|
G|-4--------6-8--------4--6--------------------------------------------------|
D|-4----4---6-8---x3---4--6--------------------------------------------------|
A|-2----4---4-6--------2--4--------------------------------------------------|
E|------2--------------------------------------------------------------------|
Bridge
e|-------------------------3-------------------------------------------------|
B|------3---------------3----3-----------------------------------------------|
G|-----3--3---------3--------------------------------------------------------|
D|---3-----------3-----------------------------------------------------------|
A|-1----------1--------------------------------------------------------------|
E|---------------------------------------------------------------------------|

Play verse slow,and pick

5.)Dancing Through Sunday

Intro
e|--------------------------------------------------------------------------|
B|--------------------------------------------------------------------------|
G|-15-14-13-11-8------------------------------------------------------------|
D|-x--x--x--x--x------------------------------------------------------------|
A|-13-12-11-9--6------------------------------------------------------------|
E|--------------------------------------------------------------------------|
Verse
e|--------------------------------------------------------------------------|
B|--------------------------------------------------------------------------|
G|--8-4-6---8-4-6--8-10-8-11-8---4-6-15-14-13-11-8-4--6---------------------|
D|--8-4-6---8-4-6--x-x--x-x--x---4-6--x--x-x--x--x-4--6---------------------|
A|--6-2-4---6-2-4--6-8--6-9--6---2-4-13-12-11-10-6-2--4---------------------|
E|--------------------------------------------------------------------------|
Chorus
e|--------------------------------------------------------------------------|
B|--------------------------------------------------------------------------|
G|--------8-------8-----11/10/11/8------8----11-13-14-----------------------|
D|---4----8---4---8-----x/-x-/x-/x--4---8----x--x--x------------------------|
A|---4----6---4---6-----9/-8-/9-/6--4---6----9--11-12-----------------------|
E|---2--------2---------------------2---------------------------------------|
Bridge
e|--------------------------------------------------------------------------|
B|--------------------------------------4/2---------------------------------|
G|---8~~-8-6h6p6-6-5h5p5-5-4p4h4-4-3-1------8-11---13-15--8-----------------|
D|---8~~-x----------------------------4-----8-11---13-15--x-----------------|
A|---6~~-6----------------------------------6--9---11-13--6-----------------|
E|--------------------------------------------------------------------------|

Solo tabbed by Womenfolk55@hotmail.com

|--------11h-14p-11------11h-14p-11-------------------------------------------
|----11--------------14---------------14-11h-14p-11-----11h-14p-11----11------
|---b13---------------------------------------------13--------------13--------
|-----------------------------------------------------------------------------
|-----------------------------------------------------------------------------
|-----------------------------------------------------------------------------

|-----------------------------------------------------------------------------
|-----------------------------------------------------------------------------
|--13p11--13p11----11---------------------------------------------------------
|---------------13----13p11--13p11--------------------------------------------
|-----------------------------------------13p11--13p11--11p9--11p9------------
|-----------------------------------------------------------------------11--/-

|---6-----7------9-----10----11-----------------------------------------------
|--b9---b10---b12---b13---b14---9h11p9---7h9p7---6h7p6------------------------
|--------------------------------------------------------6h8p6h8--------------
|-----------------------------------------------------------------------------
|-----------------------------------------------------------------------------
|-----------------------------------------------------------------------------

|-----------------------------------------------------------------------------
|-16--11p8-16--11p8--16--12p9-16--12p9--16--11p8-16----14p11-----11h14--------
|-T---------T--------T---------T---------T--------T----------h12--------------
|-----------------------------------------------------------------------------
|-----------------------------------------------------------------------------
|-----------------------------------------------------------------------------

|--------------------------
|--------------------------
|--b8----h11-/-15---13-----
|--------------------------
|--------------------------
|--------------------------
Hammer on the 11 with your picking hand and slide to 15 with it.


|-----------------------------------------------------------
|--11h414p11 trill-----------------------11---13-11---13----
|---------------------down bend on 13------13-------13------
|-----------------------------------------------------------
|-----------------------------------------------------------
|-----------------------------------------------------------    
6.)Girls not Grey

Intro
e|---------------------------------------------------------------------------|
B|---------------------------------------------------------------------------|
G|--------9--------------------------8--4---------8--4-----------------------|
D|-6------9----4---6-------x4--------x--x---4--6--x--x--9-8-4-6---------|
A|-6------7----4---6-----------------6--2---------6--2--9-8-4-6---------|
E|-4-----------2---4------------------------------------7-6-2-4-7-0---|
Verse
e|---------------------------------------------------------------------------|
B|---------------------------------------------------------------------------|
G|--8-8-8-6-4-3-8-8-8-6-6-6-4------------------------------------------------|
D|--6-6-6-4-2-4-6-6-6-4-4-3-2------------------------------------------------|
A|---------------------------------------------------------------------------|
E|---------------------------------------------------------------------------|
Chorus
e|---------------------------------------------------------------------------|
B|---------------------------------------------------------------------------|
G|-9------------------9--------------12-13-15--------------------------------|
D|-9---9--4---6--x3---9----9--4---6--x--x--x---------------------------------|
A|-7---9--4---6-------7----9--4---6--10-11-13-------------------------------|
E|-----7--2---4------------7--2---4-----------------------------------------|
Bridge
e|---------------------------------------------------------------------------|
B|---------------------------------------------------------------------------|
G|-9-----------------9----4-----------------11-13-6-4-----------------------|
D|-9----9----4---6---9----4---4---6----8-9--11-13-6-4--4------------------|
A|-7----9----4---6---7----2---4---6----8-9--9--11-4-2--4--------------------|
E|------7----2---4------------2---4----6-7-------------2-------------------|
 e|------X2---------------------------------|D----11-------11-------11------| 
B|---4-----4-------4-----4-----4-------4---|D-------12-------12---------11---| 
G|-----4-----3-4-----3-----4-----3-4-----3-|D-13-------13-------13-13-11-----| 
D|-6-----6-------6-----6-----6-------5-----|D--------------------------------| 
A|-----------------------------------------|D--------------------------------| 
E|-----------------------------------------|D--------------------------------| 

e|----11-------11----------14-------12----------11-------11-------------11---| 
B|-------12-------12----------12-------12----------12-------12-------------11-| 
G|-13-------13-------13-13-------13-------13-13-------13-------13-13-11-----11| 
D|--------------------------------------------------------------------------| 
A|---------------------------------------------------------------------------| 
E|---------------------------------------------------------------------------| 

e|----11-------11--------14-----14-----14---12-----12-----12------| 
B|-------12-------12--------12-----12----------12----12------------| 
G|-13-------13-------13-13-----13-----13--13-----13-----13--13-13-11-9-8-| 
D|--------------------------------------------------------------X-X-X-x-| 
A|-------------------------------------------------------------11-9-7-6-| 
E|-----------------------------------------------------------------------| 

7.)Death of Seasons

Intro
-----------------------------------------
-----------------------------------------
------------------------------------4----
------------------------------------4----
--6-6-6-6-----6-6-6-6-----6-6-6-6---2----
--4-4-4-4-----4-4-4-4-----4-4-4-4--------
Verse
--------------------------------------------------- 
--------------------------------------------------- 
--------------------------------------------------- 
--8-9--8-9-8--8-8-9-----------------------------6--  
--x-x--x-x-x--x-x-x----2-2-2--4-4--4-4-4--4-4---6-- 
--6-7--6-7-6--6-6-7----2-2-2--4-4--4-4-4--4-4---4-- 
-----------------------0-0-0--2-2--2-2-2--2-2------ 

---------------------------------------------------------- 
---------------------------------------------------------- 
---------------------------------------------------------- 
---------------------------------------------11-11-11-11-- 
--9-8---9-8---9-8----6-6-6--4-4--4-4-4--4-4--11-11-11-11-- 
---------------------6-6-6--4-4--4-4-4--4-4--9--9--9--9--- 
---------------------4-4-4--2-2--2-2-2--2-2--------------- 

Chorus
--------------------------------------------------------------------- 
--------------------------------------------------------------------- 
--------------------------------------------------------------------- 
--4-4--4-4-4--4-4-------------------8--8---8--6-6--6-9--9---9--8--8-- 
--4-4--4-4-4--4-4--4-4--4-4-4--4-4--9--9---9--8-8--8-11-11--11-9--9-- 
--2-2--2-2-2--2-2--4-4--4-4-4--4-4----------------------------------- 
-------------------2-2--2-2-2--2-2----------------------------------- 

-------------------------------------------------------------- 
-------------------------------------------------------------- 
-------------------------------------------------------------- 
--4-4--4-4-4--4-4-------------------8-8--8-6-6--6-4-4--4------ 
--4-4--4-4-4--4-4--4-4--4-4-4--4-4--x-x--x-x-x--x-x-x--x-4-4-- 
--2-2--2-2-2--2-2--4-4--4-4-4--4-4--6-6--6-4-4--4-2-2--2-4-4-- 
-------------------2-2--2-2-2--2-2-----------------------2-2-- 

--------------------------------------------------------------------- 
--------------------------------------------------------------------- 
--------------------------------------------------------------------- 
--4-4--4-4-4--4-4-------------------8--8---8--6-6--6-9--9---9--8--8-- 
--4-4--4-4-4--4-4--4-4--4-4-4--4-4--9--9---9--8-8--8-11-11--11-9--9-- 
--2-2--2-2-2--2-2--4-4--4-4-4--4-4----------------------------------- 
-------------------2-2--2-2-2--2-2-----------------------------------

------------------------------------------- 
------------------------------------------- 
------------------------------------------- 
--4-4--4-4-4--4-4-------------------------- 
--4-4--4-4-4--4-4--2-2--2-2-2--2-2--4------ 
--2-2--2-2-2--2-2--2-2--2-2-2--2-2--4------ 
-------------------0-0--0-0-0--0-0--2------ 

Bridge
---------------------- 
---------------------- 
---------------------- 
---------------------- 
-------1----2----4---- 
--4------------------- 

---------------------------------------------------------- 
---------------------------------------------------------- 
------------------------------------------------------8^-- 
--6-6-6-6-8-9--4-4-6-6-8h9--6--6-6-6-6-8-9--4-4-6-6-6----- 
--0-0-0-0-0-0--0-0-0-0-0----0--0-0-0-0-0-0--0-0-0-0-0----- 
---------------------------------------------------------- 


---------------------------------- 
---------------------------------- 
--------4-4--4-6-6--6-3-3--3-4-4-- 
--2-2-2-x-x--x-x-x--x-x-x--x-x-x-- 
--2-2-2-2-2--2-4-4--4-1-1--1-2-2-- 
--0-0-0--------------------------- 

------------------------- 
------------------------- 
------4------------------ 
--2---4---4-------------- 
--2---2---4-------------- 
--0-------2-------------- 

---------------------------------------- 
---------------------------------------- 
-----------8-8--8-9--9---9--6-6--6-8-8-- 
--2-2--2---x-x--x-x--x---x--x-x--x-x-x-- 
--2-2--2---6-6--6-7--7---7--4-4--4-6-6-- 
--0-0--0-------------------------------- 

----------------------------------------- 
----------------------------------------- 
----------------------------------------- 
--2-2--2-2-2--2-2-2--2-2-2--2-2--4-~--2-- 
--2-2--2-2-2--2-2-2--2-2-2--2-2--4-~--2-- 
--0-0--0-0-0--0-0-0--0-0-0--0-0--2-~--0-- 


8.)The Great Dissapointment


Intro  
e|------4--------4----------4-----5-----5----------7-----7--5--4----4-----4---| 
B|---------5--------5--------------------------------------------------5------| 
G|---6--------6----------6-----6-----6-----6----6-----6-----------------------| 
D|----------------------------------------------------------------------------| 
A|----------------------------------------------------------------------------| 
E|----------------------------------------------------------------------------| 

e|-----------4--------------------4----------4--------------------------------| 
B|---5---------------4h5----5--5-----5----------------------------------------| 
G|--------6-----6-------------------------6-----------------------------------| 
D|----------------------------------------------------------------------------| 
A|----------------------------------------------------------------------------| 
E|----------------------------------------------------------------------------|

Verse 
e|----------------------------------------------------------4--------4--------| 
B|-------------------------------------------------------------5--------------| 
G|---4-/-6--6--6--6----6----6-----4-/-6--6--6--6----6----6--------6-----------| 
D|---x---x--x--x--x----x----x-----x---x--x--x--x----x-------------------------| 
A|---2-/-4--4--4--4----4----4-----2-/-4--4--4--4----4-------------------------| 
E|----------------------------------------------------------------------------| 

e|-------------------------------5p4-----4-----5-----5-----4------------------| 
B|------------------------------------------------------5---------------------| 
G|---4-/-6--6--6--6----6----6---------6-----6-----6---------------------------| 
D|---x---x--x--x--x----x----x-------------------------------------------------| 
A|---2-/-4--4--4--4----4----4-------------------------------------------------| 
E|----------------------------------------------------------------------------| 

e|----------------------------------------------------------4--------4--------| 
B|-------------------------------------------------------------5--------------| 
G|---4-/-6--6--6--6----6----6-----4-/-6--6--6--6----6----6--------6-----------| 
D|---x---x--x--x--x----x----x-----x---x--x--x--x----x-------------------------| 
A|---2-/-4--4--4--4----4----4-----2-/-4--4--4--4----4-------------------------| 
E|----------------------------------------------------------------------------| 

e|-------------------------------5--5--5--5--7--7--7--7-----------------------| 
B|-------------------------------5--5--5--5--5--5--5--5-----------------------| 
G|---4-/-6--6--6--6----6----6----6--6--6--6--6--6--6--6-----------------------| 
D|---x---x--x--x--x----x----x-------------------------------------------------| 
A|---2-/-4--4--4--4----4----4-------------------------------------------------| 
E|----------------------------------------------------------------------------| 

e|----------------------------------------------------------------------------| 
B|----------------------------------------------------------------------------| 
G|---6--6--6--6--6--6----8--8--8--8--8----9--9--9--9--9-/-13------------------| 
D|---x--x--x--x--x--x----x--x--x--x--x----x--x--x--x--x----x------------------| 
A|---4--4--4--4--4--4----6--6--6--6--6----7--7--7--7--7-/-11------------------| 
E|----------------------------------------------------------------------------| 


Chorus 
e|----------------------------------------------------------------------------| 
B|----------------------------------------------------------------------------| 
G|---6--6--6--6--6------------------------------------------------------------| 
D|---6--6--6--6--6----4--4--4--4--4----7--7--7--7--7----9--9--9--9--9---------| 
A|---4--4--4--4--4----4--4--4--4--4----7--7--7--7--7----9--9--9--9--9---------| 
E|--------------------2--2--2--2--2----5--5--5--5--5----7--7--7--7--7---------| 

e|----------------------------------------------------------------------------| 
B|----------------------------------------------------------------------------| 
G|---13--13--13--13-/-14----11--11-/-13----9--9-/-11----8---------------------| 
D|----x---x---x---x----x-----x---x----x----x--x----x----x---------------------| 
A|---11--11--11--11-/-12-----9---9-/-11----7--7-/--9----6---------------------| 
E|----------------------------------------------------------------------------| 

e|----------------------------------------------------------------------------| 
B|----------------------------------------------------------------------------| 
G|---9----9-/-11--8----4--4--6------------------------------------------------| 
D|---x----x----x--x----x--x--x------------------------------------------------| 
A|---7----7-/--9--6----2--2--4------------------------------------------------| 
E|----------------------------------------------------------------------------| 

Verse 
e|--------------------------------------| 
B|--------------------------------------| 
G|---1----------------------------------| 
D|---2---4-4---7--9---------------------| 
A|---2---4-4---7--9---------------------| 
E|-------2-2---5--7---------------------| 

e|----------------------------------------------------------------------------| 
B|----------------------------------------------------------------------------| 
G|---9--9--9--9--9--9----11--11--11--11--11----13--13--13--13--13-/-18--------| 
D|---x--x--x--x--x--x-----x---x---x---x---x-----x---x---x---x---x----x--------| 
A|---7--7--7--7--7--7-----9---9---9---9---9----11--11--11--11--11-/-16--------| 
E|----------------------------------------------------------------------------| 
Bridge
e|---4--x--4--4----5--x--5--5----2--x--2--2----4--x--4--4---------------------| 
B|---5--x--5--5----5--x--5--5----2--x--2--2----5--x--5--5---------------------| 
G|---6--x--6--6----6--x--6--6----3--x--3--3----6--x--6--6---------------------| 
D|----------------------------------------------------------------------------| 
A|----------------------------------------------------------------------------| 
E|----------------------------------------------------------------------------| 

e|---4--x--4--4----5--x--5--5----2--x--2--2----2--x--2--2---------------------| 
B|---5--x--5--5----5--x--5--5----2--x--2--2----2--x--2--2---------------------| 
G|---6--x--6--6----6--x--6--6----3--x--3--3----3--x--3--3---------------------| 
D|----------------------------------------------------------------------------| 
A|----------------------------------------------------------------------------| 
E|----------------------------------------------------------------------------| 

e|---4--x--4--4----5--x--5--5----2--x--2--2----4--x--4--4---------------------| 
B|---5--x--5--5----5--x--5--5----2--x--2--2----5--x--5--5---------------------| 
G|---6--x--6--6----6--x--6--6----3--x--3--3----6--x--6--6---------------------| 
D|----------------------------------------------------------------------------| 
A|----------------------------------------------------------------------------| 
E|----------------------------------------------------------------------------| 

e|---4--x--4--4----5--x--5--5----2--x--2--2----2--x--2--2---------------------| 
B|---5--x--5--5----5--x--5--5----2--x--2--2----2--x--2--2---------------------| 
G|---6--x--6--6----6--x--6--6----3--x--3--3----3--x--3--3---------------------| 
D|----------------------------------------------------------------------------| 
A|----------------------------------------------------------------------------| 
E|----------------------------------------------------------------------------| 

e|----------------------------------------------------------------------------| 
B|----------------------------------------------------------------------------| 
G|---8--8--8--8--8----6--6--6--6--6----9--9--9--9--9----8--8--8--8--8---------| 
D|---x--x--x--x--x----x--x--x--x--x----x--x--x--x--x----x--x--x--x--x---------| 
A|---6--6--6--6--6----4--4--4--4--4----7--7--7--7--7----6--6--6--6--6---------| 
E|----------------------------------------------------------------------------| 

e|----------------------------------------------------------------------------| 
B|----------------------------------------------------------------------------| 
G|---8--8--8--8--8----6--6--6--6--6----9--9--9--9--9----9--9--9--9--9---------| 
D|---x--x--x--x--x----x--x--x--x--x----x--x--x--x--x----x--x--x--x--x---------| 
A|---6--6--6--6--6----4--4--4--4--4----7--7--7--7--7----7--7--7--7--7---------| 
E|----------------------------------------------------------------------------| 

e|----------------------------------------------------------------------------| 
B|----------------------------------------------------------------------------| 
G|---8--8--8--8--8----6--6--6--6--6----9--9--9--9--9----8--8--8--8--8---------| 
D|---x--x--x--x--x----x--x--x--x--x----x--x--x--x--x----x--x--x--x--x---------| 
A|---6--6--6--6--6----4--4--4--4--4----7--7--7--7--7----6--6--6--6--6---------| 
E|----------------------------------------------------------------------------| 

e|----------------------------------------------------------------------------| 
B|----------------------------------------------------------------------------| 
G|---8--8--8--8--8----11--11--11--11--11----6--6--6--6--6--6--6--6----6--6----| 
D|---x--x--x--x--x-----x---x---x---x---x----6--6--6--6--6--6--6--6----6--6----| 
A|---6--6--6--6--6-----9---9---9---9---9----4--4--4--4--4--4--4--4----4--4----| 
E|----------------------------------------------------------------------------| 

e|----------------------------------------------------------------------------| 
B|----------------------------------------------------------------------------| 
G|-------------1----1--1-------------1----1-------------------------9--11--8--| 
D|-------------2----2--2----4--4--7--2----2-/-4---------------------x---x--x--| 
A|-------------2----2--2----4--4--7--2----2-/-4---------------------7---9--6--| 
E|---2h5--2h5---------------2--2--5-----------2-------------------------------|

e|---4-------4-----5-----4--------4-----5-----7-----7-------------------------| 
B|----------------------------------------------------------------------------| 
G|------6-------6-----6-----6--6-----6-----6-----6----------------------------| 
D|----------------------------------------------------------------------------| 
A|----------------------------------------------------------------------------| 
E|----------------------------------------------------------------------------| 

9.)Paper Airplanes

Intro: 
e|---------------------------------------------------------------------------| 
B|---------------------------------------------------------------------------| 
G|--------------------------------------------------------4/5/6--4/5/6--6x6--| 
D|----13--11--9999----13--11--10101010----13--11--9999----4/5/6--4/5/6--6x6--| 
A|--------------------------------------------------------2/3/4--2/3/4--4x4--| 
E|----11--9---7777----11--9---8-8-8-8-----11--9---7777-----------------------| 

Verse
e|----------------------------------------------------------------------| 
B|----------------------------------------------------------------------| 
G|----------------------------------------------------------------------| 
D|----9-9--11-11---13-11--16-13--16-14---9-9-9-9--11-11--13-11-16--18---| 
A|----9-9--11-11---13-11--16-13--16-14---9-9-9-9--11-11--13-11-16--18---| 
E|----7-7--9--9----11-9---14-11--14-12---7-7-7-7--9--9---11-9--14--16---| 

Pre-Chorus 
e|-----------------------------------| 
B|-----------------------------------|
G|-----------------------------------|
D|----7--9--11111111--7--9999999999--| 
A|----7--9--11111111--7--9999999999--| 
E|----5--7--9-9-9-9---5--7777777777--| 

e|---------------------------------------------------------------------------| 
B|---------------------------------------------------------------------------| 
G|---------------------------------------------------------------------------| 
D|----7--9--11111111--7--9999999999--------7--9--11111111--7--9999999999-----| 
A|----7--9--11111111--7--9999999999--------7--9--11111111--7--9999999999-----| 
E|----5--7--9-9-9-9---5--7777777777--------5--7--9-9-9-9---5--7777777777-----| 
 
e|---------------------------------------------------------------------------| 
B|---------------------------------------------------------------------------| 
G|----9--8------------8-9-11-9-8-----------9--8------------8-9-11-9-8--------| 
D|----------11-----------------------------------11--------------------------| 
A|---------------------------------------------------------------------------| 
E|---------------------------------------------------------------------------| 

Chorus
e|------------------------------------------------| 
B|------------------------------------------------| 
G|----6-6-6-6----4-4-4-4--------------------------| 
D|----6-6-6-6----4-4-4-4----3-3-3-3----4-4-4-4----|
A|----4-4-4-4----2-2-2-2----3-3-3-3----4-4-4-4----|
E|--------------------------5-5-5-5----2-2-2-2----| 

Bridge 
e|-------------------------------------------------|
B|-------------------------------------------------|
G|-----------------------------------------------6-|
D|----2--2-1--1--4--4-3--3----2-2--1--1----------6-| 
A|--------------------------------------2--2h3h4-4-|  
E|-------------------------------------------------| 

e|-----------------------------------------------------------------------| 
B|-----------------------------------------------------------------------| 
G|--------------------------6-6-6-6-----6-6-6-6--6-6-6-6-----6-6-6-6-----|
D|----7-7-7-7----4-4-4-4----6-6-6-6-----6-6-6-6--6-6-6-6-----6-6-6-6-----|
A|----7-7-7-7----4-4-4-4----4-4-4-4-2h3h4-4-4-4--4-4-4-4-2h3h4-4-4-4-----| 
E|----5-5-5-5----2-2-2-2-------------------------------------------------| 

e|---------------------------------------------------------| 
B|---------------------------------------------------------| 
G|----6-6-------6-6-4/6----4/5/6----4/5/6------------------| 
D|----6-6-------6-6-4/6----4/5/6----4/5/6------------------| 
A|----4-4-2h3h4-4-4-2/4----2/3/4----2/3/4------------------| 
E|---------------------------------------------------------| 

e|---------------------------------------------------------------------------| 
B|---------------------------------------------------------------------------| 
G|-88-9-8-11--88-9-8-----88-9-8-11--88-9-8--------13-11-9-8-9----------------| 
D|-------------------11--------------------11--------------------------------| 
A|---------------------------------------------------------------------------| 
E|---------------------------------------------------------------------------| 


10.)This Celluloid Dream 
Intro 
e|----------------------------------------------------------------------------| 
B|-2-2--1--2-2-1-2-2-1-2-2-1--------------------------------------------------|
G|-3-3--1--3-3-1-3-3-1-3-3-1---3-6---6---3-11-10-3-6/8/5-3-11-10-13-11-10-6---|
D|---------4-4-----------------3-6-4-6-6-x-x--x--x-x/x/x-x-x--x--x--x--x--x---|
A|-----------------------------1-4-4-4-6-1-9--8--1-4/6/3-1-9--8--11-9--8--4---|
E|---------------------------------2---4--------------------------------------|

Verse
e|------------------------------------------------------------------| 
B|------------------------------------------------------------------|
G|---------------6--6--6-6-----------------6-6-6-6------------------| 
D|-8--8--8--8--8-6--6--6-6---4--4--4--4--4-6-6-6-6------------------|
A|-8--8--8--8--8-4--4--4-4---4--4--4--4--4-4-4-4-4------------------|
E|-6--6--6--6--6-------------2--2--2--2--2--------------------------|
Palm Mute................................

e|--------------|
B|-2------------|
G|---3-3-3-3-3--|
D|--------------|
A|--------------|
E|--------------|

Pre chorus 
e|-------------------------------|
B|--------2-2-2------------------|
G|-3-3-3-3------1-1-1--3-3-3-3---|
D|-------------------------------|
A|-------------------------------|
E|-------------------------------|


Chorus
e|--------------------------------|
B|--------------------------------| 
G|-3-3------6-6-------8-5-6-------|
D|-3-3--4-4-6-6-6-4-4-x-x-x-------|
A|-1-1--4-4-4-4-6-4-4-6-3-4-------|
E|------2-2-----4-2-2-------------| 

Bridge
e|--------------------------------------------------------------------|  
B|------2-2h3p2-1-1--1/2---2---1--1/2-----1---1/2--3---1---2-1-4-1----|   
G|-3--3-------------3----3---3---1----3-----3-----3--3---3------------|  
D|-x------------------------------------3-----------------------------|  
A|-1------------------------------------------------------------------|  
E|--------------------------------------------------------------------|  

e|-------------------------------------------------------------| 
B|-------------------------------------------------------------|
G|-----11-11-----8-8-----11-11---------------------------------| 
D|-8-8-11-11-6-6-8-8-8-8-11-11-6-6-8-9-8-8-6---8-6-3-3-3-------| 
A|-8-8-9--9--6-6-6-6-8-8-9--9--6-6-8-9-8-8-6---8-6-3-3-3-------|
E|-6-6-------4-4-----6-6-------4-4-6-7-6-6-4---6-4-1-1-1-------| 

for the outro its the chorus chords and this....

e|---------------------------------|
B|---------------------------------|
G|-1-1-1-11-10-6-6-6-8-6-5-5-5-5---|
D|-x-x-x-x--x--x-x-x-x-x-x-x-x-x---|
A|-3-3-3-9--8--4-4-4-6-4-3-3-3-3---|
E|---------------------------------|    

11.) The Leaving Song


Intro 

E---0-0-0-0--0-- 
B---0-0-0-0--0-- 
G---0-0-0-0--4-- 
D---2-2-2-2--2-- 
A---2-2-2-2--2-- 
E---0-0-0-0--0-- 

Verse 

E------0-----3--2--0--0--0--0--3-----0--0-- 
B------0-----3--3--1--0--1--1--3-----0--0-- 
G------0-----0--2--2--2--2--0--0-----0--4-- 
D------2-----0--0--2--2--2--2--0-----2--2-- 
A------2-----2-----0--0--0--3--2-----2--2-- 
E------0--2--3-----------------3--2--0--0-- 


Chorus
E---0--2--2--3--2--0--0-----2-------------- 
B---1--3--0--0--0--0--1-----3-------------- 
G---0--2--2--2--2--0--0--9--2-------------- 
D---2--0--1--1--1--2--2--9--0-------------- 
A---3-----2--2--2--2--3--7----------------- 
E---------------------0-------------------- 

Bridge 
E--------------------- 
B---------------------- 
G---0--0---0----0------ 
D---5--9---12---0------  
A---7--10--10---9------ 
E---------------------- 


E--------------------------------- 
B------0-------------------------- 
G---------0--------0---0---0---0-- 
D------------5-----9---12--9---0-- x2 
A---7-----------9--10--10--10--9-- 
E--------------------------------- 

E---0--2- 
B---1--3- 
G---2--2- 
D---2--0- 
A---0---- 
E-------- 

E------------ 
B------------ 
G---0--0--0-- 
D---5--4--2-- 
A------------
E------------ 
Bridge
E---------------------------------------------------------------- 
B---5--5--5s7--3--3--8h10--7--7--7h8--5--5--12--10--------------- 
G---------------------------------------------------------------- 
D---------------------------------------------------------------- 
A---------------------------------------------------------------- 
E---------------------------------------------------------------- 


E----------7--7--7--8p7--------7--------8--------7------------- 
B---8--10-----------------8--------8--------8--------8---------  
G----------------------------9--------9--------9--------9------ 
D-------------------------------------------------------------- 
A-------------------------------------------------------------- 
E-------------------------------------------------------------- 


12.)...But home is Nowhere

Intro/Verse
e|---------------------------------------------------------------------------|
B|---------------------------------------------------------------------------|
G|-11-14--9-13---------------------------------------------------------------|
D|-11-14--9-13---------------------------------------------------------------|
A|-9--12--7-11---------------------------------------------------------------|
E|---------------------------------------------------------------------------|
Chorus
e|---------------------------------------------------------------------------|
B|---------------------------------------------------------------------------|
G|---------------------------------------------------------------------------|
D|-7-2-4---------------------------------------------------------------------|
A|-7-2-4---------------------------------------------------------------------|
E|-5-0-2---------------------------------------------------------------------|
Bridge "give me something"
e|---------------------------------------------------------------------------|
B|---------------------------------------------------------------------------|
G|-11--13-14-16---------11-13-14-16------------------------------------------|
D|-11--13-14-16------x4-x--x--x--x-------------------------------------------|
A|-9---11-12-14---------9--11-12-14------------------------------------------|
E|---------------------------------------------------------------------------|

e|---------------------------------------------------------------------------|
B|---------------------------------------------------------------------------|
G|---------------------------------------------------------------------------|
D|-4-7-2-4-------------------------------------------------------------------|
A|-4-7-2-4-------------------------------------------------------------------|
E|-2-5-0-2-------------------------------------------------------------------|

well thats it, if you have any ?'s or comments or n e thing email me Guitarguyx182@belg88.com
comments
print report bad tab
19 comments total. Showing first comments.
0 reply
Tommyboy69 wrote on June 26 2003, 12:00 am

could you tab the hidden song This Time Imperfect

0 reply
Vassago36 wrote on July 15 2003, 12:00 am

uhhhhh....
some right, some wrong,but overall nice job dude.

0 reply
alewil90 wrote on October 19 2003, 12:00 am

Ya could you tab This Time Imperfect and I don't know of that song with the piano has any guitar in it (the one right before this time imperfect) but if it does could you post it please. Great tabs though.

I want to post or [tab]
guest
You may want to rate the tab now too:
select rating
Please do not post tabs as comments. Select "correction" instead!