Oops, an error
Loading. Please wait.

Sing The Sorrow Tab

by Afi
ver2
ver2

Album

More versions @911Tabs.com
6,152 views 9 this week
8 commentsread comments
1 2 3 4 5
accurate
x 4
add to favorites launch autoscroll
font size
0
reset
Autoscroll
+/-
esc
set tempo
stop
Difficulty
intermediate
WARNING: You are trying to view
                                    content from Ultimate-Guitar.com
                                    in an unauthorized application,
                                    which is prohibited.

                                    Please use an official Ultimate
                                    Guitar Tabs application for iPhone,
                                    iPad or Android to access legitimate
                                    chords, guitar, bass, and drum tabs
                                    from Ultimate-Guitar.com database.

                                    Type "ultimate guitar tabs" in Apple
                                    App Store's or Android Market's
                                    search to find the application.
hi, i , um, just wanted to say some of the tuning if changed is on the tab if not, um, deal with it?? 
i dont know im sorry. but still, enjoy.

Song Order
   &
Tabbers: Miserea Cantare-pigmanwill
	  The Leaving Song Pt. 2 - UNREGISTERED!! COME ON !!	
          Bleed Black- LedZep420
          Silver and Cold- LedZep420	
	  Dancing Through Sunday- Andrew Meshan 
          Solo- Womenfolk55@hotmail.com
	  Death of Seasons- LedZep420
	  The Great Disappointment- guywithguitar
	  Paper Airplanes (Makeshift Wings)- thenephilim
	  The Leaving Song- untilted
	  ...But Home Is Nowhere- greenday365
 	  This Time Imperfect- Drew


Miseria Cantera
1/2 step down

This song is really short and easy to find out by ear, but if you can't here you go. It 
easy and very short

Guitar 1&2
-|-------------------------|-------------------------------------|
-|-------------------------|-------------------------------------|
-|-9---9---12-7---7-7-7-9--|-9-9-9-9---9---12-12-12-7---7-7-7-9--|
-|-9---9---12-7---7-7-7-9--|-9-9-9-9---9---12-12-12-7---7-7-7-9--|
-|-7---7---10-5---5-5-0-7--|-7-7-7-7---7---10-10-10-5---5-5-0-7--|
-|-0---0---0--0---0-0-0-0--|-0-0-0-0---0---0--0--0--0---0-0-0-0--|

|--------------------|
|--------------------|
|-12-0-7---7-7-9-----|
|-12-0-7---7-7-9-----|
|-10-0-5---5-0-7-----|
|-0--0-0---0-0-0-----|
Guitar 1
-|-------------------------|-------------------------------------|
-|-------------------------|-------------------------------------|
-|-9---9---12-7---7-7-7-9--|-9-9-9-9---9---12-12-12-7---7-7-7-9--|
-|-9---9---12-7---7-7-7-9--|-9-9-9-9---9---12-12-12-7---7-7-7-9--|
-|-7---7---10-5---5-5-0-7--|-7-7-7-7---7---10-10-10-5---5-5-0-7--|
-|-0---0---0--0---0-0-0-0--|-0-0-0-0---0---0--0--0--0---0-0-0-0--|


Guitar 2
-|-------------------------------------------------------------------------|
-|-------------------------------------------------------------------------|
-|-12-12-12-11-11-11-12-12-12-14-14-14-12-12-12-11-11-11-14-14-14-12-12-12-|
-|-X--X--X--X--X--X--X--X--X--X--X--X--X--X--X--X--X--X--X--X--X--X--X--X--|
-|-10-10-10-9--9--9--10-10-10-12-12-12-10-10-10-9--9--9--16-16-16-10-10-10-|
-|-------------------------------------------------------------------------|

-|-------------------------------|
-|-------------------------------|
-|-11-11-11-12-12-12-14-14-14-9--|
-|-X--X--X--X--X--X--X--X--X--9--|
-|-9--9--9--10-10-10-12-12-12-7--|
-|----------------------------0--|



   The Leaving Song Pt. 2

Reg Tuning
e----14-13----13----------18-|
b-11-------14----14-11-14----|
g----------------------------| do that however many times
d----------------------------| it's faded so its hard to tell
a----------------------------|
e----------------------------|

then come to this when it's time...

e-16-18-14-16-13h14p13----11----|
b-------------------------------|
g-------------------------------|
d-------------------------------|
a-------------------------------|
e-------------------------------|

drums, bass, vocals enter here. rhythm is off, chords sound weird but it's best I could do.

e-9--8--6-6---9--8--6-6---9--11-6-6---4-4-2-2/4--|
b-9--8--6-6---9--8--6-6---9--11-6-6---4-4-2-2/4--|
g-11-10-8-8---11-10-8-8---11-13-8-8---4-4-2-2/4--| x2
d-11-10-8-8---11-10-8-8---11-13-8-8---6-6-4-4/6--|
a-9--8--6-6---9--8--6-6---9--11-6-6---6-6-4-4/6--|
e-------------------------------------4-4-2-2/4--|

Davey speaks latin or whatever right here... pre-chorus

e-11-11-11-14-14-14-13-13-13----------13-13-11-11-|
b----------------------------14-14-14-------------|
g-------------------------------------------------| x2
d-------------------------------------------------|  
a-------------------------------------------------|
e-------------------------------------------------|

e-11-------14-------13----------------13----11----|
b----------------------------14-------------------|
g-------------------------------------------------| x1
d----13-13----13-13----13-13----13-13----13----13-|
a-------------------------------------------------|
e-------------------------------------------------|

e-11-11-11-14-14-14-9-/-/---|
b-11-11-11-14-14-14-9-/-/---|
g---------------------------| x1
d---------------------------|
a---------------------------|
e---------------------------|

chorus: first section x3, second section once

e-6-6-9--9--|--------------------|
b-6-6-9--9--|--------------------|
g-8-8-11-9--|-8---11----13-------| all x2
d-8-8-11-11-|--8----11----13-----|
a-6-6-9--11-|---6-----9-----11---|
e--------9--|-----------------11-|

this joins the chorus to the next verse

e-6----4/6-6-6-|
b-6----4/6-6-6-|
g-8----6/8-8-8-| x1
d-8----6/8-8-8-|
a-6----4/6-6-6-|
e-6------------|

play normal verse again, normal pre-chorus, and normal chorus again once. then
this, the bridge... just listen to the song and play this chord in the rhythm you
hear with appropriate spots for palm muting.

e--6--|
b--6--|
g--8--|
d--8--|
a--6--|
e--6--|

then this is like with the weird fading vocals.

e-6--------------6-------6--------6-6-6-6-|
b-6--------------6-------6--------6-6-6-6-|
g-8--------------8-11----8--11\8--8-8-8-8-|
d-8---9----11-8--8---11--8--11\8--8-8-8-8-|
a-6---7----9--6--6-------6--------6-6-6-6-|
e-6--------------6-------6--------6-6-6-6-|

quiet with just davey and the guitar... there's little extra strings in the back
i can't quite figure out

e-13-13-14----------13-16-14----------13-13-14----------16-16-18-----|
b--------------------------------------------------------------------|
g----------15----------------------------------15--------------------|
d-------------13-13----------13-13-13-------------13-13--------------|
a--------------------------------------------------------------------|
e--------------------------------------------------------------------|

the second time it's mostly the same... the last little part is like this instead

e-16-------16-------16-------16-------|
b----16-------16-------16-------16----|
g-------13-------13-------13-------13-|
d-------------------------------------|
a-------------------------------------|
e-------------------------------------|

then distortion again (you might think there's a chord on the last section but there isn't...
it's all drums and edited vocals)

e-5-5-5-5-8--8--8--8--11-11-11-11---------|
b-5-5-5-5-8--8--8--8--11-11-11-11---------|
g-7-7-7-7-10-10-10-10-13-13-13-13---------|
d-7-7-7-7-10-10-10-10-13-13-13-13---------|
a-5-5-5-5-8--8--8--8--11-11-11-11---------|
e-----------------------------------------|

play chorus again twice. first time as written. second complete time, do this on the third
 repeat of first section. (confused? look back)

e---11---|
b--------|
g--------|
d--------|
a--------|
e--------|

then this, similar to the original ending

e--------------------|
b--------------------|
g-6---10----13-------|
d--6----10----13-----|
a---4-----8-----11---|
e-----------------11-|

then this part, the end... upstrokes (*=harmonics)

e-5-5-8--8-------12*-------|
b-5-5-8--8-------12*-------|
g-7-7-10-10------12*-------|
d-7-7-10-10----------------|
a-5-5-8--8-----------------|
e--------------------------|



Band: AFI (A Fire Inside)
Album: Sing The Sorrow
Song: Bleed Black (Track 3)
Note: This song (and every song on the album, except "The Leaving Song")
is tuned a half-step flat.
Tabbed By: LedZep420 (dm_420@hotmail.com)


Intro:
E------------------|------------------|------------------|-----------------|
B------------------|------------------|------------------|-----------------|
G-9---9--9-9---9---|-9---9--9-9---9---|-9---9--9-9---9---|-9---9--9-9---9--|
D---7---7----7---7-|---7---7----7---7-|---7---7----7---7-|---7---7----7---7|
A------------------|------------------|------------------|-----------------|
E------------------|------------------|------------------|-----------------|

E-----------------------|------------------|------------------|
B-----------------------|------------------|------------------|
G-10---10--10-10---10---|-7---7--7-7---7---|-9---9--9-9---9---|
D----7----7------7----7-|---7---7----7---7-|---7---7----7---7-|
A-----------------------|------------------|------------------|
E-----------------------|------------------|------------------|

E------------------|-----------------------|------------------|
B------------------|-----------------------|------------------|
G-7---7--7-7---7---|-10---10--10-10---10---|-7---7--7-7---7---|
D---7---7----7---7-|----7----7------7----7-|---7---7----7---7-|
A------------------|-----------------------|------------------|
E------------------|-----------------------|------------------|
 (Distortion)
E-----------------|-----------------|
B-----------------|-----------------|
G-----------------|-9-9-9-9-9-9-9-9-|
D-----------------|-7-7-7-7-7-7-7-7-|
A-0-0-0-0-0-0-0-0-|-0-0-0-0-0-0-0-0-|
E-----------------|-----------------|

Verse:
E--------------|--------------|--------------|-----------------------|
B--------------|--------------|--------------|-----------------------|
G-----9--7-7-7-|-----9--5-5-5-|-----9--7-7-7-|---9------9-----9------|
D-----7--7-7-7-|-----7--7-7-7-|-----7--7-7-7-|-----10-----10----10---|
A-0-0-0--0-0-0-|-0-0-0--0-0-0-|-0-0-0--0-0-0-|-8------8-----8------8-|
E--------------|--------------|--------------|-----------------------|

E--------------|--------------|--------------|------------------------|
B--------------|--------------|--------------|------------------------|
G-----9--7-7-7-|-----9--5-5-5-|-----9--7-7-7-|---9------9-----12------|
D-----7--7-7-7-|-----7--7-7-7-|-----7--7-7-7-|-----10-----10-----10---|
A-0-0-0--0-0-0-|-0-0-0--0-0-0-|-0-0-0--0-0-0-|-8------8-----8-------8-|
E--------------|--------------|--------------|------------------------|

E--------------|--------------|--------------|------------------------|
B--------------|--------------|--------------|------------------------|
G-----9--7-7-7-|-----9--5-5-5-|-----9--7-7-7-|---9------9-----12------|
D-----7--7-7-7-|-----7--7-7-7-|-----7--7-7-7-|-----10-----10-----10---|
A-0-0-0--0-0-0-|-0-0-0--0-0-0-|-0-0-0--0-0-0-|-8------8-----8-------8-|
E--------------|--------------|--------------|------------------------|

E---------3-3-3-3-|
B---------3-3-3-3-|
G---------4-4-4-4-|
D-5-5-5-5-5-5-5-5-|
A-5-5-5-5-5-5-5-5-|
E-3-3-3-3-3-3-3-3-|

Pre-Chorus:
E---------------------|---------------------|---------------------|
B---------------------|---------------------|---------------------|
G---------------------|---------------------|---------------------|
D-------------000-2-2-|-------------000-2-2-|-------------000-2-2-|
A-888-000-333-000-0-0-|-888-000-333-000-0-0-|-888-000-333-000-0-0-|
E---------------------|---------------------|---------------------|

E--------------|---------------------|---------------------|
B--------5-5-5-|---------------------|---------------------|
G--------5-5-5-|---------------------|---------------------|
D-3-3-3--5-5-5-|-------------000-2-2-|-------------000-2-2-|
A-3-3-3--3-3-3-|-888-000-333-000-0-0-|-888-000-333-000-0-0-|
E-1-1-1--------|---------------------|---------------------|

E---------------------|--------------|---------3-3-3-3-|
B---------------------|--------5-5-5-|---------3-3-3-3-|
G---------------------|--------5-5-5-|---------4-4-4-4-|
D-------------000-2-2-|-3-3-3--5-5-5-|-5-5-5-5-5-5-5-5-|
A-888-000-333-000-0-0-|-3-3-3--3-3-3-|-5-5-5-5-5-5-5-5-|
E---------------------|-1-1-1--------|-3-3-3-3-3-3-3-3-|

Chorus:
E--------3--3-3-|-1-1-1--0--0-0-|--------3--3-3-|----------------|
B-5-5-5--3--3-3-|-1-1-1--1--1-1-|-5-5-5--3--3-3-|----------------|
G-5-5-5--4--4-4-|-2-2-2--2--2-2-|-5-5-5--4--4-4-|-4-4-4-5-5-5-5--|
D-5-5-5--5--5-5-|-3-3-3--2--2-2-|-5-5-5--5--5-5-|-X-X-X-X-X-X-X--|
A-3-3-3--5--5-5-|-3-3-3--0--0-0-|-3-3-3--5--5-5-|-3-3-3-3-3-3-3--|
E--------3--3-3-|-1-1-1---------|--------3--3-3-|----------------|

E--------3--3-3-|-1-1-1---------|--------3--3-3-|-------------------|
B-5-5-5--3--3-3-|-1-1-1--1--1-1-|-5-5-5--3--3-3-|-------------------|
G-5-5-5--4--4-4-|-2-2-2--2--2-2-|-5-5-5--4--4-4-|-------------------|
D-5-5-5--5--5-5-|-3-3-3--2--2-2-|-5-5-5--5--5-5-|-------------000-2-|
A-3-3-3--5--5-5-|-3-3-3--0--0-0-|-3-3-3--5--5-5-|-888-000-333-000-0-|
E--------3--3-3-|-1-1-1---------|--------3--3-3-|-------------------|

Bridge:
 (Acoustic)
E-------------|-------------|-------------|-------------|-------------|
B-------------|-------------|-------------|-------------|-------------|
G-------------|-------------|-------------|-------------|-------------|
D-------------|-------------|-------------|-7-7-7-7-7---|-------------|
A-7-7-7-7-7-0-|-7-7-7-7-7-0-|-5-5-5-5-5-0-|-5-5-5-5-5-0-|-3-3-3-3-3-0-|
E-5-5-5-5-5-0-|-4-4-4-4-4-0-|-3-3-3-3-3-0-|-----------0-|-1-1-1-1-1-0-|

E-------------|-------------|---5----------|
B-------------|-------------|-----5--------|
G-------------|-------------|-------5-----o|
D-5-5-5-5-5---|-------------|---------7---o|
A-3-3-3-3-3-0-|-2-2-2-2-2-0-|--------------|
E-----------0-|-0-0-0-0-0-0-|-5---------0--|

 (Electric)
E-------------|-------------|-3-3-3-3-3---|-5-5-5-5-5---|
B-------------|-------------|-3-3-3-3-3---|-7-7-7-7-7---|
G-------------|-------------|-4-4-4-4-4---|-7-7-7-7-7---|
D-7-7-7-7-7---|-6-6-6-6-6---|-5-5-5-5-5---|-7-7-7-7-7---|
A-7-7-7-7-7-0-|-7-7-7-7-7-0-|-5-5-5-5-5-0-|-5-5-5-5-5-0-|
E-5-5-5-5-5-0-|-4-4-4-4-4-0-|-3-3-3-3-3-0-|-5-5-5-5-5-0-|

E-1-1-1-1-1---|-3-3-3-3-3---|----------------|--------------------|
B-1-1-1-1-1---|-5-5-5-5-5---|----------------|--------------------|
G-2-2-2-2-2---|-5-5-5-5-5---|------/14-14-14-|-13-13-13-13-13-13-o|
D-3-3-3-3-3---|-5-5-5-5-5---|-------X--X--X--|-X--X--X--X--X--X--o|
A-3-3-3-3-3-0-|-3-3-3-3-3-0-|-2-2--/12-12-12-|-11-11-11-11-11-11--|
E-1-1-1-1-1-0-|-3-3-3-3-3-0-|-0-0-0-0--0--0--|-0--0--0--0--0--0---|

Interlude:
 (Clean)
E----8------8---|---8-----8---|---8-----8---|-------10-------10-|
B-10-----10-----|-9-----9-----|-8-----8-----|----10-------10----|
G------9------9-|-----9-----9-|-----9-----9-|-11-------11-------|
D---------------|-------------|-------------|-------------------|
A---------------|-------------|-------------|-------------------|
E---------------|-------------|-------------|-------------------|

E-------8-------8-|-----8-----8-|-12--|---|------------------|
B----10------10---|---8-----8---|-12--|---|------------------|
G-10------10------|-9-----9-----|-13--|---|-9---9--9-9---9---|
D-----------------|-------------|-----|---|---7---7----7---7-|
A-----------------|-------------|-----|---|------------------|
E-----------------|-------------|-----|---|------------------|

 (Distortion)
E-----------------|
B-----------------|
G-9-9-9-9-9-9-9-9-|
D-7-7-7-7-7-7-7-7-|
A-0-0-0-0-0-0-0-0-|
E-----------------|

Ending:
E--------3--3-3-|-1-1-1--0--0-0-|--------3--3-3-|----------------|
B-5-5-5--3--3-3-|-1-1-1--1--1-1-|-5-5-5--3--3-3-|----------------|
G-5-5-5--4--4-4-|-2-2-2--2--2-2-|-5-5-5--4--4-4-|-4-4-4-5-5-5-5--|
D-5-5-5--5--5-5-|-3-3-3--2--2-2-|-5-5-5--5--5-5-|-X-X-X-X-X-X-X--|
A-3-3-3--5--5-5-|-3-3-3--0--0-0-|-3-3-3--5--5-5-|-3-3-3-3-3-3-3--|
E--------3--3-3-|-1-1-1---------|--------3--3-3-|----------------|

E--------3--3-3-|-1-1-1---------|--------3--3-3-|--------12-12-12-12-|
B-5-5-5--3--3-3-|-1-1-1--1--1-1-|-5-5-5--3--3-3-|-10-10--13-13-13-13-|
G-5-5-5--4--4-4-|-2-2-2--2--2-2-|-5-5-5--4--4-4-|-10-10--14-14-14-14-|
D-5-5-5--5--5-5-|-3-3-3--2--2-2-|-5-5-5--5--5-5-|-10-10--------------|
A-3-3-3--5--5-5-|-3-3-3--0--0-0-|-3-3-3--5--5-5-|-8--8---------------|
E--------3--3-3-|-1-1-1---------|--------3--3-3-|--------------------|

E--------3--3-3-|-1-1-1--0--0-0-|--------3--3-3-|----------------|
B-5-5-5--3--3-3-|-1-1-1--1--1-1-|-5-5-5--3--3-3-|----------------|
G-5-5-5--4--4-4-|-2-2-2--2--2-2-|-5-5-5--4--4-4-|-4-4-4-5-5-5-5--|
D-5-5-5--5--5-5-|-3-3-3--2--2-2-|-5-5-5--5--5-5-|-X-X-X-X-X-X-X--|
A-3-3-3--5--5-5-|-3-3-3--0--0-0-|-3-3-3--5--5-5-|-3-3-3-3-3-3-3--|
E--------3--3-3-|-1-1-1---------|--------3--3-3-|----------------|

E--------3--3-3-|-1-1-1---------|--------3--3-3-|--------------------|
B-5-5-5--3--3-3-|-1-1-1--1--1-1-|-5-5-5--3--3-3-|--------------------|
G-5-5-5--4--4-4-|-2-2-2--2--2-2-|-5-5-5--4--4-4-|--------------------|
D-5-5-5--5--5-5-|-3-3-3--2--2-2-|-5-5-5--5--5-5-|-------------000----|
A-3-3-3--5--5-5-|-3-3-3--0--0-0-|-3-3-3--5--5-5-|-888-000-333-000-7\-|
E--------3--3-3-|-1-1-1---------|--------3--3-3-|-----------------5\-|

Background fill:
 (Played behind measures 9-15 of the ending)
E-8------10-------|-8--------12-------|-8------10-------|
B---8-------12----|---10--------13----|---8-------12----|
G-----9--------12-|------10--------14-|-----9--------12-|
D-----------------|-------------------|-----------------|
A-----------------|-------------------|-----------------|
E-----------------|-------------------|-----------------|

E-12---------|-8------10-------|-8--------12-------|-8------10-------|
B-----13-----|---8-------12----|---10--------13----|---8-------12----|
G---------14-|-----9--------12-|------10--------14-|-----9--------12-|
D------------|-----------------|-------------------|-----------------|
A------------|-----------------|-------------------|-----------------|
E------------|-----------------|-------------------|-----------------|




Band: AFI (A Fire Inside)
Album: Sing The Sorrow
Song: Silver And Cold (Track 4)
Note: This song (and every song on the album, except "The Leaving Song")
is tuned a half-step flat.
Tabbed By: LedZep420 (dm_420@hotmail.com)


Intro (Piano arranged for guitar):
E-----2-----2-|-----2-----5-|-----2-----0-|-5-3-2-0--2--3----|
B---3-----3---|---3-----3---|---3-----3---|------------------|
G-4-----4-----|-4-----4-----|-4-----6-----|------------------|
D-------------|-------------|-------------|------------------|
A-2-----------|-0-----2-----|-2-----0-----|------------------|
E-------3-----|-------------|-------------|-3-----0----------|

(Electric guitar with distortion)
E-------7------------5-----|-------3------------5-----|
B-------7------------5-----|-------3------------5-----|
G-------7------------6-----|-------4------------6-----|
D-9-9-9-9-9-9--7-7-7-7-7-7-|-5-5-5-5-5-5--7-7-7-7-7-7-|
A-9-9-9-9-9-9--7-7-7-7-7-7-|-5-5-5-5-5-5--7-7-7-7-7-7-|
E-7-7-7-7-7-7--5-5-5-5-5-5-|-3-3-3-3-3-3--5-5-5-5-5-5-|

E--------------------------------------|------------------0----|
B-12-12-12-12-12-12--14-14-14-14-14-14-|-15-15-15-15------0----|
G-X--X--X--X--X--X---X--X--X--X--X--X--|-X--X--X--X-------9----|
D-9--9--9--9--9--9---11-11-11-11-11-11-|-12-12-12-12------9----|
A--------------------------------------|-------------0----7----|
E--------------------------------------|---------------0--0----|

1st Verse:
E-------------------------|---------------------0---|
B-------------------------|-----------------------0-|
G-------------------------|-------------------------|
D-----0-----0-----0-----0-|-----0-----0-----0-------|
A---5-----5-----4-----5---|---5-----4-----4---------|
E-7-----3-----5-----7-----|-7-----5-----3-----0-----|

E-------------------------|-----------------------|------------------------|
B-------------------------|-------------------0---|------------------------|
G-------------------------|-------------------0---|------------------------|
D-----0-----0-----0-----0-|-----0-----0-----0-2---|------------------------|
A---5-----5-----4-----5---|---5-----4-----4-------|-9-9-0-5-5-0-4-4-0-5-5-0|
E-7-----3-----5-----7-----|-7-----5-----3---------|-7-7-0-3-3-0-5-5-0-7-7-0|

E-------------------------|-------------------------|-------------------0--|
B-------------------------|-------------------------|---------------0---0--|
G-------------------------|-------------------------|---------0-------0-0--|
D-------------------------|-------------------------|---0-------0-------2--|
A-9-9-0-7-7-0-3-3-0-2-2-0-|-9-9-0-5-5-0-4-4-0-5-5-0-|-2---2-------0-----2--|
E-7-7-0-5-5-0-3-3-0-0-0-0-|-7-7-0-3-3-0-5-5-0-7-7-0-|-------3-----------0--|

1st Chorus:
E-------3--3-|-2--2--0--0-|-------3--3-|-2--2--------------|-0--0-------|
B-5--5--3--3-|-3--3--0--0-|-5--5--3--3-|-3--3--------------|-0--0--5--5-|
G-5--5--4--4-|-2--2--0--0-|-5--5--4--4-|-2--2--8-8-8-8-8-8-|-0--0--5--5-|
D-5--5--5--5-|-0--0--2--2-|-5--5--5--5-|-0--0--X-X-X-X-X-X-|-2--2--5--5-|
A-3--3--5--5-|-------2--2-|-3--3--5--5-|-------6-6-6-6-6-6-|-2--2--3--3-|
E-------3--3-|-------0--0-|-------3--3-|-------7-7-7-7-7-7-|-0--0-------|

E---------7---------|-7--7-------|-------------------------|---------------|
B-7--7------8-------|-8--8--7--7-|-5-5-5-5-5-5-5-5-5-5-5-5-|-7-7-7-7-7-7-7-|
G-7--7--------9-----|-9--9--7--7-|-5-5-5-5-5-5-5-5-5-5-5-5-|-7-7-7-7-7-7-7-|
D-7--7----------9---|-9--9--7--7-|-5-5-5-5-5-5-5-5-5-5-5-5-|-7-7-7-7-7-7-7-|
A-5--5------------7-|-7--7--5--5-|-3-3-3-3-3-3-3-3-3-3-3-3-|-5-5-5-5-5-5-5-|
E-------0-----------|-0--0-------|-------------------------|---------------|

2nd Verse:
E-------------------------|---------------------0---|
B-------------------------|-----------------------0-|
G-------------------------|-------------------------|
D-----0-----0-----0-----0-|-----0-----0-----0-------|
A---5-----5-----4-----5---|---5-----4-----4---------|
E-7-----3-----5-----7-----|-7-----5-----3-----0-----|

E-------------------------|-------------------<12>|------------------------|
B-------------------------|-------------------<12>|------------------------|
G-------------------------|-------------------<12>|------------------------|
D-----0-----0-----0-----0-|-----0-----0-----0-----|------------------------|
A---5-----5-----4-----5---|---5-----4-----4-------|-9-9-0-5-5-0-4-4-0-5-5-0|
E-7-----3-----5-----7-----|-7-----5-----3---------|-7-7-0-3-3-0-5-5-0-7-7-0|

E-------------------------|-------------------------|-------------------0--|
B-------------------------|-------------------------|-------------------0--|
G-------------------------|-------------------------|-------------------0--|
D-------------------------|-------------------------|-----0-----0-----0-2--|
A-9-9-0-7-7-0-5-5-0-2-2-0-|-9-9-0-5-5-0-4-4-0-5-5-0-|---4-----4-----4---2--|
E-7-7-0-5-5-0-3-3-0-0-0-0-|-7-7-0-3-3-0-5-5-0-7-7-0-|-7-----5-----3-----0--|

E-7--7-7--3--3-3--5--5-5--7--7-7-|-7--7-7--5--5-5--3--3-3--0--0-0-|
B-7--7-7--3--3-3--5--5-5--7--7-7-|-7--7-7--5--5-5--3--3-3--0--0-0-|
G-7--7-7--4--4-4--6--6-6--7--7-7-|-7--7-7--6--6-6--4--4-4--0--0-0-|
D-9--9-9--5--5-5--7--7-7--9--9-9-|-9--9-9--7--7-7--5--5-5--2--2-2-|
A-9--9-9--5--5-5--7--7-7--9--9-9-|-9--9-9--7--7-7--5--5-5--2--2-2-|
E-7--7-7--3--3-3--5--5-5--7--7-7-|-7--7-7--5--5-5--3--3-3--0--0-0-|

E-7--7-7--3--3-3--5--5-5--7--7-7-|-------------------------------|
B-7--7-7--3--3-3--5--5-5--7--7-7-|---7------5------3-------------|
G-7--7-7--4--4-4--6--6-6--7--7-7-|-----7------6------4--16-16-16-|
D-9--9-9--5--5-5--7--7-7--9--9-9-|----------------------X--X--X--|
A-9--9-9--5--5-5--7--7-7--9--9-9-|----------------------14-14-14-|
E-7--7-7--3--3-3--5--5-5--7--7-7-|-7------5------3------0--0--0--|

E--------------|
B--------------|
G-14-14-14--12-|
D-X--X--X---X--|
A-12-12-12--10-|
E-0--0--0---0--|

2nd Chorus:
E-------3--3-|-2--2--0--0-|-------3--3-|-2--2--------------|
B-5--5--3--3-|-3--3--0--0-|-5--5--3--3-|-3--3--------------|
G-5--5--4--4-|-2--2--0--0-|-5--5--4--4-|-2--2--8-8-8-8-8-8-|
D-5--5--5--5-|-0--0--2--2-|-5--5--5--5-|-0--0--X-X-X-X-X-X-|
A-3--3--5--5-|-------2--2-|-3--3--5--5-|-------6-6-6-6-6-6-|
E-------3--3-|-------0--0-|-------3--3-|-------7-7-7-7-7-7-|

E-0--0-------|---------7---------|-7--7-------|-------0--0-|
B-0--0--5--5-|-7--7------8-------|-8--8--7--7-|-5--5--2--2-|
G-0--0--5--5-|-7--7--------9-----|-9--9--7--7-|-5--5--2--2-|
D-2--2--5--5-|-7--7----------9---|-9--9--7--7-|-5--5--2--2-|
A-2--2--3--3-|-5--5------------7-|-7--7--5--5-|-3--3--0--0-|
E-0--0-------|-------0-----------|-0--0-------|------------|

Interlude:
E-2------------|------------------|----------------|------------------|
B-3------------|------------------|----------------|------------------|
G-4------------|-------0----------|----------------|-------0----------|
D-4------------|---4------4-------|------4---------|---4------4-------|
A-2--------2-0-|-2---2--------2-0-|-2--2-------2-0-|-2---2--------2-0-|
E--------------|------------------|----------------|------------------|

E--------------------------|---------------------0----|
B--------------------------|-----------------------0--|
Go-------------------------|-------------------------o|
Do-----0-----0-----0-----0-|-----0-----0-----0-------o|
A----5-----5-----4-----5---|---5-----4-----4----------|
E--7-----3-----5-----7-----|-7-----5-----3-----0------|

E-------------------------|-------------------------|
B-------------------------|-------------------------|
G-------------------------|-------------------------|
D-----0-----0-----0-----0-|-----0-----0-----0-----0-|
A---5-----5-----4-----5---|---5-----4-----4-----4---|
E-7-----3-----5-----7-----|-7-----5-----3-----5-----|

E--------------------|-----------------------|
B--------------------|-----------------------|
G-----------9---9--9-|-11--14-14-14-14-14-14-|
D-9---9--9--X---X--X-|-X---X--X--X--X--X--X--|
A-X---X--X--7---7--7-|-9---12-12-12-12-12-12-|
E-7---7--7--7---7--7-|-7---------------------|

Ending:
E-------3--3-|-2--2--0--0-|-------3--3-|-2--2--------------|-0--0-------|
B-5--5--3--3-|-3--3--0--0-|-5--5--3--3-|-3--3--------------|-0--0--5--5-|
G-5--5--4--4-|-2--2--0--0-|-5--5--4--4-|-2--2--8-8-8-8-8-8-|-0--0--5--5-|
D-5--5--5--5-|-0--0--2--2-|-5--5--5--5-|-0--0--X-X-X-X-X-X-|-2--2--5--5-|
A-3--3--5--5-|-------2--2-|-3--3--5--5-|-------6-6-6-6-6-6-|-2--2--3--3-|
E-------3--3-|-------0--0-|-------3--3-|-------7-7-7-7-7-7-|-0--0-------|

E---------7---------|-7--7-------|-------------------------|
B-7--7------8-------|-8--8--7--7-|-5-5-5-5-5-5-5-5-5-5-5-5-|
G-7--7--------9-----|-9--9--7--7-|-5-5-5-5-5-5-5-5-5-5-5-5-|
D-7--7----------9---|-9--9--7--7-|-5-5-5-5-5-5-5-5-5-5-5-5-|
A-5--5------------7-|-7--7--5--5-|-3-3-3-3-3-3-3-3-3-3-3-3-|
E-------0-----------|-0--0-------|-------------------------|

E-------------------------|-------3--3-|-2--2--0--0-|-------3--3-|
B-------------------------|-5--5--3--3-|-3--3--0--0-|-5--5--3--3-|
G-------------------------|-5--5--4--4-|-2--2--0--0-|-5--5--4--4-|
D-4-4-4-4-4-4-4-4-4-4-4-4-|-5--5--5--5-|-0--0--2--2-|-5--5--5--5-|
A-2-2-2-2-2-2-2-2-2-2-2-2-|-3--3--5--5-|-------2--2-|-3--3--5--5-|
E-------------------------|-------3--3-|-------0--0-|-------3--3-|

E-2--2--------------|-0--0-------|---------7---------|-7--7-------|
B-3--3--------------|-0--0--5--5-|-7--7------8-------|-8--8--7--7-|
G-2--2--8-8-8-8-8-8-|-0--0--5--5-|-7--7--------9-----|-9--9--7--7-|
D-0--0--X-X-X-X-X-X-|-2--2--5--5-|-7--7----------9---|-9--9--7--7-|
A-------6-6-6-6-6-6-|-2--2--3--3-|-5--5------------7-|-7--7--5--5-|
E-------7-7-7-7-7-7-|-0--0-------|-------0-----------|-0--0-------|

E-------0--0-|-7--7-------|-------------------------|---------------|
B-5--5--0--0-|-8--8--7--7-|-5-5-5-5-5-5-5-5-5-5-5-5-|-7-7-7-7-7-7-7-|
G-5--5--0--0-|-9--9--7--7-|-5-5-5-5-5-5-5-5-5-5-5-5-|-7-7-7-7-7-7-7-|
D-5--5--2--2-|-9--9--7--7-|-5-5-5-5-5-5-5-5-5-5-5-5-|-7-7-7-7-7-7-7-|
A-3--3--2--2-|-7--7--5--5-|-3-3-3-3-3-3-3-3-3-3-3-3-|-5-5-5-5-5-5-5-|
E-------0--0-|-0--0-------|-------------------------|---------------|

Background fill:
(Played behind measures 10-11 and 14-15 of the ending)
E-----------------------------------|-------------------------------|
B-13-13-13--12-12-12-10-10-10-8-8-8-|-10-10-10-12-12-12-5-5-5-5-5-5-|
G-X--X--X---X--X--X--X--X--X--X-X-X-|-X--X--X--X--X--X--X-X-X-X-X-X-|
D-10-10-10--9--9--9--7--7--7--5-5-5-|-7--7--7--9--9--9--2-2-2-2-2-2-|
A-----------------------------------|-------------------------------|
E-----------------------------------|-------------------------------|


AFI - Dancing Through Sunday
By:Andrew Mcshan(Guitarguyx182@belg88.com)

Intro
e|-------------------------------------------------------------------------|
B|-------------------------------------------------------------------------|
G|-15-14-13-11-8-----------------------------------------------------------|
D|-x--x--x--x--x-----------------------------------------------------------|
A|-13-12-11-9--6-----------------------------------------------------------|
E|-------------------------------------------------------------------------|
Verse
e|-------------------------------------------------------------------------|
B|-------------------------------------------------------------------------|
G|--8-4-6---8-4-6--8-10--8-11-8---4-6-15-14-13-11-8-4--6-------------------|
D|--8-4-6---8-4-6--x-x---x-x--x---4-6-x--x--x--x--x-4--6-------------------|
A|--6-2-4---6-2-4--6-8---6-9--6---2-4-13-12-11-10-6-2--4-------------------|
E|--------------------------------------------------------------------------|
Chorus
e|-------------------------------------------------------------------------|
B|-------------------------------------------------------------------------|
G|----------8-------8-----11/10/11/8------8----11-13-14--------------------|
D|---4------8---4---8-----x-/x-/x-/x--4---8----x--x--x---------------------|
A|---4------6---4---6-----9-/8-/9-/6--4---6----9--11-12--------------------|
E|---2----------2---------------------2------------------------------------|
Bridge
e|-------------------------------------------------------------------------|
B|----------------------------------------4/2------------------------------|
G|---8~~-8-6h6p6-6-5h5p5-5-4p4h4-4-3-1----------8---11---13-15---8---------|
D|---8~~-x------------------------------4-------8---11---13-15---x---------|
A|---6~~-6--------------------------------------6---9----11-13---6---------|
E|-------------------------------------------------------------------------|

Solo tabbed by Womenfolk55@hotmail.com

|--------11h-14p-11------11h-14p-11-----------------------------------------
|----11--------------14---------------14-11h-14p-11-----11h-14p-11----11----
|---b13---------------------------------------------13--------------13------
|---------------------------------------------------------------------------
|---------------------------------------------------------------------------
|---------------------------------------------------------------------------

|---------------------------------------------------------------------------
|---------------------------------------------------------------------------
|--13p11--13p11----11-------------------------------------------------------
|---------------13----13p11--13p11------------------------------------------
|-----------------------------------------13p11--13p11--11p9--11p9----------
|-----------------------------------------------------------------------11-/

|---6-----7------9-----10----11---------------------------------------------
|--b9---b10---b12---b13---b14---9h11p9---7h9p7---6h7p6----------------------
|--------------------------------------------------------6h8p6h8------------
|---------------------------------------------------------------------------
|---------------------------------------------------------------------------
|---------------------------------------------------------------------------

|---------------------------------------------------------------------------
|-16--11p8-16--11p8--16--12p9-16--12p9--16--11p8-16----14p11-----11h14------
|-T---------T--------T---------T---------T--------T----------h12------------
|---------------------------------------------------------------------------
|---------------------------------------------------------------------------
|---------------------------------------------------------------------------

|--------------------------
|--------------------------
|--b8----h11-/-15---13-----
|--------------------------
|--------------------------
|--------------------------
Hammer on the 11 with your picking hand and slide to 15 with it.


|-----------------------------------------------------------
|--11h414p11 trill-----------------------11---13-11---13----
|---------------------down bend on 13------13-------13------
|-----------------------------------------------------------
|-----------------------------------------------------------
|-----------------------------------------------------------



Band: AFI (A Fire Inside)
Album: Sing The Sorrow (Track 7)
Song: Death Of Seasons
Note: This song (and every song on the album, except "The Leaving Song")
is tuned a half-step flat.
Tabbed By: LedZep420 (dm_420@hotmail.com)

Intro:
(Clean)
E------------|
B-1---0------|
G---------9--|
D-2---0------|
A---------7--|
E------------|

(Distorted)
E-------------------------------------------------------|
B-------------------------------------------------------|
G-------------------------------------------------------|
D-2222---2222---2222---2222---------2222---2222---2222--|
A-0000---0000---0000---0000--2222---0000---0000---0000--|
E----------------------------0000-----------------------|

Verse:
E------------------------------------------------1-1--|
B----------------------5-5-----------------------1-1--|
G----------------------5-5-----------------------2-2-o|
D-3-2-2--3-2-2--3-2-2--5-5-----------------------3-3-o|
A-0-0-0--0-0-0--0-0-0--3-3--3-2-2--3-2-2--3-2-2-------|
E---------------------------3-3-3--3-3-3--3-3-3-------|

1st Time
E-------------------------------------3------|
B-------------------------------------3------|
G-10-9-9-10-9-9-10-9-9----------------4------|
D-7--7-7-7--7-7-7--7-7--7--7--7--5----5---X\-|
A-----------------------7--7--7--5----5---X\-|
E-----------------------5--5--5--3----3---X\-|

2nd Time
E-------------------------------------3------|
B-------------------------------------3------|
G-5-4-0--9-7-7--10-9-9----------------4------|
D-7-7-0--7-7-7--7--7-7--7--7--7--5----5---X\-|
A-----------------------7--7--7--5----5---X\-|
E-----------------------5--5--5--3----3---X\-|

1st Chorus:
E--------|-3--3-3-|-----------------|--------------------|--------|-3--3-3-|
B-5--5-5-|-3--3-3-|-----------------|--------------------|-5--5-5-|-3--3-3-|
G-5--5-5-|-4--4-4-|-9--9--9---7-7-7-|-10-10-10--9--9--9--|-5--5-5-|-4--4-4-|
D-5--5-5-|-5--5-5-|-10-10-10--9-9-9-|-12-12-12--10-10-10-|-5--5-5-|-5--5-5-|
A-3--3-3-|-5--5-5-|-----------------|--------------------|-3--3-3-|-5--5-5-|
E--------|-3--3-3-|-----------------|--------------------|--------|-3--3-3-|

E------------------|------------|--------|-3--3-3-|-----------------|
B------------------|------------|-5--5-5-|-3--3-3-|-----------------|
G-----9--------7---|-----5------|-5--5-5-|-4--4-4-|-9--9--9---7-7-7-|
D------------------|----------5-|-5--5-5-|-5--5-5-|-10-10-10--9-9-9-|
A-7-7-7-7--5-5-5-5-|-3-3-3-3--5-|-3--3-3-|-5--5-5-|-----------------|
E------------------|----------3-|--------|-3--3-3-|-----------------|

E--------------------|--------|-1--1-1-|---|-3-|-----|
B--------------------|-5--5-5-|-1--1-1-|---|-3-|-----|
G-10-10-10--9--9--9--|-5--5-5-|-2--2-2-|---|-4-|-----|
D-12-12-12--10-10-10-|-5--5-5-|-3--3-3-|-5-|-5-|-7---|
A--------------------|-3--3-3-|-3--3-3-|-5-|-5-|-7---|
E--------------------|--------|-1--1-1-|-3-|-3-|-5---|

Techno Thing Type Part:
(Phaser or something of that sort)
E-----------------|
B-----------------|
G----------------o|
D----------------o|
A-----------------|
E-5-5-55-5-5-5-3--|

2nd Chorus:
E--------|-3--3-3-|-----------------|--------------------|--------|-3--3-3-|
B-5--5-5-|-3--3-3-|-----------------|--------------------|-5--5-5-|-3--3-3-|
G-5--5-5-|-4--4-4-|-9--9--9---7-7-7-|-10-10-10--9--9--9--|-5--5-5-|-4--4-4-|
D-5--5-5-|-5--5-5-|-10-10-10--9-9-9-|-12-12-12--10-10-10-|-5--5-5-|-5--5-5-|
A-3--3-3-|-5--5-5-|-----------------|--------------------|-3--3-3-|-5--5-5-|
E--------|-3--3-3-|-----------------|--------------------|--------|-3--3-3-|

E------------------|------------------|--------|-3--3-3-|-----------------|
B------------------|------------------|-5--5-5-|-3--3-3-|-----------------|
G-----9--------7---|-----10-------9---|-5--5-5-|-4--4-4-|-9--9--9---7-7-7-|
D------------------|------------------|-5--5-5-|-5--5-5-|-10-10-10--9-9-9-|
A-7-7-7-7--5-5-5-5-|-8-8-8-8--7-7-7-7-|-3--3-3-|-5--5-5-|-----------------|
E------------------|------------------|--------|-3--3-3-|-----------------|

E--------------------|--------|-1--1-1-|---|
B--------------------|-5--5-5-|-1--1-1-|---|
G-10-10-10--9--9--9--|-5--5-5-|-2--2-2-|---|
D-12-12-12--10-10-10-|-5--5-5-|-3--3-3-|-5-|
A--------------------|-3--3-3-|-3--3-3-|-5-|
E--------------------|--------|-1--1-1-|-3-|

Bridge:
E--------------------------------------------------|
B--------------------------------------------------|
G--------------------------------------------------|
D--------------------------------------------------|
A--------------------------------------------------|
E-5~----------7~----------8~----------10~----------|

E----------------------------------------------------------------|
B----------------------------------------------------------------|
G----------------------------------------------------------4H5---|
D-7-----7-----7-----7-----9---10---5-----5-----7-----7-----0---7-|
A-0-0-0-0-0-0-0-0-0-0-0-0-0-0-0--0-0-0-0-0-0-0-0-0-0-0-0-0-------|
E----------------------------------------------------------------|

E------------------------------------------------------------------|
B------------------------------------------------------------------|
G------------------------------------------------------------------|
D-7-----7-----7-----7-----9---10---5-----5-----7-----7----------9~-|
A-0-0-0-0-0-0-0-0-0-0-0-0-0-0-0--0-0-0-0-0-0-0-0-0-0-0-0-0-0-0-----|
E------------------------------------------------------------------|

E----------------------------------------------------------------|
B----------------------------------------------------------------|
G----------------------------------------------------------4H5---|
D-7-----7-----7-----7-----9---10---5-----5-----7-----7-----0---7-|
A-0-0-0-0-0-0-0-0-0-0-0-0-0-0-0--0-0-0-0-0-0-0-0-0-0-0-0-0-------|
E----------------------------------------------------------------|

E----------------------------------------------------------------|
B----------------------------------------------------------------|
G----------------------------------------------------------4H5---|
D-7-----7-----7-----7-----9---10---5-----5-----7-----7-----0---7-|
A-0-0-0-0-0-0-0-0-0-0-0-0-0-0-0--0-0-0-0-0-0-0-0-0-0-0-0-0-------|
E----------------------------------------------------------------|

E------------------------------------------------------------------|
B------------------------------------------------------------------|
G------------------------------------------------------------------|
D-7-----7-----7-----7-----9---10---5-----5-----7-----7----------9~-|
A-0-0-0-0-0-0-0-0-0-0-0-0-0-0-0--0-0-0-0-0-0-0-0-0-0-0-0-0-0-0-----|
E------------------------------------------------------------------|

E--------------------------------------12-12-12-12-12-|
B--------------------------------------13-13-13-13-13-|
G--------------------------------------14-14-14-14-14-|
D-7-7-7-7-7-7-7-7-9-9-9-9-10~--14--14-----------------|
A-0-0-0-0-0-0-0-0-0-0-0-0-0---------------------------|
E------------------------------12--12-----------------|

End Thing:
E-------------------------------------------------------3--3-3--|
B-------------------------------------------------5--5--3--3-3--|
G---------------5-5--7-7--4-4--5-5----------------5--5--4--4-4--|
D-3--3--3-3--3----------------------3--3--3-3--3--5--5--5--5-5--|
A-3--3--3-3--3--3-3--5-5--2-2--3-3--3--3--3-3--3--3--3--5--5-5--|
E-1--1--1-1--1----------------------1--1--1-1--1--------3--3-3--|

E-------------------------------------------0--------------------|
B---------------------------------------0------------------------|
G---------------9-9--10-7-7--9-9-----0--------------0------------|
D-3--3--3-3--3--------------------3------------------------------|
A-3--3--3-3--3--7-7--8--5-5--7-7--3-------------3----------------|
E-1--1--1-1--1--------------------1---------------------3----\1--|

Cello Part:
  >        >        >        >        >        >        >        >
E-------------------------------------------------------------------------|
B-------------------------------------------------------------------------|
G-------------------------------------------------------------------------|
D-------------------------------------3--------2--------3--------2--------|
A-------------------0--------3--------------------------0--------3--------|
E-1--------3--------------------------1--------3--------------------------|

  >        >        >        >        >        >        >        >
E-------------------------------------------------------------------------|
B-------------------------------------------------------------------------|
G-------------------------------------------------------------------------|
D-3----2---2----0---3----2---2--------3----2---2----0---3----2---2----0---|
A--------3----------0--------3---------------3--------3-0--------3--------|
E-1--------3--------------------------1--------3--------------------------|

  >        >        >         >
E------------------------------------|
B------------------------------------|
G-----------------------------0------|
D-3----2---2----0---3----2-0---------|
A--------3--------3-0---------3------|
E-1--------3-------------------------|



A.F.I.
The Great Dissapointment
Sing The Sorrow
Tuning : Drop D, 1/2 Step Down (Db Ab Db Gb Bb eb)

Since this song has so many different parts, I figured I would
make the tab go striaght through the song. The only repeat I have 
is near the end. I tried my best to put the rhythm into this tab. 
It helps, but it made the areas w/ the double digits a bit confusing.
Shouldn't be a problem, though.

  8p6 : Pull off
  5h6 : Hammer on
PM... : Palm mute
    x : Mute string
  7/9 : Slide up
  8/5 : Slide down
  (0) : Ghost note
|-3-| : Triplet
  12< : Volume Swell


First Verse (Clean):
|---5-----5---------------5-------6-------6---------------8-------|
|-----6-------6---------------6-------6-------6---------------6---|
|-7-----7-------------7---------7-------7-------------7---------7-|
|-----------------------------------------------------------------|
|-----------------------------------------------------------------|
|-----------------------------------------------------------------|

|-8p6-5-------------------5---------0---0-------------5-----------|
|-------------6---------------6-------5---5h6-------------6-------|
|---------------------7-----------7-----------7---------------7---|
|-----------------------------------------------------------------|
|-----------------------------------------------------------------|
|-----------------------------------------------------------------|

|---5-----5---------------5-------6-------6---------------8-------|
|-----6-------6---------------6-------6-------6---------------6---|
|-7-----7-------------7---------7-------7-------------7---------7-|
|-----------------------------------------------------------------|
|-----------------------------------------------------------------|
|-----------------------------------------------------------------|

|-8p6-5---5---------------5---------5-----5-----5---8-----8-----8-|
|-------------6---------------6-------6-----6---------6-----6-----|
|---------------------7-----------7-----7-----7---7-----7-----7---|
|-----------------------------------------------------------------|
|-----------------------------------------------------------------|
|-----------------------------------------------------------------|

Pre-Verse (Distorted):
|---5-----5-----5---------6-------6\5---5-----8-8-------8---8-----|
|-----6-----6-------6---------6-------------6-------6-------------|
|-7-----7-------------7---------7-----7---------------7-------0-0-|
|-0-----------0-----------------------------------------------0-0-|
|-----------------------------------------------------------------|
|-----------------------------------------------------------------|
					
Second Verse:
|-----------------------------------------5-----------------------|
|-------------------------------------------6---------------------|
|-5h7-----7---7-------7---7-------5h7---------7-----------5-------|
|-0---0-0-0---0-------0---0---0-0-0---0-0-------------0-0-0---0-0-|
|-----------------------------------------------------------------|
|-----------------------------------------------------------------|
    PM...                   PM...   PM...           PM...   PM...

|-----------------------------------------------------------------|
|---------------------------------6p5-----6h8-6-------6-----------|
|-5h7-----7---7-------7---7-------7-------7---7-----------7-------|
|-0---0-0-0---0-------0---0---0-0-0---0-0-0---0---------------0-0-|
|-----------------------------------------------------------------|
|-----------------------------------------------------------------|
    PM...                   PM...   PM...                   PM...

|-----------------------------------------5-----------------------|
|-------------------------------------------6---------------------|
|-5h7-----7---7-------7---7-------5h7---------7-----------5-------|
|-0---0-0-0---0-------0---0---0-0-0---0-0-------------0-0-0---0-0-|
|-----------------------------------------------------------------|
|-----------------------------------------------------------------|
    PM...                   PM...   PM...           PM...   PM...

|---------------------------------5---------------8---------------|
|-------------------------------------6---------------6-----------|
|-5h7-----7---7-------7---7---7-----------7---------------7-------|
|-0---0-0-0---0-------0---0---0---------------0-------------------|
|-------------------------------------------------------------0---|
|-----------------------------------------------------------------|

Pre-Chorus:
|--------------------------------------------------------------------------|
|--------------------------------------------------------------------------|
|7-7---7-7---7-7---7-7/9-9---9/10-10-10--10-10-10-10/14-14-14-14-14-14-14--|
|x-x---x-x---x-x---x-x---x---x----x--x---x--x--x--x------x--x--x--x--x--x-0|
|5-5---5-5---5-5---5-5/7-7---7/8--8--8---8--8--8--8-/12-12-12-12-12-12-12-0|
|0-0---0-0---0-0---0-0---0---0----0--0---0--0--0--0------0--0--0--0--0--0-0|

Short Chorus:
|--------------------------------------------------|
|--------------------------------------------------|
|--------------------------------------------------|
|-1010--10-----7-7-7-7-7---8-8-8-8-8/--12--14------|
|--8-8---8-0---3-3-3-3-3---5-5-5-5-5/--10--10--0---|
|--8-8---8-0---3-3-3-3-3---5-5-5-5-5/--10--10--0---|

|------------------------------------------------------|
|------------------------------------------------------|
|-1414--14-/15-1212121212/14-1010101010/12-9-9-9-------|
|--x-x---x------x-x-x-x-x-----x-x-x-x-x----x-x-x---0---|
|-1212--12-/13-1010101010/12--8-8-8-8-8/10-7-7-7---0---|
|--0-0---0------0-0-0-0-0-----0-0-0-0-0----0-0-0---0---|

|--------------------------------------------------|
|--------------------------------------------------|
|--------------------------------------------------|
|-1010--10-----7-7-7-7-7---8-8-8-8-8/--12--14------|
|--8-8---8-0---3-3-3-3-3---5-5-5-5-5/--10--10--0---|
|--8-8---8-0---3-3-3-3-3---5-5-5-5-5/--10--10--0---|

|------------------------------------------------------|
|------------------------------------------------------|
|-1414--14-/15-1212121212/14-1010101010/12-9-9-9---9---|
|--x-x---x------x-x-x-x-x-----x-x-x-x-x----x-x-x---x---|
|-1212--12-/13-1010101010/12--8-8-8-8-8/10-7-7-7---7---|
|--0-0---0------0-0-0-0-0-----0-0-0-0-0----0-0-0---0---|

Pre-Verse:
|------------------------------------------------------------------|
|------------------------------------------------------------------|
|-10---------------10-/12---9---------------5---5--5h7-------------|
|--0----------------0---0---0---------------0---0--0---------------|
|--8----------------8-/10---7---------------3----------------------|
|--0----------------0---0---0---------------0----------------------|

Third Verse:
|------------------------------------------------------------------|
|o----------------------------------------------------------------o|
|------------------------------------------------------------------|
|--0---0-0-x---3-------3---3-3-----8---8-8-x---3--------3---3-3p0--|
|o-0---0-0-x---3-------3---3-3-0---8---8-8-x---3--------3---3-3p0-o|
|--0---0-0-x---3-------3---3-3-0---8---8-8-x---3--------3---3-3p0--|   

|--------------------------------------------------------------------|
|--------------------------------------------------------------------|
|--------------------------------------------------------------------|
|-10/121212-----3-------3---3-3-----8---8-8-x-x-3--------3---3-3-3---|
|-10/121212-0---3-------3---3-3-0---8---8-8-x-x-3--------3---3-3-3---|
|-----------0---3-------3---3-3-0---8---8-8-x-x-3--------3---3-3-3---|

|------------------------------------------------------------------|
|------------------------------------------------------------------|
|------------------------------------------------------------------|
|-0---0-0-x-x-3-------3---3-3--------------------------------------|
|-0---0-0-x-x-3-------3---3-3-0---8---8---8---8--10---10--1010-0---|
|-0---0-0-x-x-3-------3---3-3-0---8---8---8---8--10---10--1010-0---|

Pre-Chorus:
|-------------------------------------------------|
|-------------------------------------------------|
|-10-10---10-10-10-10-10-10-10-10/12-12-12-12/14--|
|--x--x----x--x--x--x--x--x--x--x-----x--x--x-----|
|--8--8----8--8--8--8--8--8--8--8/10-10-10-10/12--|
|--0--0----0--0--0--0--0--0--0--0-----0--0--0-----|

|-------------------------------------------------|
|-------------------------------------------------|
|-14-14---14-14-14-14/19-19-19-19-19-19-19--------|
|--x--x----x--x--x--x-----x--x--x--x--x--x-0------|
|-12-12---12-12-12-12/17-17-17-17-17-17-17-0------|
|--0--0----0--0--0--0-----0--0--0--0--0--0-0------|

Long Chorus:

|--------------------------------------------------|
|--------------------------------------------------|
|--------------------------------------------------|
|-1010--10-----7-7-7-7-7---8-8-8-8-8/--12--14------|
|--8-8---8-0---3-3-3-3-3---5-5-5-5-5/--10--10--0---|
|--8-8---8-0---3-3-3-3-3---5-5-5-5-5/--10--10--0---|

|------------------------------------------------------|
|------------------------------------------------------|
|-1414--14-/15-1212121212/14-1010101010/12-9-9-9-------|
|--x-x---x------x-x-x-x-x-----x-x-x-x-x----x-x-x---0---|
|-1212--12-/13-1010101010/12--8-8-8-8-8/10-7-7-7---0---|
|--0-0---0------0-0-0-0-0-----0-0-0-0-0----0-0-0---0---|

|--------------------------------------------------|
|--------------------------------------------------|
|--------------------------------------------------|
|-1010--10-----7-7-7-7-7---8-8-8-8-8/--12--14------|
|--8-8---8-0---3-3-3-3-3---5-5-5-5-5/--10--10--0---|
|--8-8---8-0---3-3-3-3-3---5-5-5-5-5/--10--10--0---|

|------------------------------------------------------|
|------------------------------------------------------|
|-1414--14-/15-1212121212/14-1010101010/12-9-9-9---9---|
|--x-x---x------x-x-x-x-x-----x-x-x-x-x----x-x-x---x---|
|-1212--12-/13-1010101010/12--8-8-8-8-8/10-7-7-7---7---|
|--0-0---0------0-0-0-0-0-----0-0-0-0-0----0-0-0---0---|

|----------------------------------------------------|
|----------------------------------------------------|
|----------------------------------------------------|
|-10-10---10-----7-7-7-7-7---8-8-8-8-8---0---0---0---|
|--8--8----8-0---3-3-3-3-3---5-5-5-5-5---0---0---0---|
|--8--8----8-0---3-3-3-3-3---5-5-5-5-5---0---0---0---|

|---------------------------------------------------|
|---------------------------------------------------|
|---------------------------------------------------|
|-10-10---10-----7-7-7-7-7/-12-12---12\-8---8---0---|
|--8--8----8-0---3-3-3-3-3/-10-10---10\-5---5---0---|
|--8--8----8-0---3-3-3-3-3/-10-10---10\-5---5---0---|

|---------------------------------------------------|
|---------------------------------------------------|
|---------------------------------------------------|
|-10-10---10-----7-7-7-7-7---8-8-8-8-8---0---0---0--|
|--8--8----8-0---3-3-3-3-3---5-5-5-5-5---0---0---0--|
|--8--8----8-0---3-3-3-3-3---5-5-5-5-5---0---0---0--|

|-----------------------------------------------------|
|-----------------------------------------------------|
|-----------------------------------------------------|
|-10-10---10-----7-7-7-7-7---8-8-8-8-8/-12---14-------|
|--8--8----8-0---3-3-3-3-3---5-5-5-5-5/-10---10---0---|
|--8--8----8-0---3-3-3-3-3---5-5-5-5-5/-10---10---0---|

Pre-Bridge:
|---------------------------------------------------|
|---------------------------------------------------|
|-10-----------9-----------8-----------7------------|
|--x-----------x-----------x-----------x------------|
|--5-----------5-----------5-----------5------------|
|--0-----------0-----------0-----------0------------|

Bridge (Clean):
|----------------------------------------------------------|
|-10---10-11-----8---8-10-----6-------8------5------6------|
|-10---10-12-----9---9--7-----7-------9------5------7------|
|---(0)-----(0)---(0)----(0)---(0)-(0)-(0)----(0)(0)-(0)---|
|----------------------------------------------------------|
|----------------------------------------------------------|
    ^These (0)'s might be bass, I can't tell

|---------------------------------------------------------|
|-10---10-11-----8---8-10-----6---6-8-----5-----5-----3---|
|-10---10-12-----9---9--7-----7---7-9-----5-----5-----2---|
|---(0)-----(0)---(0)----(0)---(0)---(0)---(0)---(0)------|
|---------------------------------------------------------|
|---------------------------------------------------------|

(Distorted)
|----------------------------------------------|
|----------------------------------------------|
|-14-----14--12-----12--15--15--15--14--14--14-|
|--x------x---x------x---x---x---x---x---x---x-|
|-12-----12--10-----10--13--13--13--12--12--12-|
|--0------0---0------0---0---0---0---0---0---0-|

|--------------------------------------------------|
|--------------------------------------------------|
|-14-----14--12--12--12--15--151515/1714--141414---|
|--x------x---x---x---x---x---x-x-x----x---x-x-x---|
|-12-----12--10--10--10--13--131313/1512--121212---|
|--0------0---0---0---0---0---0-0-0----0---0-0-0---|

|--------------------------------------------------|
|--------------------------------------------------|
|-14--14--14--12--12--12--1515151515--14--14--14---|
|--x---x---x---x---x---x---x-x-x-x-x---x---x---x---|
|-12--12--12--10--10--10--1313131313--12--12--12---|
|--0---0---0---0---0---0---0-0-0-0-0---0---0---0---|
  
|--------------------------------------------------|
|--------------------------------------------------|
|-14--141414--17--17--17--1919--1919--19--19--19---|
|--x---x-x-x---x---x---x---x-x---x-x---x---x---x---|
|-12--121212--15--15--15--1717--1717--17--17--17---|
|--0---0-0-0---0---0---0---0-0---0-0---0---0---0---|

Breakdown:
|-----------------------------------------------------------------|
|-----------------------------------------------------------------|
|-----------------------------------------------------------------|
|-7h8p5-5h7p5-3-------------------3-----3---3-3-----------3-------|
|-5-----5-----3-------------------3-----3---3-3-----------3-------|
|-----------------------------------------------------------------|
 
|-------------------------------------------------------------------|
|-------------------------------------------------------------------|
|-------------------------------------------------------------------|
|-5---5---3h5p3-0------------------10h12---12--1212--------12\------|
|-5---5---------0------------------10h12---12--1212--------12\------|
|-------------------------------------------------------------------|
         |--3--|

|-----------------------------------------------------------------|
|-----------------------------------------------------------------|
|-----------------------------------------------------------------|
|-7h8p5-5h7p5-3-------------------3-----3---3-3-----------3-------|
|-5-----5-----3-------------------3-----3---3-3-----------3-------|
|-----------------------------------------------------------------|

|-------------------------------------------------------------------|
|-------------------------------------------------------------------|
|----------------------------------10-----12-----9------------------|
|-5---5---3h5p3-0-------------------x------x-----x------------------|
|-5---5---------0-------------------8-----10-----7------------------|
|-------------------------------------------------------------------|
         |--3--|

Pre-Pre-Chorus (Yeah Im runnin outta names for these things...):
|-----------------------------------------------------------------|
|-----------------------------------------------------------------|
|-10--------------12---------------10--------------10-------------|
|--x---------------x----------------x---------------x-------------|
|--8--------------10----------------8---------------8-------------|
|-----------------------------------------------------------------|
                   <                <               < 

|-----------------------5---------5-----------5---6-------8-------|
|---------------------------6--------6----------6----6------6-----|
|-7---------------7-----------7---------7---------------7-----7-0-|
|----0---------------0----------0-----------0---------------------|
|-----------------------------------------------------------------|
|-----------------------------------------------------------------|

Pre-Chorus:
|-----------------------------------------------------------------|
|-----------------------------------------------------15----------|
|-1010101010101010101010s12121212/14--1414--1414--14--17b19-------|
|--x-x-x-x-x-x-x-x-x-x-x----x-x-x------x-x---x-x---x--------------|
|--8-8-8-8-8-8-8-8-8-8-8s10101010/12--1212--1212--12--------------|
|--0-0-0-0-0-0-0-0-0-0-0----0-0-0------0-0---0-0---0--------------|

Repeat Long Chorus

End (Clean):
|---------------------------|
|---------------------------|
|-------7-9-0--9h10---------|
|-7-------------------------|
|---------------------------|
|-7---/10-----12------------|



Band: AFI (A Fire Inside)
Album: Sing The Sorrow
Song: Paper Airplanes (Makeshift Wings)
Tuning: Drop-D and a half step down
Tabbed By: LedZep420 (dm_420@hotmail.com)
Note: The tabs for "Bleed Black", "Silver And Cold" and
"Death Of Seasons" that say they are by GuitarDope are
mine, this is my new UG account.

Intro:
E----------------------------------------|
B----------------------------------------|
G-12/14-14-14\12-12-12\10-10-10-10/12-12-|
D-X-----X--X-----X--X-----X--X--X-----X--|
A-10/12-12-12\10-10-10\8--8--8--8/ 10-10-|
D-0-----0--0-----0--0-----0--0--0-----0--|

E--------------------------------|
B--------------------------------|
G-12/14-14-14\12-12-12\11--11-11-|
D-X-----X--X-----X--X------------|
A-10/12-12-12\10-10-10\9---9--9--|
D-0-----0--0-----0--0------0--0--|

E----------------------------------------|
B----------------------------------------|
G-12/14-14-14\12-12-12\10-10-10-10/12-12-|
D-X-----X--X-----X--X-----X--X--X-----X--|
A-10/12-12-12\10-10-10\8--8--8--8/ 10-10-|
D-0-----0--0-----0--0-----0--0--0-----0--|

E------------------------------|
B------------------------------|
G------------------------------|
D-0H10H12-0H10H12-0H10H12-0000-|
A-0H10H12-0H10H12-0H10H12-0000-|
D-0H10H12-0H10H12-0H10H12-0000-|

Verse:
E-----------------------|-----------------------|
B-----------------------|-----------------------|
G-------------9-9-10-10-|-10-10-10-10-12-12-----|
D-12-12-10-10-8-8-8--8--|-8--8--8--8--8--8---12-|
A-8--8--8--8--8-8-8--8--|-8--8--8--8--8--8---10-|
D-8--8--8--8--8-8-8--8--|-8--8--8--8--8--8---10-|

E-------------------------|-----------------------|
B-------------------------|-----------------------|
G----------17-17-17-14-14-|-14-14-14-14-15-15-----|
D-15-15-14-14-14-14-12-12-|-12-12-12-12-12-12--10-|
A-12-12-12-12-12-12-12-12-|-12-12-12-12-12-12--7--|
D-12-12-12-12-12-12-12-12-|-12-12-12-12-12-12--7--|

E-----------------------|-----------------------|
B-----------------------|-----------------------|
G-------------9-9-10-10-|-10-10-10-10-12-12-----|
D-12-12-10-10-8-8-8--8--|-8--8--8--8--8--8---12-|
A-8--8--8--8--8-8-8--8--|-8--8--8--8--8--8---10-|
D-8--8--8--8--8-8-8--8--|-8--8--8--8--8--8---10-|

E-------------------------|-12-12-12-12-13-13-13-13-|
B-------------------------|-15-15-15-15-15-15-15-15-|
G----------17-17-17-14-14-|-14-14-14-14-14-14-14-14-|
D-15-15-14-14-14-14-12-12-|-12-12-12-12-12-12-12-12-|
A-12-12-12-12-12-12-12-12-|-12-12-12-12-12-12-12-12-|
D-12-12-12-12-12-12-12-12-|-12-12-12-12-12-12-12-12-|

Pre-Chorus:
E---------------------------|-------------------------------------|
B---------------------------|-------------------------------------|
G---------------------------|-------------------------------------|
D-8----10----12----12-8---8-|-10-10--------10--------10--------10-|
A-8----10----12----12-8---8-|-10-10--------10--------10--------10-|
D-8-88-10-10-12-12-12-8-8-8-|-10-10--10-10-10--10-10-10--10-10-10-|
    PM    --|   --|     -|           -----|    -----|    -----|
E---------------------------|------------------------------------------|
B---------------------------|------------------------------------------|
G---------------------------|------------------10-10-------14-14-------|
D-8----10----12----12-8---8-|-10-10--------10--------12-12-------12-12-|
A-8----10----12----12-8---8-|-10-10--------10--------------------------|
E-8-88-10-10-12-12-12-8-8-8-|-10-10--10-10-10--------------------------|
    PM    --|   --|     -|           -----|
E-------------------------|-------------------------|
B-------------------------|-------------------------|
G-------------------------|-------------------------|
D-12-12-14-14-15-15-12-12-|-12-14-14-14-12-14-14-14-|
A-8--8--10-10-12-12-8--8--|-10-10-10-10-10-10-10-10-|
D-8--8--10-10-12-12-8--8--|-10-10-10-10-10-10-10-10-|

E-------------------------|-------------------------|
B-------------------------|-------------------------|
G-------------------------|-------------12-14-14-14-|
D-12-12-14-14-15-15-12-12-|-12-14-14-14-10-10-10-10-|
A-8--8--10-10-12-12-8--8--|-10-10-10-10-10-10-10-10-|
D-8--8--10-10-12-12-8--8--|-10-10-10-10-10-10-10-10-|

Chorus:
E-----------------|-----------------|
B-----------------|-----------------|
G-----------------|-----------------|
D-0-0-0-0-3-3-3-0-|-8-8-8-7-5-5-5-5-|
A-0-0-0-0-3-3-3-0-|-8-8-8-7-5-5-5-5-|
D-0-0-0-0-3-3-3-0-|-8-8-8-7-5-5-5-5-|

E-------------------------|------------------|
B-------------------------|------------------|
G-------------------------|-----------------o|
D-12-12-12-12-10-10-10-10-|-8-8-8-8-8-8-8-8-o|
A-12-12-12-12-10-10-10-10-|-8-8-8-8-8-8-8-8--|
D-12-12-12-12-10-10-10-10-|-8-8-8-8-8-8-8-8--|

Intro 2nd Time:
E----------------------------------------|
B----------------------------------------|
G-12/14-14-14\12-12-12\10-10-10-10/12-12-|
D-X-----X--X-----X--X-----X--X--X-----X--|
A-10/12-12-12\10-10-10\8--8--8--8/ 10-10-|
D-0-----0--0-----0--0-----0--0--0-----0--|

E--------------------------------|
B--------------------------------|
G-12/14-14-14\12-12-12\11--11-11-|
D-X-----X--X-----X--X------------|
A-10/12-12-12\10-10-10\9---9--9--|
D-0-----0--0-----0--0------0--0--|

E----------------------------------------|
B----------------------------------------|
G-12/14-14-14\12-12-12\10-10-10-10/12-12-|
D-X-----X--X-----X--X-----X--X--X-----X--|
A-10/12-12-12\10-10-10\8--8--8--8/ 10-10-|
D-0-----0--0-----0--0-----0--0--0-----0--|

E--------------------------------|
B--------------------------------|
G--------------------12/14-14-14-|
D-0H10H12-0H10H12-0--X-----X--X--|
A-0H10H12-0H10H12-0--10/12-12-12-|
D-0H10H12-0H10H12-0--0-----0--0--|

Pre-Chorus 2nd Time:
E---------------------------|-------------------------------------|
B---------------------------|-------------------------------------|
G---------------------------|-------------------------------------|
D-8----10----12----12-8---8-|-10-10--------10--------10--------10-|
A-8----10----12----12-8---8-|-10-10--------10--------10--------10-|
D-8-88-10-10-12-12-12-8-8-8-|-10-10--10-10-10--10-10-10--10-10-10-|
    PM    --|   --|     -|           -----|    -----|    -----|
E---------------------------|------------------------------------------|
B---------------------------|------------------------------------------|
G---------------------------|------------------10-10-------14-14-------|
D-8----10----12----12-8---8-|-10-10--------10--------12-12-------12-12-|
A-8----10----12----12-8---8-|-10-10--------10--------------------------|
D-8-88-10-10-12-12-12-8-8-8-|-10-10--10-10-10--------------------------|
    PM    --|   --|     -|           -----|
E-------------------------|-------------------------|
B-------------------------|-------------------------|
G-------------------------|-------------10-12-12-12-|
D-12-12-14-14-15-15-12-12-|-12-14-14-14-12-14-14-14-|
A-8--8--10-10-12-12-8--8--|-10-10-10-10-------------|
D-8--8--10-10-12-12-8--8--|-10-10-10-10-------------|

E-------------------------|-------------------------|
B-------------------------|-------------------------|
G-------------------------|-------------12-14-14-14-|
D-12-12-14-14-15-15-12-12-|-12-14-14-14-10-10-10-10-|
A-8--8--10-10-12-12-8--8--|-10-10-10-10-10-10-10-10-|
D-8--8--10-10-12-12-8--8--|-10-10-10-10-10-10-10-10-|

Bridge:
E----------------|-----------------|----------------|-------------------|
B----------------|-----------------|----------------|-------------------|
G----------------|-----------------|----------------|------------------o|
D----------------|-----------------|----------------|---------0------0-o|
A-8----8-7----7--|-10----10-9----9-|-8----8-7----7--|-3-3-2H3--------0--|
D----0------0----|-----0-------0---|----0------0----|------------0-0-0--|
                                                                 PM-|
E-------------------|-----------------|-------------------|
B-------------------|-----------------|-------------------|
G-------------------|-----------------|-------------------|
D-------------------|-----------------|-------------------|
A-12----12-10----10-|-10----10-9----9-|-12----12-10----10-|
D-----0--------0----|-----0-------0---|-----0--------0----|

E-------------------|
B-------------------|
G-------------------|
D---------0-0-0-0-0-|
A-3-3-2H3---0-0-0-0-|
D-----------0-0-0-0-|

Interlude:
E----------------|---------------|---------------|--------------|
B----------------|---------------|---------------|--------------|
G----------------|---------------|----12-9/11-11-|-12-12\11--11-|
D-8--8--8-8--10\-|-3--3--3-3--5\-|-0--X--X----X--|-X--X------X--|
A-8--8--8-8--10\-|-3--3--3-3--5\-|-0--10-7/ 9-9--|-10-10\9---9--|
D-8--8--8-8--10\-|-3--3--3-3--5\-|-0-------------|--------------|

E----------------|---------------|---------------|--------------|
B----------------|---------------|---------------|--------------|
G----------------|---------------|----12-9/11-11-|-12-12/14--14-|
D-8--8--8-8--10\-|-3--3--3-3--5\-|-0--X--X----X--|-X--X------X--|
A-8--8--8-8--10\-|-3--3--3-3--5\-|-0--10-7/ 9-9--|-10-10/12--12-|
D-8--8--8-8--10\-|-3--3--3-3--5\-|-0-------------|--------------|

E----------------------------------|----------------------------------|
B----------------------------------|----------------------------------|
G----------------------------------|----------------------------------|
D-10H12-12-10-12-13P12-10H12-10H12-|-10H12-12-10-12-13P12-10H12-10H12-|
A-10H12-12-10-12-13P12-10H12-10H12-|-10H12-12-10-12-13P12-10H12-10H12-|
D-10H12-12-10-12-13P12-10H12-10H12-|-10H12-12-10-12-13P12-10H12-10H12-|

E----------------------------------|----------------|
B----------------------------------|----------------|
G----------------------------------|----------------|
D-10H12-12-10-12-13P12-10H12-10H12-|-10H12---10H12--|
A-10H12-12-10-12-13P12-10H12-10H12-|-10H12---10H12--|
D-10H12-12-10-12-13P12-10H12-10H12-|-10H12---10H12--|

Ending:
E-----------------|-----------------|
B-----------------|-----------------|
G-----------------|-----------------|
D-0-0-0-0-3-3-3-0-|-8-8-8-7-5-5-5-5-|
A-0-0-0-0-3-3-3-0-|-8-8-8-7-5-5-5-5-|
D-0-0-0-0-3-3-3-0-|-8-8-8-7-5-5-5-5-|

E-------------------------|------------------|
B-------------------------|------------------|
G-------------------------|-----------------o|
D-12-12-12-12-10-10-10-10-|-8-8-8-8-8-8-8-8-o|
A-12-12-12-12-10-10-10-10-|-8-8-8-8-8-8-8-8--|
D-12-12-12-12-10-10-10-10-|-8-8-8-8-8-8-8-8--|

E---------------------------------------|
B---------------------------------------|
G-10-10-------14-14-----10------14-----o|3X
D-------12-12-------12------12------12-o|
A---------------------------------------|
D---------------------------------------|

E----------------|-----------------|-----------------|
B----------------|-----------------|-----------------|
G-14--12--10--9--|-----------------|-----------------|
D----------------|-0-0-0-0-3-3-3-0-|-8-8-8-7-5-5-5-5-|
A----------------|-0-0-0-0-3-3-3-0-|-8-8-8-7-5-5-5-5-|
D----------------|-0-0-0-0-3-3-3-0-|-8-8-8-7-5-5-5-5-|

E-------------------------|----------------|
B-------------------------|----------------|
G-------------------------|----------------|
D-12-12-12-12-10-10-10-10-|-8-8-8-8-8-8-8--|
A-12-12-12-12-10-10-10-10-|-8-8-8-8-8-8-8--|
D-12-12-12-12-10-10-10-10-|-8-8-8-8-8-8-8--|

E----------------------------------------|
B----------------------------------------|
G-12/14-14-14\12-12-12\10-10-10-10/12-12-|
D-X-----X--X-----X--X-----X--X--X-----X--|
A-10/12-12-12\10-10-10\8--8--8--8/ 10-10-|
D-0-----0--0-----0--0-----0--0--0-----0--|

E--------------------------------|
B--------------------------------|
G-12/14-14-14\12-12-12\11--11-11-|
D-X-----X--X-----X--X------------|
A-10/12-12-12\10-10-10\9---9--9--|
D-0-----0--0-----0--0------0--0--|

E----------------------------------------|
B----------------------------------------|
G-12/14-14-14\12-12-12\10-10-10-10/12-12-|
D-X-----X--X-----X--X-----X--X--X-----X--|
A-10/12-12-12\10-10-10\8--8--8--8/ 10-10-|
D-0-----0--0-----0--0-----0--0--0-----0--|

E------------------------------|
B------------------------------|
G------------------------------|
D-0H10H12-0H10H12-0H10H12-0000-|
A-0H10H12-0H10H12-0H10H12-0000-|
D-0H10H12-0H10H12-0H10H12-0000-|


The 5 star tab was just copied from another site, and had a few mistakes,
here's the corrected version:

“This Celluloid Dream” by AFI

Intro
E I----------------------------------------------I
B I----------------------------------------------I
G I-66-xx-66-55-66-xx-66-55-66-xx-66-55-66-5-555-I
D I-88-xx-88-66-44-xx-44-66-88-xx-88-66-44-6-666-I
A I----------------------------------------------I
E I----------------------------------------------I

E I----------------------------------------------------I
B I----------------------------------------------------I
G I----------------------------------------------------I
D I-3-3--666----------666-----3-3--666----------666----I
A I-1-1--444-66--4-4--444-66--1-1--444-66--4-4--444-66-I
E I----------44--2-2------44-----------44--2-2------44-I X2

E I--------------------------------I
B I---77776-----------77776-9-76---I
G I-----------66685--------------6-I
D I-88------88------88-------------I
A I--------------------------------I
E I--------------------------------I (played over 2nd playing of part 2)

Verse
E I---------------------------------------------------I
B I---------------------------------------------------I
G I---------------------------------------------------I
D I-33333-----------------33333----------------66-666-I
A I-11111-6666-44444-6666-11111-6666-44444-4-4-44-444-I
E I-------4444-22222-4444-------4444-22222-2-2--------I X2
  PM…………… ………  …………… ………  …………… ………  ……………

Interlude
E I----------------------------------------------------I
B I----------------------------------------------------I
G I----------------------------------------------------I
D I-3-3--666----------666-----3-3--666----------666----I
A I-1-1--444-66--4-4--444-66--1-1--444-66--4-4--444-66-I
E I----------44--2-2------44-----------44--2-2------44-I

-repeat verse-

Pre-Chorus (play once palm-muted, then once again without muting)
E I-------------------------------------I
B I-------------------------------------I
G I----------66666666-------------------I
D I-88888888----------66666666-88888888-I
A I-------------------------------------I
E I-------------------------------------I

E I-------------------------------------I
B I-------------------------------------I
G I----------66666666-55555555----------I
D I-88888888-------------------88888888-I
A I-------------------------------------I
E I-------------------------------------I
Chorus
E I-----------------------------------------------------I
B I-----------------------------------------------------I
G I-----------------------------------------------------I
D I-33-xx-333-xx--------------66-xx-666-xx--------------I
A I-11-xx-111-xx-44-xx-444-xx-44-xx-444-xx-66-xx-666-xx-I
E I--------------22-xx-222-xx--------------44-xx-444-xx-I X2

repeat interlude | repeat verse | repeat pre-chorus | repeat chorus

Bridge                                                 (play twice) 
E I------------------------------------------------I   E--------------I
B I-----2-2h4p2/1--1--2-2--1--2-2--1--2-2--1--22-4-I   B-1-1-2--1-1-2-I
G I---3-------------3--3-3--1--1-1--3--3-3--1------I   G-3-3-3--1-1-1-I
D I------------------------------------------------I   D--------------I
A I-1----------------------------------------------I   A--------------I
E I------------------------------------------------I   E--------------I 

E I------------------------------------------I
B I------------------------------------------I
G I------------------------------------------I
D I-3-3-66666-----66666-3-3-66666-----666----I
A I-1-1-44444-4-4-44444-1-1-44444-4-4-444-66-I
E I-----------2-2-----------------2-2-----44-I X2

E I--------------------------I
B I--------------------------I
G I--------------------------I
D I-3------------------------I
A I-1--4--3333333333333333-3-I
E I----2--1111111111111111-1-I
          …………………………………………

Final Choruses
E I-----------------------------------------------------I
B I-----------------------------------------------------I
G I-----------------------------------------------------I
D I-33-xx-333-xx--------------66-xx-666-xx--------------I
A I-11-xx-111-xx-44-xx-444-xx-44-xx-444-xx-66-xx-666-xx-I
E I--------------22-xx-222-xx--------------44-xx-444-xx-I X2

E I-------------------------------------I
B I-------------------------------------I
G I-------------------------------------I
D I-33333333----------66666666----------I
A I-11111133-44444444-44444444-66666666-I
E I----------22222222----------44444444-I X2
 
End on:
E I---------I
B I---------I
G I---------I
D I-------3-I
A I-6--6--1-I
E I-4--4----I  



	The Leaving Song
Am      B       C       D       Em      G       ~ 
|--0--| |--2--| |--0--| |--2--| |--0--| |--3--| |-----|
|--1--| |--0--| |--1--| |--3--| |--0--| |--3--| |-----|
|--2--| |--2--| |--0--| |--2--| |--0--| |--0--| |-----|
|--2--| |--1--| |--2--| |--0--| |--2--| |--0--| |--0--|
|--0--| |--2--| |--3--| |-----| |--2--| |--2--| |--0--|
|-----| |-----| |-----| |-----| |--0--| |--3--| |--2--|

Note: ~  = the note between Em and G
      PM = palm mute
      p  = pull off
      s  = slide down (drag finger)
      /  = hammer on/slide up

nearly every note is not hit only once, in order to save space in tabbing the
chords are written once each, even though they may be strummed. as goes for
other notes too, consult the actual song for rhythm.


intro:
|--0---0--|
|--0---0--|
|--0---4--|
|--2---2--|
|--2---2--|
|--0---0--|

   Em  Ex
        ^(Em with your pinky on 4d)

Verse1:
|--0-----3--2--0---0--3-----0----0-----3--2--0--0--3-----0--|
|--0-----3--3--1---1--3-----0----0-----3--3--1--1--3-----0--|
|--0-----0--2--2---0--0-----0----0-----0--2--2--0--0-----0--|
|--2--0--0--0--2---2--0--0--2----2--0--0--0--2--2--0--0--2--|
|--2--0--2-----0---3--2--0--2----2--0--2-----0--3--2--0--2--|
|--0--2--3------------3--2--0----0--2--3-----------3--2--0--|
   
   Em ~  G  D  Am  C  G  ~  Em   Em ~  G  D  Am C  G  ~  Em


Verse2:
|--0--2--2--3/2--0---0------2--|
|--1--3--0--0-0--0---1------3--|
|--0--2--2--2-2--0---0--2---2--|
|--2--0--1--1-1--2---2--2---0--|
|--3-----2--2-2--2---3--0------|
|----------------0-------------|

   C  D  B  b B  Em  C  Am  D
                        ^(only the bottom of Am)

Verse1:
|--0-----3--2--0---0--3-----0----0-----3--2--0--0--3-----0--|
|--0-----3--3--1---1--3-----0----0-----3--3--1--1--3-----0--|
|--0-----0--2--2---0--0-----0----0-----0--2--2--0--0-----0--|
|--2--0--0--0--2---2--0--0--2----2--0--0--0--2--2--0--0--2--|
|--2--0--2-----0---3--2--0--2----2--0--2-----0--3--2--0--2--|
|--0--2--3------------3--2--0----0--2--3-----------3--2--0--|
   
   Em ~  G  D  Am  C  G  ~  Em   Em ~  G  D  Am C  G  ~  Em


Bridge:
|----------------------------------------------|
|----------------------------------------------|
|----------------------------------------------|
|--5--0--9---12--12--0----5--0--9---12--12--0--|
|--7--9--10--10--9---9----7--9--10--10--9---9--|
|----------------------------------------------|
PM............................................

|---------------------------------------------------------------------2--|
|-----0-------------------------------0-------------------------------3--|
|--------0-----0--0---0---0---0----------0-----0--0---0---0---0----2--2--|
|--5--------5--0--9---12--12--0----5--------5--0--9---12--12--0----2--0--|
|--7--------7--9--10--10--9---9----7--------7--9--10--10--9---9----0-----|
|------------------------------------------------------------------------|

                                                                   Am D
                                                                   ^(bottom half)

Into last verse:
|-----------|
|-----------|
|-----------|
|--5--4--0--|
|-----------|
|-----------|


Verse1:
|--0-----3--2--0---0--3-----0----0-----3--2--0--0--3-----0--|
|--0-----3--3--1---1--3-----0----0-----3--3--1--1--3-----0--|
|--0-----0--2--2---0--0-----0----0-----0--2--2--0--0-----0--|
|--2--0--0--0--2---2--0--0--2----2--0--0--0--2--2--0--0--2--|
|--2--0--2-----0---3--2--0--2----2--0--2-----0--3--2--0--2--|
|--0--2--3------------3--2--0----0--2--3-----------3--2--0--|
   
   Em ~  G  D  Am  C  G  ~  Em   Em ~  G  D  Am C  G  ~  Em


End: (solo)
|------------------------------------------------------------------7--7--|
|--5------5-5/7----3----3--8/10-s-7----7--8----5---12-10----8--10--------|
|----4--4--------4----4---------4----4-------4---(0)------0---0---0------|
|------------------------------------------------------------------------|
|------------------------------------------------------------------------|
|------------------------------------------------------------------------|

|--8p7------7-------8------7-----7----------7-------8------7-----7-------|
|---------8---8---8------8---8-----8------8---8---8------8---8-----8-----|
|-------9-------9------9-------9--------9-------9------9-------9---------|
|------------------------------------------------------------------------|
|------------------------------------------------------------------------|
|------------------------------------------------------------------------|




...But Home Is Nowhere

Tuning is standard

Intro - Clean
E--------------------------------------------------------------------------|
B--------------------------------------------------------------------------|
G--------------------------------------------------------------------------|
D-4-4-4-4-4-4-4-4-4-4-4-4-4-4-4-4-7-7-7-7-7-7-7-2-2-2-2-2-6-6-6-6--------|X4
A--------------------------------------------------------------------------|
E--------------------------------------------------------------------------|
PM . . . . . . . . . . . . . . . . . . . . . . . . . . . . . . .

Verse1 - Distortion
E--------------------------------------------------------------------------|
B--------------------------------------------------------------------------|
G-2-2-2-2-2-2-2-2-2-2-2-2-2-2-2-2-6-6-6-6-6-6-6-6-1-1-1-1-4-4-4-4----------|
D-4-4-4-4-4-4-4-4-4-4-4-4-4-4-4-4-7-7-7-7-7-7-7-7-2-2-2-2-6-6-6-6----------|
A--------------------------------------------------------------------------|
E--------------------------------------------------------------------------|

Prechorus1
E---------------------------------0-0--2-2-2-2-2---------------------------|
B---------------------------------0-0--2-2-2-2-2---------------------------|
G-2-2-2-2-2-2-2-2-2-2-2-2-2-2-2-2-1-1--2-2-2-2-2---------------------------|
D-4-4-4-4-4-4-4-4-4-4-4-4-4-4-4-4-2-2--4-4-4-4-4---------------------------|
A---------------------------------2-2--4-4-4-4-4---------------------------|
E---------------------------------0-0--2-2-2-2-2---------------------------|

Chorus -
e--------------------------------------------------------------------------|
b----5----0----2----------5---0---2-----5---0---2-------------5~-----------|
g----6----1----2----------6---1---2-----6---1---2-------------6~------2~---|
d----7----2----4----------7---2---4-----7---2---4-------------7~--6~--4~---|
a----7----2----4----------7---2---4-----7---2---4-------------7~--7~--4~---|
E----5--- 0----2----------5---0---2-----5---0---2-------------5~--4~--2~---|
   Amaj  Emaj F#m


Lead (for chorus) i know i didnt tab the timing, but it sounds like jade just uses octaves.
e--------------------------------------------------------------------------|
b-------------------------------------------------------------5~-----------|
g------------------6--------------7--6--6---------------------6~------2~---|
d----7--6---9---7--7--------7--6--x--x--7--------7--6--9--7---7~--6~--4~---|
a----x--x---x---x--7--------x--x--5--4--7--------x--x--x--x---7~--7~--4~---|
E----5--4---7---5--5--------5--4--------5--------5--4--7--5---5~--4~--2~---|
			    AMaj		 AMaj

Verse2
E--------------------------------------------------------------------------|
B--------------------------------------------------------------------------|
G--------------------------------------------------------------------------|
D-4-4-4-4-4-4-4-4-4-4-4-4-4-4-4-4-7-7-7-7-7-7-7-7-2-2-2-2-6-6-6-6----------|
A--------------------------------------------------------------------------|
E--------------------------------------------------------------------------|


E--------------------------------------------------------------------------|
B-----------------7-7-7-7-7-7-7-7------------------------------------------|
G-----------------x-x-x-x-x-x-x-x------------------------------------------|
D-4-4-4-4-4-4-4-4-4-4-4-4-4-4-4-4-11-11-11-9-9-9-7-7-12-12-12-14-14-14-1111|
A---------------------------------9--9--9--9-9-9-9-9-9--9--9--9--9--9--9---|
E--------------------------------------------------------------------------|

Bridge
E-----------------------------------------------------------------------|
B-----------------------------------------------------------------------|
G-----------------------------------------------------------------------|
D-4-4-4-4-4-4-4-4-6-6-6-6-6-6-6-6-7-7-7-7-7-7-7-7-9-9-9-9-9-9-9-9-------|
A-----------------9-9-9-9-9-9-9-9-9-9-9-9-9-9-9-9-9-9-9-9-9-9-9-9-------|
E-----------------------------------------------------------------------|


E-----------------------------------------------------------------------|
B-----------------------------------------------------------------------|
G---------2-2-2-2---------4-4-4-4---------6-6-6-6---------7-7-7-7-------|  2x
D-4-4-4-4-4-4-4-4-6-6-6-6-6-6-6-6-7-7-7-7-7-7-7-7-9-9-9-9-9-9-9-9-------|
A-----------------9-9-9-9-9-9-9-9-9-9-9-9-9-9-9-9-9-9-9-9-9-9-9-9-------|
E-----------------------------------------------------------------------|

Here's the build up part to the bridge
e-------------------------------------------------|
b-------------------------------------------------|
g--11-11-11-11/-13-13-13-13/--14-14-14-14/--16----|
d--x--x--x--x---x--x--x--x----x--x--x--x----x-----|
a--9--9--9--9/--11-11-11-11/--12-12-12-12/--14----|
E-------------------------------------------------|


Bridge 4x
e--------------------------------------------|
b--10--10-10-10------------------------------|
g--11--11-11-11---7-7-7-7--2-2-2-2/-2-2-2-2--|
d--11--11-11-11---9-9-9-9--3-3-3-3/-4-4-4-4--|
a--9---9--9--9----9-9-9-9--3-3-3-3/-4-4-4-4--|
E--9---9--9--9----7-7-7-7--1-1-1-1/-2-2-2-2--|
   F#m		   Bm	   Fmaj     F#m

Heres the riff over the bridge (2nd time)
e---------------------------------------------|
b-----10-----------7---------1-1-1-1--2-2-2-2-|
g-----11--11/-14---7---------2-2-2-2--2-2-2-2-|
d-----11--x----x---9-9/-12---3-3-3-3--4-4-4-4-|
a-----9---9/--12---9-x--x----3-3-3-3--4-4-4-4-|
E------------------7-7/-10---1-1-1-1--2-2-2-2-|


The second riff over the bridge (3rd and 4th time)
e---------------------------------------------|
b---------------------------------------------|
g-11-11-11-11/------10-10-10-10/-11-11-11-11--|
d-x--x--x--x--(2x)--x--x--x--x---x--x--x--x---|
a-9--9--9--9/-------8--8--8--8/--9--9--9--9---|
E---------------------------------------------|

e -------------------------------------------------|
b -------------------------------------------------|
g -14--14-14-14/-16-16-16-16-16/-13-13-13-13/-11~~-|
d -x---x--x--x---x--x--x---x--x--x--x--x--x---x----|
a -12--12-12-12/-14-14-14-14-14/-11-11-11-11/-9~~--|
E -------------------------------------------------|

(Here's when he says "empty" on a long note, play this clean)
E--------------------------------------------------|
B--7--7-----9--9-----10--10----12------------------|
G------------------------------x-------------------|
D-4--4--4--6--6--6--7---7---7--9-------------------|
A--------------------------------------------------|
E--------------------------------------------------|




 (9:00 of but home is nowhere)

BAND: 	AFI
SONG:  	This Time Imperfect
BY:	Drew
EMAIL:	funeral_in_carpathia13@yahoo.com
TUNE:   1/2 step down - Eb,Ab,Db,Gb,Bb,Eb
NOTE:   chord transcript given also


this might be complicated to play by tab and ear, so email if any questions

* = PM
: = REST

Not hard to figure when its clean vs distortion

This is a great song, i wasnt going to put this tab on the site, but the other
tabs have little things wrong here and there and this tab version should be seen, thanks



INTRO/VERSE
          G                  D
|-------------------|--------------------------|
|-------------------|--------------------------|
|----0-----0--------|----0-----0---------------|
|------4-----4---4--|------4-----4-------------|
|-------------------|--5-----5-----5/7---------|
|--3-----3-----3----|--------------------------|

       Em             2nd time NOT played
|-------------------|--------------------------|
|-------------------|--------------------------|
|----0----0---------|--------------------------|
|------4----4---4---|-------4------------------|
|-------------------|---5-----5----------------|
|--0-----0----0-----|-----3-----3--------------|




PRE-CHORUS - This is the part where the song changes
             right after Davey finishes singing
             "Asphyxiate on words i would say"
	     Start it right after the first 2 bars of
             INTRO/VERSE

|--3-------------0--3--------------5-----2---2-------
|----5----0-----------5--------------5-----3---3-----
|------4----1-----------4------2---------------------
|-------------2--------------2-------------------0---
|------------------------------------------------0---
|------------------------------------------------0---
         Em
----0-0-0-0-0-0-0-0----------------------------------|
----0-0-0-0-0-0-0-0----------------------------------|
----0-0-0-0-0-0-0-0----------------------------------|
----2-2-2-2-2-2-2-2----------------------------------|
----2-2-2-2-2-2-2-2----------------------------------|
----0-0-0-0-0-0-0-0----------------------------------|




CHORUS
      Em                    G
|--0--0-0-0-0-------3--3-3-3-3--3-3-3-------
|--0--0-0-0-0-------3--3-3-3-3--3-3-3-------
|--0--0-0-0-0-------4--4-4-4-4--4-4-4-------
|--2--2-2-2-2-------5--5-5-5-5--5-5-5-------
|--2--2-2-2-2--000--5--5-5-5-5--5-5-5-------
|--0--0-0-0-0--223--3--3-3-3-3--3-3-3-------
               ***

    D       C       Em        C     D  
---7--7----5--5----0--0------------------0--|
---7--7----5--5----0--0------------------0--|
---7--7-.--5--5-.--0--0-.--5-5-5-5-7-7-7-0--|
---7--7-.--5--5-.--2--2-.--5-5-5-5-7-7-7-0--|
---5--5----3--3----2--2----3-3-3-3-5-5-5-0--|
---5--5----3--3----0--0----3-3-3-3-5-5-5-0--|

2nd TIME
      Em                    G
|--0--0-0-0-0-------3--3-3-3-3--3-3-3-------
|--0--0-0-0-0-------3--3-3-3-3--3-3-3-------
|--0--0-0-0-0-------4--4-4-4-4--4-4-4-------
|--2--2-2-2-2-------5--5-5-5-5--5-5-5-------
|--2--2-2-2-2--000--5--5-5-5-5--5-5-5-------
|--0--0-0-0-0--223--3--3-3-3-3--3-3-3-------
               *** 

      D       C     Em     Fm     Em
---7--7----5--5-----------------------------|
---7--7----5--5-----8-------10----8---------|
---7--7-.--5--5-.-----9--------11-9---------|
---7--7-.--5--5-.-----------------9---------|
---5--5----3--3----7----7/9-------7---------|
---5--5----3--3-----------------------------|




2nd VERSE
|---------------------------------------2--2--2--------
|--8:-8:-7:-7:-15:-10:-12--8:-8:-7:-7:---3--3----------
|--------------------------------------0--0--0---------
|------------------------------------------------------
|------------------------------------------------------
|------------------------------------------------------

-------------------------------------------------------
--12--13--12---10---8--88--88---10--1010--1010---7h8---
---------------------10--10--10---10----10----10-------
-------------------------------------------------------
-------------------------------------------------------
-------------------------------------------------------

-------------------------------------------------------
---8h99999999--12------13------15-13-12---9-11-11------
-----------------101110--111211---------9--------------
-------------------------------------------------------
-------------------------------------------------------
-------------------------------------------------------
-------------------------------------------------------

--------10--------9------0------0----12----------------|
--10------10-------8-------0----0------12--------------|
----6-------10---------------0--0--------12------------|
------6---------9-----0---------2----------------------|
--------------------------------2----------------------|
--------------------------------0----------------------| 




2nd CHORUS
      Em                    G
|--0--0-0-0-0-------3--3-3-3-3--3-3-3-------
|--0--0-0-0-0-------3--3-3-3-3--3-3-3-------
|--0--0-0-0-0-------4--4-4-4-4--4-4-4-------
|--2--2-2-2-2-------5--5-5-5-5--5-5-5-------
|--2--2-2-2-2--000--5--5-5-5-5--5-5-5-------
|--0--0-0-0-0--223--3--3-3-3-3--3-3-3-------
               ***

    D       C       Em        C     D  
---7--7----5--5----0--0------------------0--|
---7--7----5--5----0--0------------------0--|
---7--7-.--5--5-.--0--0-.--5-5-5-5-7-7-7-0--|
---7--7-.--5--5-.--2--2-.--5-5-5-5-7-7-7-0--|
---5--5----3--3----2--2----3-3-3-3-5-5-5-0--|
---5--5----3--3----0--0----3-3-3-3-5-5-5-0--|

2nd TIME
      Em                    G
|--0--0-0-0-0-------3--3-3-3-3--3-3-3-------
|--0--0-0-0-0-------3--3-3-3-3--3-3-3-------
|--0--0-0-0-0-------4--4-4-4-4--4-4-4-------
|--2--2-2-2-2-------5--5-5-5-5--5-5-5-------
|--2--2-2-2-2--000--5--5-5-5-5--5-5-5-------
|--0--0-0-0-0--223--3--3-3-3-3--3-3-3-------
               *** 

      D       C     Em     Fm     Em
---7--7----5--5-----------------------------|
---7--7----5--5-----8-------10----8---------|
---7--7-.--5--5-.-----9--------11-9---------|
---7--7-.--5--5-.-----------------9---------|
---5--5----3--3----7----7/9-------7---------|
---5--5----3--3-----------------------------|




BRIDGE
|----------------------------------------------
|----------------------------------------------
|----0-----0-----0----0-----0-----0------------
|------4-----4----------4-----4----------------
|----------------------------------------------
|--0-----0-----0----3-----3-----3--------------

-----------------------------------------------|
-----------------------------------------------|
-----0-----0-----0----0----0-------------------|
-------4-----4----------4----4-----------------|
-----------------------------------------------|
---0-----0-----0----5-----3--------------------|

During 5th time, play the first half, then this
|-------------------------------------------0--|
|-------------------------------------------0--|
|--4444666677779999-9999111111111212121214140--|
|--0000000000000000-xxxxxxxxxxxxxxxxxxxxxxxx0--|
|-------------------7777-9-9-9-91010101012120--|
|-------------------------------------------0--|




FINAL CHORUS
      Em                    G
|--0--0-0-0-0-------3--3-3-3-3--3-3-3-------
|--0--0-0-0-0-------3--3-3-3-3--3-3-3-------
|--0--0-0-0-0-------4--4-4-4-4--4-4-4-------
|--2--2-2-2-2-------5--5-5-5-5--5-5-5-------
|--2--2-2-2-2--000--5--5-5-5-5--5-5-5-------
|--0--0-0-0-0--223--3--3-3-3-3--3-3-3-------
               ***

    D       C       Em        C     D  
---7--7----5--5----0--0------------------0--|
---7--7----5--5----0--0------------------0--|
---7--7-.--5--5-.--0--0-.--5-5-5-5-7-7-7-0--|
---7--7-.--5--5-.--2--2-.--5-5-5-5-7-7-7-0--|
---5--5----3--3----2--2----3-3-3-3-5-5-5-0--|
---5--5----3--3----0--0----3-3-3-3-5-5-5-0--|

2nd TIME
      Em                    G
|--0--0-0-0-0-------3--3-3-3-3--3-3-3-------
|--0--0-0-0-0-------3--3-3-3-3--3-3-3-------
|--0--0-0-0-0-------4--4-4-4-4--4-4-4-------
|--2--2-2-2-2-------5--5-5-5-5--5-5-5-------
|--2--2-2-2-2--000--5--5-5-5-5--5-5-5-------
|--0--0-0-0-0--223--3--3-3-3-3--3-3-3-------
               ***

   D       C        Em           C       D    Em 
---7--7----5--5-----0--7------5--5-5--7--7-7--0--7--7-|
---7--7----5--5-----0---8-----5--5-5--7--7-7--0---8---|
---7--7-.--5--5-.---0----9----5--5-5--7--7-7--0----9--|
---7--7-.--5--5-.---2-----9---5--5-5--7--7-7--2-------|
---5--5----3--3-----2---------3--3-3--5--5-5--2-------|
---5--5----3--3-----0---------3--3-3--5--5-5--0-------|

          G                  D                         Em
|-------------------|--------------------------|-------------------|
|-------------------|--------------------------|-------------------|
|----0-----0--------|----0-----0---------------|----0----0---------|
|------4-----4---4--|------4-----4-------------|------4----4---4---|
|-------------------|--5-----5-----5/7---------|-------------------|
|--3-----3-----3----|--------------------------|--0-----0----0-----|


Thats it! Hope You Like It! Rate!!!!!!

8 comments total. Showing first comments.
0 reply
Deviluk wrote on September 12 2006, 07:11 pm

Lol, you forgot their biggest hit, Girls Not Grey.

0 reply
imburningstar4 wrote on September 12 2006, 07:16 pm

argh..i was very pleased to see another tab of this album...come to find out its only a bunch of tabs already on this website...most of them incorrect

0 reply
DownbëloW wrote on September 12 2006, 08:56 pm

drums, bass, vocals enter here. rhythm is off, chords sound weird but it's best I could do.

e-9--8--6-6---9--8--6-6---9--11-6-6---4-4-2-2/4--|
b-9--8--6-6---9--8--6-6---9--11-6-6---4-4-2-2/4--|
g-11-10-8-8---11-10-8-8---11-13-8-8---4-4-2-2/4--| x2
d-11-10-8-8---11-10-8-8---11-13-8-8---6-6-4-4/6--|
a-9--8--6-6---9--8--6-6---9--11-6-6---6-6-4-4/6--|
e-------------------------------------4-4-2-2/4--|

Davey speaks latin or whatever right here... pre-chorus
^
his work
First of all, the chords sound wierd because you're in the wrong tuning. Second of all, it's spanish, and third, this is downright wrong.

I want to post or [tab]
guest
You may want to rate the tab now too:
select rating
Please do not post tabs as comments. Select "correction" instead!