Oops, an error
Loading. Please wait.

Drifts Tab

ver2
ver2

Whole song

Interactive

More versions @911Tabs.com
5,764 views 3 this week
no commentswrite comment
1 2 3 4 5
excellent!
x 8
add to favorites launch autoscroll
font size
0
reset
Autoscroll
+/-
esc
set tempo
stop
Contributor
Difficulty
Tuning
advanced
D# G# C# F# A# D#
WARNING: You are trying to view
                                    content from Ultimate-Guitar.com
                                    in an unauthorized application,
                                    which is prohibited.

                                    Please use an official Ultimate
                                    Guitar Tabs application for iPhone,
                                    iPad or Android to access legitimate
                                    chords, guitar, bass, and drum tabs
                                    from Ultimate-Guitar.com database.

                                    Type "ultimate guitar tabs" in Apple
                                    App Store's or Android Market's
                                    search to find the application.
"Drifts"

BY: AFTER THE BURIAL

Transcribed by Joe Keller
jkguitar@comcast.net

Tabbed for playing on 8 string.

MY INSTRUCTIONAL VIDEO(played on 7)
http://www.youtube.com/watch?v=LAmKfUKWN7I

Please Do Not Copy without Permission.

THANKS AND ENJOY!


Tuning:

Ep
Bp
Gp
Dp
Ap
Ep
Bp
F

Key:
p = pull off
h = hammer on
* = A.H.
~ = vibrato
/ \ = slide up/down
^/v = bend up/down
s = speed pick

   INTRO

 GTR 1
|-------------------------------|
|-------------------------------|
|-------------------------------|
|-----10-----12---9-6---*6~-----|
|-7-7----7-7----7---------------|
|-------------------------------|
|-------------------------------|
|-------------------------------|

 GTR 2
|-------------------------------|
|-------------------------------|
|-----9-----11---7--------------|
|------------------9---*9~------|
|-7-7---7-7----7----------------|
|-------------------------------|
|-------------------------------|
|-------------------------------|

	VERSE 1

|-------------------------------------------------------------------------------|
|-------------------------------------------------------------------------------|
|-----5-----5---4---5---7-----5---4----11-----11---11------12-------12----12----|
|-----7-----7---7---7---7-----7---7----10-----10---10------9--------9-----9-----|
|-0-0-0-0-0-0-0-0-0-0-0-0-0-0-0-0-0-0--9--9-9-9--9-9--9-10-10-10-10-10-10-10-10-|
|-------------------------------------------------------------------------------|
|-------------------------------------------------------------------------------|
|-------------------------------------------------------------------------------|

 --------------------------------------------------------------------------------|
 --------------------------------------------------------------------------------|
 ----13-------13----13-------13-------13----13-----14-----14---12---14---12------|
 ----9--------9-----9--------12-------12----12-----10-----10---9----10---9-------|
 -11-11-11-11-11-11-11-11-11-11-11-11-11-11-11-0-0-0--0-0-0--0-0--0-0--0-0--0-0--|
 --------------------------------------------------------------------------------|
 --------------------------------------------------------------------------------|
 --------------------------------------------------------------------------------|

 --------------------------------------------------------------------------------|
 --------------------------------------------------------------------8-----------|
 -9---9---10-----10---9----10---12-----10-------10-----10---9---10---------10----|
 -7---7---10-----10---10---10---10-----10-------7------7----7---7----7-----7-----|
 -0-0-0-0-8--8-8-8--8-8--8-8--8-8--8-8-8--8-5-5-5--5-5-5--5-5-5-5--5-5-5-5-5--5--|
 --------------------------------------------------------------------------------|
 --------------------------------------------------------------------------------|
 --------------------------------------------------------------------------------|

 GTR 1
|--------------------------|
|--------------------------|
|--------------------------|
|-----10-----12---9-6~-----|
|-7-7----7-7----7----------|
|--------------------------|
|--------------------------|
|--------------------------|
                                    BACK TO VERSE 1
 GTR 2
|--------------------------|
|--------------------------|
|-----9-----11---7---------|
|------------------9~------|
|-7-7---7-7----7-----------|
|--------------------------|
|--------------------------|
|--------------------------|


|--------------------------------------------------------------------|
|--------------------------------------------------------------------|
|--------------------------------------------------------------------|
|-2------------------------------------------------------------------|
|-2-------------------------------2---2-2-2-2-2-2-2-2-2-2-2-2-2-2----|
|-0---0-0-0-0-0-0-0-0-0-0-0-0-0-0-0---0-0-0-0-0-0-0-0-0-0-0-0-0-0-5--|
|-----------------------------------------------------------------5--|
|-----------------------------------------------------------------3--|

 RYTHM GTR 1
|---------------------------------------12---12p10--------------------------|
|---------------------------10---10------------------10h12---13/12---8/10\8-|
|-----------9---------9-------------9-9----9-------9-------9-------9--------|
|-5/7-5-5/7---7-5-5/7---5/7----7--------------------------------------------|
|---------------------------------------------------------------------------|
|---------------------------------------------------------------------------|
|---------------------------------------------------------------------------|
|---------------------------------------------------------------------------|

 ---------------------------------------12---12p10-------------------15/17-|
 ---------------------------10---10------------------10h12---13/12---------|
 -----------9---------9-------------9-9----9-------9-------9-------9-------|
 -5/7-5-5/7---7-5-5/7---5/7----7-------------------------------------------|
 --------------------------------------------------------------------------|
 --------------------------------------------------------------------------|
 --------------------------------------------------------------------------|
 --------------------------------------------------------------------------|

 -----------------------------------------12---12p10--------------------------|
 -----------------------------10---10------------------10h12---13/12---8/10\8-|
 -------------9---------9-------------9-9----9-------9-------9-------9--------|
 -5-5/7-5-5/7---7-5-5/7---5/7----7--------------------------------------------|
 -----------------------------------------------------------------------------|
 -----------------------------------------------------------------------------|
 -----------------------------------------------------------------------------|
 -----------------------------------------------------------------------------|

 ---------------------------------------12---12p10--------------------------|
 ---------------------------10---10------------------10h12---13/12---8/10\8-|
 -----------9---------9-------------9-9----9-------9-------9-------9--------|
 -5/7-5-5/7---7-5-5/7---5/7----7--------------------------------------------|
 ---------------------------------------------------------------------------|
 ---------------------------------------------------------------------------|
 ---------------------------------------------------------------------------|
 ---------------------------------------------------------------------------|

 ---------------------------------17-15-17--|
 -12^--12~--12s-12^--h16p12v~-/17-----------|
 -------------------------------------------|
 -------------------------------------------|
 -------------------------------------------|
 -------------------------------------------|
 -------------------------------------------|
 -------------------------------------------|

 RYTHM GTR 2
[these are just the chords to be played]
|----------------------------------------------------------|
|----------------------------------------------------------|
|-9-----5-----12-----10-----9-----5-----12-----10-----9----|
|-6-----2-----9------7------6-----2-----9------7------6----|
|-7-----3-----10-----8------7-----3-----10-----8------7----|
|-----------------------------------------------------0----|
|----------------------------------------------------------|
|----------------------------------------------------------|

|------------------------------------------------|
|------------------------------------------------|
|------------------------------------------------|
|------------------------------------------------|
|-5^----------5^----------3^----------3^---------|
|------5^----------5^----------3^----------3^----|
|------------------------------------------------|
|----3----3------3----3------3----3------3----3--|

 GTR1 plays low octave note (2)&(4)  GTR2 plays high octave note (1)&(3)
 (1)  (2)  (3)  (4)
|--------------------|
|--------------------|
|--------------------|
|--------------------|
|--4^----------------|
|-----------6^-------|
|------2^------------|
|---------------4^---|

|----------------------------------------------------------------------------------------|
|----------------------------------------------------------------------------------------|
|----------------------------------------------------------------------------------------|
|----------------------------------------------------------------------------------------|
|----------------------------------------------------------------------------------------|
|----------------------------------------------------------------------------------------|
|----------------------------------------------------------------------------------------|
|-3^v---3^v---3^v---3^v-3^v-----3^v---3^v---3^v---3^v-3^v------3^v---3^v---3^v---3^v-3^v-|


 ----------------------------------------------------------------------------------------|
 ----------------------------------------------------------------------------------------|
 ----------------------------------------------------------------------------------------|
 ----------------------------------------------------------------------------------------|
 ----------------------------------------------------------------------------------------|
 -------6^v--------5^v-------------------------------------------------------------------|
 ----------------------------------------------------------------------------------------|
 -3^v--------4^v--------3^v------3^v---3^v---3^v---3^v-3^v-----3^v---3^v---3^v---3^v-3^v-|

					RYTHM GTR
 -----------------------------|------------------------------------------|
 -----------------------------|------------------------------------------|
 -----------------------------|------------------------------------------|
 -----------------------------|------------------------------------------|
 -----------------------------|------------------------------------------|
 -----------------------------|------------------------------------------|
 -----------------------------|------------5-5-5---5-5-5---5-5-5--5-5-5--|
 -3^v---3^v---3^v---3^v-3^v---|--3-3-//-\\-3-3-3---3-3-3---3-3-3--3-3-3--|


	SOLO

|----------------------------------------------------------------------------|
|------------------------------------------------------------/15-15p14-14~\--|
|----------------------------------------------------------------------------|
|---------------/11--^--/12-11-11\---/12p11\-/12p11\-/12p11\-----------------|
|-0-7-/12--12\---------------------------------------------------------------|
|----------------------------------------------------------------------------|
|----------------------------------------------------------------------------|
|----------------------------------------------------------------------------|

 --------------------------------------------------------------------12--12--12----------------|
 ----------------------12-14--------------------------------------14------------14-------------|
 ----------------14-12-------12^v-12\10-10/14-14\--------------14------------------14----------|
 ----------11-12--------------------------------------------14------------------------14-------|
 -10h14p10--------------------------------------------12h16------------------------------16p12-|
 ----------------------------------------------------------------------------------------------|
 ----------------------------------------------------------------------------------------------|
 ----------------------------------------------------------------------------------------------|

 -/14h15p14-13----------------------------------------------------------------|
 --------------15-14^-v--14p13h14h20p14p13h14p13h14h15p14p13h14h19p14p13~-14~-|
 -----------------------------------------------------------------------------|
 -----------------------------------------------------------------------------|
 -----------------------------------------------------------------------------|
 -----------------------------------------------------------------------------|
 -----------------------------------------------------------------------------|
 -----------------------------------------------------------------------------|

 -------------------------------------------------------------------------|
 -----13h14p13/10h13p10----10---------------------------------------------|
 -/14-------------------12----12-11-12-10-12-10---------------------------|
 -----------------------------------------------13-12-11^--v--h19p11~--\--|
 -------------------------------------------------------------------------|
 -------------------------------------------------------------------------|
 -------------------------------------------------------------------------|
 -------------------------------------------------------------------------|

 --------------------------------17-19-21\---------------------------------|
 -----------------------17-19-21-------------------------------------------|
 -14-----18-14/16-18-19--------------------------------12h13h15p13p12------|
 ----11/--------------------------------------11h12h14----------------13~--|
 --------------------------------------------------------------------------|
 --------------------------------------------------------------------------|
 --------------------------------------------------------------------------|
 --------------------------------------------------------------------------|

 ------------------------------------------------------|
 ----------------15h16h18p16p15------------------------|
 -------14h15h17----------------18-17~--/15-16-17-18~--|
 -14h16------------------------------------------------|
 ------------------------------------------------------|
 ------------------------------------------------------|
 ------------------------------------------------------|
 ------------------------------------------------------|

 -------------------------------------14-15-17-19-17-15-15-17-19-21-19-17-15-17-19-21--|
 -------------------14-15-17-19-17-15--------------------------------------------------|
 -14-15-17-19-17-15--------------------------------------------------------------------|
 --------------------------------------------------------------------------------------|
 --------------------------------------------------------------------------------------|
 --------------------------------------------------------------------------------------|
 --------------------------------------------------------------------------------------|
 --------------------------------------------------------------------------------------|

 -15-17-19-21p19h21p19p17p15h17h19h21h24p21h24p21p19p17p15h17h19h21h24p21h24p21p19p17-|
 -------------------------------------------------------------------------------------|
 -------------------------------------------------------------------------------------|
 -------------------------------------------------------------------------------------|
 -------------------------------------------------------------------------------------|
 -------------------------------------------------------------------------------------|
 -------------------------------------------------------------------------------------|
 -------------------------------------------------------------------------------------|

 -15h17h19h21p19h21p19p17p15h17h19h21h24p21h24p21p19p17p15h17h19h21h24p21h24p21p19p17p15-|
 ----------------------------------------------------------------------------------------|
 ----------------------------------------------------------------------------------------|
 ----------------------------------------------------------------------------------------|
 ----------------------------------------------------------------------------------------|
 ----------------------------------------------------------------------------------------|
 ----------------------------------------------------------------------------------------|
 ----------------------------------------------------------------------------------------|

|--------------------------------------------------------------------------------|
|--------------------------------------------------------------------------------|
|-5-----5-----5-----4-----5-----7-----5-----4-----11-----11-----11-----11-----12-|
|-7-----7-----7-----7-----7-----7-----7-----7-----10-----10-----10-----10-----9--|
|-0-00000-00000-00000-00000-00000-00000-00000-00009--99999--99999--99999--999910-|
|--------------------------------------------------------------------------------|
|--------------------------------------------------------------------------------|
|--------------------------------------------------------------------------------|

 ------------------------------------------------------------------------------|
 ------------------------------------------------------------------------------|
 ---------12---------12---------12---------13---------13---------13---------13-|
 ---------9----------9----------9----------9----------9----------9----------9--|
 -1010101010-1010101010-1010101010-1010101011-1111111111-1111111111-1111111111-|
 ------------------------------------------------------------------------------|
 ------------------------------------------------------------------------------|
 ------------------------------------------------------------------------------|

 --------------------------------------------------------------------------------------|
 --------------------------------------------------------------------------------------|
 ---------13----------13---------13---------13----------14-----14-----14-----12-----14-|
 ---------12----------12---------12---------12----------10-----10-----10-----9------10-|
 -1111111111-11111111111-1111111111-1111111111-1111111110--00000--00000--00000--00000--|
 --------------------------------------------------------------------------------------|
 --------------------------------------------------------------------------------------|
 --------------------------------------------------------------------------------------|

 ------------------------------------------------------------------------------------------|
 ------------------------------------------------------------------------------------------|
 -----12-----9-----9-----10-----10-----10/---------12/---------14/---------16\---------14\-|
 -----9------7-----7-----10-----10-----7-/---------9-/---------10/---------12\---------10\-|
 -00000--00000-00000-00008--88888--88888-/-1010101010/-1212121212/-1414141414\-1212121212\-|
 ------------------------------------------------------------------------------------------|
 ------------------------------------------------------------------------------------------|
 ------------------------------------------------------------------------------------------|

 ------------------------------------------------------------------------------------------------|
 ------------------------------------------------------------------------------------------------|
 ---------12\-----10-----10-----10/---------12/---------14/---------16\---------14\---------12\--|
 ---------9-\-----7------7------7-/---------9-/---------10/---------12\---------10\---------9-\--|
 -1010101010\-55555--55555--55555-/-1010101010/-1212121212/-1414141414\-1212121212\-1010101010\--|
 ------------------------------------------------------------------------------------------------|
 ------------------------------------------------------------------------------------------------|
 ------------------------------------------------------------------------------------------------|

 ---------------------------------------------------------------------|
 ---------------------------------------------------------------------|
 ---5-----5-----5-----4-----5-----4-----5-----4-----5-----4-----------|
 ---7-----7-----7-----7-----7-----7-----7-----7-----7-----7-----7-----|
 -0-0-0-0-0-0-0-0-0-0-0-0-0-0-0-0-0-0-0-0-0-0-0-0-0-0-0-0-0-0-0-0-0-0-|
 ---------------------------------------------------------------------|
 ---------------------------------------------------------------------|
 ---------------------------------------------------------------------|

 ----------------------------------------------------------------------------------------------|
 ----------------------------------------------------------------------------------------------|
 -------------------------------10-----10-----10/12----12/14----14/16----16\14----14\12----12\-|
 -------------------------------10-----10-----7-/9-----9-/10----10/12----12\10----10\9-----9-\-|
 -0-0-0-0-0-0-0-0-0-0-0-0-0-0-0-8--8-8-8--8-8-8-/10-10-10/12-12-12/14-14-14\12-12-12\10-10-10\-|
 ----------------------------------------------------------------------------------------------|
 ----------------------------------------------------------------------------------------------|
 ----------------------------------------------------------------------------------------------|

 -----------------------------------------------------------------------------------|
 -----------------------------------------------------------------------------------|
 ---10-----10-----10/12----12/14----14/16----16\14----14\12-12\---------------------|
 ---7------7------7-/9-----9-/10----10/12----12\10----10\9--9-\-2-------2/6---------|
 -5-5--5-5-5--5-5-5-/10-10-10/12-12-12/14-14-14\12-12-12\10-10\-2-------2/7---------|
 ---------------------------------------------------------------0-------0-0-----0---|
 -----------------------------------------------------------------------------------|
 -----------------------------------------------------------------------------------|

|---------------------------------------------------------------|
|---------------------------------------------------------------|
|---------------------------------------------------------------|
|---------------------------------------------------------------|
|---------------------------------------------------------------|
|-0-0--0-0--0-0-0-0-0-0-0-0--0-0--0-0-0-0--0-0--0-0-0-0-0-0-0-0-|
|---------------------------------------------------------------|
|---------------------------------------------------------------|

 ---------------------------------------------------|
 ---------------------------------------------------|
 ---------------------------------------------------|
 ---------------------------------------------------|
 ---------------------------------------------------|
 -0-0--0-0-0-0--0-0--0-0-0-0-0-0-0--0-0--0-0-0-0--0-|
 ---------------------------------------------------|
 ---------------------------------------------------|

  ----------0--|
  ----------0--|
  ----------0--|
  --2----------|
  --2---2---3--|
  --0---2---3--|
  ------0---1--|
  -------------|

|---------------------------------------------------------------|
|---------------------------------------------------------------|
|---------------------------------------------------------------|
|---------------------------------------------------------------|
|---------------------------------------------------------------|
|---------------------------------------------------------------|
|-0-0--0-0--0-0-0-0-0-0-0-0--0-0--0-0-0-0--0-0--0-0-0-0-0-0-0-0-|
|---------------------------------------------------------------|

 ---------------------------------------------------|
 ---------------------------------------------------|
 ---------------------------------------------------|
 ---------------------------------------------------|	x2
 ---------------------------------------------------|
 ---------------------------------------------------|
 -0-0--0-0-0-0--0-0--0-0-0-0-0-0-0--0-0--0-0-0-0--0-|
 ---------------------------------------------------|

|---------------------------------------------------------------|
|---------------------------------------------------------------|
|---------------------------------------------------------------|
|---------------------------------------------------------------|
|---------------------------------------------------------------|
|---------------------------------------------------------------|
|-0-0--0-0--0-0-0-0-0-0-0-0--0-0--0-0-0-0--0-0--0-0-0-0-0-0-0-0-|
|---------------------------------------------------------------|

 ---------------------------------------------------|
 ---------------------------------------------------|
 ---------------------------------------------------|
 ---------------------------------------------------|
 ---------------------------------------------------|
 ---------------------------------------------------|
 -0-0--0-0-0-0--0-0--0-0-0-0-0-0-0--0-0--1-1-1-1--1-|
 ---------------------------------------------------|

|---------------------------------------------------------------|
|---------------------------------------------------------------|
|---------------------------------------------------------------|
|---------------------------------------------------------------|
|---------------------------------------------------------------|
|---------------------------------------------------------------|
|-0-0--0-0--0-0-0-0-0-0-0-0--0-0--0-0-0-0--0-0--0-0-0-0-0-0-0-0-|
|---------------------------------------------------------------|

 --------------------------------------------------------------|
 --------------------------------------------------------------|
 --------------------------------------------------------------|
 --------------------------------------------------------------|
 --------------------------------------------------------------|
 --------------------------------------------------------------|
 -0-0--0-0-0-0--0-0--0-0-0-0-0-0-0--0-0--0-0-0-0--0--0-0---0-0-|
 --------------------------------------------------------------|
comments
print report bad tab
I want to post or [tab]
guest
You may want to rate the tab now too:
select rating
Please do not post tabs as comments. Select "correction" instead!