Oops, an error
Loading. Please wait.

To Carry You Away Tab

ver1
ver1

Whole song

Interactive

More versions @911Tabs.com
14,669 views 36 this week
7 commentsread comments
1 2 3 4 5
excellent!
x 6
Autoscroll
+/-
esc
set tempo
stop
Contributor
Difficulty
intermediate
WARNING: You are trying to view
                                    content from Ultimate-Guitar.com
                                    in an unauthorized application,
                                    which is prohibited.

                                    Please use an official Ultimate
                                    Guitar Tabs application for iPhone,
                                    iPad or Android to access legitimate
                                    chords, guitar, bass, and drum tabs
                                    from Ultimate-Guitar.com database.

                                    Type "ultimate guitar tabs" in Apple
                                    App Store's or Android Market's
                                    search to find the application.
After the Burial - To Carry You Away

Transcribed by Joe Keller
jkguitar@comcast.net
youtube.com/v8eatr


!VIDEO!
http://www.youtube.com/watch?v=t45y2mp7fzQ

Please Do Not Copy without Permission.

THANKS AND ENJOY!

Tuning (8 string)
Ep
Bp
Gp
Dp
Ap
Ep
Bp
Ep

Key:
p = pull off
h = hammer on
* = A.H.
~ = vibrato
/ \ = slide up/down
^/v = bend up/down
s = speed pick


*Will update this tab when I have more time


  [Intro chords]
Ep|------|------|
Bp|--7---|--7---|
Gp|--7---|--7---|
Dp|--9---|--7---|
Ap|--10--|--10--|
Ep|--8---|--7---|
Bp|------|------|
  |------|------|


|---------------------------------|
|---------------------------------|
|---------------------------------|
|---------------------------------|
|-------------------------2-2-2-2-|
|-----------------2-2-2-2-2-2-2-2-|
|-0-0-0-0-0-0-0-0-0-0-0-0-0-0-0-0-|
|---------------------------------|

-------------------------------------------------------------------------|
-------------------------------------------------------------------------|
-------------------------------------------------------------------------|
---12------12----12-9--------9---------12------12----12-9--------9-------|
-9-10------10----10-10-------10------9-10------10----10-10-------10------|
-8-8--8888-8--88-8--8---8888-8--8888-8-8--8888-8--88-8--8---8888-8--8888-|
-------------------------------------------------------------------------|
-------------------------------------------------------------------------|

Chorus

	[GTR 1]
|----------------------------------------------------------------------------|
|----------------------------------------------------------------------------|
|--------------------------------------------------------------------11^v----|
|------------------------------------------------------------99-1212------12-|
|-/9-10------10------9-10(10)-9^v-5-/9-10------------99-1010-----------------|
|-------0000----0000----------------------00-77-1010-------------------------|
|----------------------------------------------------------------------------|
|----------------------------------------------------------------------------|

	[GTR 2]
|----------------------------------------------------------------------------------|
|--------------------------------------------------------------------------14^v-11-|
|---------------------------------------------------------------------1111---------|
|-------------------------------------------------------------99-1212--------------|
|-/12-14------14------12-14(14)-12^v-9-/12-14---------99-1010----------------------|
|--------0000----0000-------------------------77-1010------------------------------|
|----------------------------------------------------------------------------------|
|----------------------------------------------------------------------------------|

________________________
	[GTR 1]
|------------------------------------------------------------------------|
|------------------------------------------------------------------------|
|-------------------------------------------------------9/10-9/10--------|
|------------------------------------------------------------------------|
|-/9-10------10------9-10(10)-9^v-5-/9-10---------------7/8--7/8------2--|
|-------0000----0000----------------------0-10-10-00000---------------2--|
|-----------------------------------------------------------------0-0-0--|
|------------------------------------------------------------------------|

	[GTR 2]
|-------------------------------------------------------------------------|
|-------------------------------------------------------------------------|
|---------------------------------------------------------9/10-9/10-------|
|-------------------------------------------------------------------------|
|-/12-14------14------12-14(14)-12^v-9-/12-14---9-9-------7/8--7/8------2-|
|--------0000----0000-------------------------0-----00000---------------2-|
|-------------------------------------------------------------------0-0-0-|
|-------------------------------------------------------------------------|

|---------------------------------------------------------------|
|---------------------------------------------------------------|
|---------------------------------------------------------------|
|---------------------------------------------------------------|
|---------------------------------------------------------------|
|---------------------------------------------------------------|
|-000000000000--0-0000--0-0000--0-0000000000--0-0000--0-0000--0-|
|---------------------------------------------------------------|

|--------------------------------------------------------------------|
|--------------------------------------------------------------------|
|--------------------------------------------------------------------|
|--------------------------------------------------------------------|
|--------------------------------------------------------------------|
|--------------------------------------------------------------------|
|--------------------------------------------------------------------|
|-00-00-00-xx-00-00-00-xx-00-00-00-xx-00-00-00-xx-00-00-00-00-00-xx--|

 --------------------------------------------------------------------|
 --------------------------------------------------------------------|
 --------------------------------------------------------------------|
 --------------------------------------------------------------------|
 --------------------------------------------------------------------|
 --------------------------------------------------------------------|
 --------------------------------------------------------------------|
 -00-00-00-xx-00-00-00-xx-00-00-00-xx-00-00-00-00-00-xx-00-00-00-xx--|

 ----------------------------------------------------|
 ----------------------------------------------------|
 ----------------------------------------------------|
 ----------------------------------------------------|
 ----------------------------------------------------|
 ----------------------------------------------------|
 ----------------------------------------------------|
 -00-00-00-xx-00-00-00-xx---00-00-00-xx-00-00-00-00--|

  Clean
	   Fade in
 |-------|-------|
 |--7----|---0---|
 |--7----|---0---|
 |--9----|---2---|
 |--10---|---3---|
 |--8----|---3---|
 |-------|---1---|
 |-------|-------|


Solo Section

	[Background arpeggios]

|---------------0------------------------0----------|
|-------------0---0--------------------0---0--------|
|-----------0-------0----------------0-------0------|
|---------2-----------2------------2-----------2----|
|-------3---------------3--------3---------------3--|
|-----3------------------------3--------------------|
|-1-1----------------------1-1----------------------|
|---------------------------------------------------|

 ----------------0-------------------------0---------|
 --------------0---0---------------------0-----------|
 ------------0-------0-----------------0-------0-----|
 ----------2-----------2-------------2-----------2---|
 --------2---------------2---------2---------------2-|
 -0-0--0--------------------0-0--0-------------------|
 ----------------------------------------------------|
 ----------------------------------------------------|

[Solo]

|----------5h8p5-------5h8p5-------3h5p3-------3h5p3-------3h5p3---|
|--------6-------6---6-------6---6-------6---6-------6---6-------6-|
|------5-----------5-----------5-----------5-----------5-----------|
|----7-------------------------------------------------------------|
|-/8---------------------------------------------------------------|
|------------------------------------------------------------------|
|------------------------------------------------------------------|
|------------------------------------------------------------------|

 -----5h8p5-------5h8p5-------3h5p3-------3h5p3-------5h8p5-----|
 ---6-------6---6-------6---6-------6---6-------6---6-------6---|
 -5-----------5-----------5-----------5-----------5-----------5-|
 ---------------------------------------------------------------|
 ---------------------------------------------------------------|
 ---------------------------------------------------------------|
 ---------------------------------------------------------------|
 ---------------------------------------------------------------|

 --------10h14p10----------------------10h14p10----------10h14p10-------------|
 -----12----------12----------------12----------12----12----------12----------|
 -/11----------------11----------11----------------11----------------11-------|
 -----------------------12----12----------------------------------------12----|
 --------------------------14----------------------------------------------14-|
 -----------------------------------------------------------------------------|
 -----------------------------------------------------------------------------|
 -----------------------------------------------------------------------------|

 ----------10h14p10----------10h14p10----------------------10h14p10-------------|
 -------12----------12----12----------12----------------12----------12----------|
 ----11----------------11----------------11----------11----------------11-------|
 -12----------------------------------------12----12----------------------12----|
 ----------------------------------------------14----------------------------14-|
 -------------------------------------------------------------------------------|
 -------------------------------------------------------------------------------|
 -------------------------------------------------------------------------------|

 ----------10h14p10----------10h14p10----------------------10h14p10----------|
 -------12----------12----12----------12----------------12----------12----12-|
 ----11----------------11----------------11----------11----------------11----|
 -12----------------------------------------12----12-------------------------|
 ----------------------------------------------14----------------------------|
 ----------------------------------------------------------------------------|
 ----------------------------------------------------------------------------|
 ----------------------------------------------------------------------------|

 -10h14p10--------------------------12h15p12----------12h15p12----------10h15p10----|
 ----------12--------------------13----------13----13----------13----13----------13-|
 -------------11--------------12----------------12----------------12----------------|
 ----------------12--------14-------------------------------------------------------|
 -------------------14-/15----------------------------------------------------------|
 -----------------------------------------------------------------------------------|
 -----------------------------------------------------------------------------------|
 -----------------------------------------------------------------------------------|

 -------10h15p10----------10h15p10----------12h15p12----------12h15p12----------|
 ----13----------13----13----------13----13----------13----13----------13----13-|
 -12----------------12----------------12----------------12----------------12----|
 -------------------------------------------------------------------------------|
 -------------------------------------------------------------------------------|
 -------------------------------------------------------------------------------|
 -------------------------------------------------------------------------------|
 -------------------------------------------------------------------------------|

 -10h15p10----------10h15p10----------12h15p12--------------15h19p15-------------|
 ----------13----13----------13----13----------13--------17----------17----------|
 -------------12----------------12----------------12-/16----------------16-------|
 --------------------------------------------------------------------------17----|
 -----------------------------------------------------------------------------19-|
 --------------------------------------------------------------------------------|
 --------------------------------------------------------------------------------|
 --------------------------------------------------------------------------------|

 ----------15h19p15----------15h19h24p19p15----------------------15h19p15-------|
 -------17----------17----17----------------17----------------17----------17----|
 ----16----------------16----------------------16----------16----------------16-|
 -17----------------------------------------------17----17----------------------|
 ----------------------------------------------------19-------------------------|
 -------------------------------------------------------------------------------|
 -------------------------------------------------------------------------------|
 -------------------------------------------------------------------------------|

 ----15h19h22p19p15----------------------15h19p15----------------------15h19p15-------|
 -17----------------17----------------17----------17----------------17----------17----|
 ----------------------16----------16----------------16----------16----------------16-|
 -------------------------17----17----------------------17----17----------------------|
 ----------------------------19----------------------------19-------------------------|
 -------------------------------------------------------------------------------------|
 -------------------------------------------------------------------------------------|
 -------------------------------------------------------------------------------------|

 ----15h19h24p19p15----------------------15h19p15----------15h19h22p19p15--------------|
 -17----------------17----------------17----------17----17----------------17-----------|
 ----------------------16----------16----------------16----------------------16--------|
 -------------------------17----17----------------------------------------------17-----|
 ----------------------------19----------------------------------------------------19\-|
 --------------------------------------------------------------------------------------|
 --------------------------------------------------------------------------------------|
 --------------------------------------------------------------------------------------|

|--------------------------------------------------------------------------------|
|--------------------------------------------------------------------------------|
|-----------------------------------------------------------------------11-11-11-|
|-----------------------------------------------------------------------9--9--9--|
|-9-9-9----9-9----7----7----7----9--------------------------------------7--7--7--|
|-7-7-7-77-7-7-77-7-77-7-77-7-77-7-77-9-9-9----10-10----9-9----10-10-10----------|
|-------------------------------------8-8-8-88-8--8--88-8-8-88-8--8--8-----------|
|--------------------------------------------------------------------------------|

 ----------------------------------------------------------------------|
 ----------------------------------------------------------------------|
 ----11-11----11---11----11----11--------------------------------------|
 ----9--9-----7----7-----7-----9-------------12-12------------9--9--9--|
 -77-7--7--77-7-77-7--77-7--77-7--9-10-10----10-10----9-10----10-10-10-|
 ---------------------------------8-8--8--88-8--8--88-8-8--88-8--8--8--|
 ----------------------------------------------------------------------|
 ----------------------------------------------------------------------|

Then Back to Chorus.
comments
print report bad tab
7 comments total. Showing first comments.
+1 reply
mfreipics wrote on February 5 2011, 12:40 pm

good job! only now need on gp5

0 reply
Sam Rulez D00d wrote on March 23 2011, 04:37 pm

^i 2nd that

+1 reply
mgasparotto wrote on October 26 2011, 07:16 pm

Finish it all please

I want to post or [tab]
guest
You may want to rate the tab now too:
select rating
Please do not post tabs as comments. Select "correction" instead!