Oops, an error
Loading. Please wait.

Borne On The Fm Waves Of The Heart Tab

ver2
ver2

Whole song

Interactive

More versions @911Tabs.com
21,873 views 33 this week
5 commentsread comments
1 2 3 4 5
excellent!
x 9
Autoscroll
+/-
esc
set tempo
stop
Contributor
Difficulty
intermediate
Hey! There's an official Ultimate Guitar app which is ideal
for learning songs when you're away from computer. Get the app
WARNING: You are trying to view
                                    content from Ultimate-Guitar.com
                                    in an unauthorized application,
                                    which is prohibited.

                                    Please use an official Ultimate
                                    Guitar Tabs application for iPhone,
                                    iPad or Android to access legitimate
                                    chords, guitar, bass, and drum tabs
                                    from Ultimate-Guitar.com database.

                                    Type "ultimate guitar tabs" in Apple
                                    App Store's or Android Market's
                                    search to find the application.
------------------------------------------------
Borne on the FM Waves of the Heart by Against Me
------------------------------------------------
Tabbed by: Joe K.
Email: joeshmoe2220@gmail.com

This song's not too bad.  It gets a bit stretchy in a few parts like, among
others, the third measure of Verse 1.  If you are having a hard time with these
sections only worry about the notes on the lower two strings.  So, in the Verse 1
example, don't bother with the note on the 6th fret of the G string.  Other than
that, note that the strumming pattern varies a bit after Verse 3.  Have fun and good luck.

Intro:
  E5                               E5
e|--------------------------------|--------------------------------|
B|--------------------------------|--------------------------------|
G|9-9-9-9-9-9-9-9-9-9-9-9-9-9-9-9-|9-9-9-9-9-9-9-9-9-9-9-9-9-9-9-9-|
D|9-9-9-9-9-9-9-9-9-9-9-9-9-9-9-9-|9-9-9-9-9-9-9-9-9-9-9-9-9-9-9-9-|
A|7-7-7-7-7-7-7-7-7-7-7-7-7-7-7-7-|7-7-7-7-7-7-7-7-7-7-7-7-7-7-7-7-|
E|--------------------------------|--------------------------------|


Verse 1:
  E5                               C#5           B5 C#5          B5
e|--------------------------------|--------------------------------| \
B|--------------------------------|--------------------------------|  |
G|9-9-9-9-9-9-9-9-9-9-9-9-9-9-9-9-|6-6-6-6-6-6-6-4-6-6-6-6-6-6-6-4-|  |
D|9-9-9-9-9-9-9-9-9-9-9-9-9-9-9-9-|6-6-6-6-6-6-6-4-6-6-6-6-6-6-6-4-|  |
A|7-7-7-7-7-7-7-7-7-7-7-7-7-7-7-7-|4-4-4-4-4-4-4-2-4-4-4-4-4-4-4-2-|  |
E|--------------------------------|--------------------------------|  |
                                                                      |
  C#m   C#sus4    C#5              A                                  |
e|--------------------------------|0-0-0-0-0-0-0-0-0-0-0-0-0-0-0-0-|  |
B|--------------------------------|2-2-2-2-2-2-2-2-2-2-2-2-2-2-2-2-|  |
G|6-6-6-6-6-6-6-6-6-6-6-6-6-6-6-6-|2-2-2-2-2-2-2-2-2-2-2-2-2-2-2-2-|  |
D|2-2-2-2-4-4-4-4-6-6-6-6-6-6-6-6-|2-2-2-2-2-2-2-2-2-2-2-2-2-2-2-2-|  |
A|4-4-4-4-4-4-4-4-4-4-4-4-4-4-4-4-|0-0-0-0-0-0-0-0-0-0-0-0-0-0-0-0-|  |
E|--------------------------------|--------------------------------| /  x2


Interlude:
  E5    Esus4     E     Esus2      C#5           B5 C#5          B5
e|--------------------------------|--------------------------------|
B|--------------------------------|--------------------------------|
G|9-9-9-9-9-9-9-9-9-9-9-9-9-9-9-9-|6-6-6-6-6-6-6-4-6-6-6-6-6-6-6-4-|
D|9-9-9-7-7-7-7-7-6-6-6-4-4-4-4-4-|6-6-6-6-6-6-6-4-6-6-6-6-6-6-6-4-|
A|7-7-7-7-7-7-7-7-7-7-7-7-7-7-7-7-|4-4-4-4-4-4-4-2-4-4-4-4-4-4-4-2-|
E|--------------------------------|--------------------------------|

  C#5  C#sus4     C#m   C#sus2     A
e|--------------------------------|0-0-0-0-0-0-0-0-0-0-0-0-0-0-0-0-|
B|--------------------------------|2-2-2-2-2-2-2-2-2-2-2-2-2-2-2-2-|
G|6-6-6-6-6-6-6-6-6-6-6-6-6-6-6-6-|2-2-2-2-2-2-2-2-2-2-2-2-2-2-2-2-|
D|6-6-6-4-4-4-4-4-2-2-2-1-1-1-1-1-|2-2-2-2-2-2-2-2-2-2-2-2-2-2-2-2-|
A|4-4-4-4-4-4-4-4-4-4-4-4-4-4-4-4-|0-0-0-0-0-0-0-0-0-0-0-0-0-0-0-0-|
E|--------------------------------|--------------------------------|

Verse 2:
  E5                               C#5           B5 C#5          B5
e|--------------------------------|--------------------------------|
B|--------------------------------|--------------------------------|
G|9-9-9-9-9-9-9-9-9-9-9-9-9-9-9-9-|6-6-6-6-6-6-6-4-6-6-6-6-6-6-6-4-|
D|9-9-9-9-9-9-9-9-9-9-9-9-9-9-9-9-|6-6-6-6-6-6-6-4-6-6-6-6-6-6-6-4-|
A|7-7-7-7-7-7-7-7-7-7-7-7-7-7-7-7-|4-4-4-4-4-4-4-2-4-4-4-4-4-4-4-2-|
E|--------------------------------|--------------------------------|

  C#m     C#sus4  C#5              A
e|--------------------------------|0-0-0-0-0-0-0-0-0-0-0-0-0-0-0-0-|
B|--------------------------------|2-2-2-2-2-2-2-2-2-2-2-2-2-2-2-2-|
G|6-6-6-6-6-6-6-6-6-6-6-6-6-6-6-6-|2-2-2-2-2-2-2-2-2-2-2-2-2-2-2-2-|
D|2-2-2-2-4-4-4-4-6-6-6-6-6-6-6-6-|2-2-2-2-2-2-2-2-2-2-2-2-2-2-2-2-|
A|4-4-4-4-4-4-4-4-4-4-4-4-4-4-4-4-|0-0-0-0-0-0-0-0-0-0-0-0-0-0-0-0-|
E|--------------------------------|--------------------------------|

  E5                               C#5           B5 C#5          B5
e|--------------------------------|--------------------------------|
B|--------------------------------|--------------------------------|
G|9-9-9-9-9-9-9-9-9-9-9-9-9-9-9-9-|6-6-6-6-6-6-6-4-6-6-6-6-6-6-6-4-|
D|9-9-9-9-9-9-9-9-9-9-9-9-9-9-9-9-|6-6-6-6-6-6-6-4-6-6-6-6-6-6-6-4-|
A|7-7-7-7-7-7-7-7-7-7-7-7-7-7-7-7-|4-4-4-4-4-4-4-2-4-4-4-4-4-4-4-2-|
E|--------------------------------|--------------------------------|

  C#m     C#sus4  C#5              A                         E5  B5
e|--------------------------------|0-0-0-0-0-0-0-0-0-0-0-0-0-------|
B|--------------------------------|2-2-2-2-2-2-2-2-2-2-2-2-2-------|
G|6-6-6-6-6-6-6-6-6-6-6-6-6-6-6-6-|2-2-2-2-2-2-2-2-2-2-2-2-2-9-9---|
D|2-2-2-2-4-4-4-4-6-6-6-6-6-6-6-6-|2-2-2-2-2-2-2-2-2-2-2-2-2-9-9-9-|
A|4-4-4-4-4-4-4-4-4-4-4-4-4-4-4-4-|0-0-0-0-0-0-0-0-0-0-0-0-0-7-7-9-|
E|--------------------------------|------------------------------7-|


Chorus:

Lead:
e|--------------------------------|--------------------------------| \
B|12----12----12--12----12----12--|13----13----13--10----10----10--|  |
G|--11----11----11--11----11----11|--14----14----14--9-----9-----9-|  |
D|----13----13--------13----13----|----15----15--------11----11----|  |
A|--------------------------------|--------------------------------|  |
E|--------------------------------|--------------------------------|  |
                                                                      |
Rhythm:                                                               |
  B5                               C#5             A         E5  B5   | 
e|--------------------------------|----------------0-0-0-0-0-------|  |  
A|--------------------------------|----------------2-2-2-2-2-------|  |
D|--------------------------------|6-6-6-6-6-6-6-6-2-2-2-2-2-9-9---|  |
G|9-9-9-9-9-9-9-9-9-9-9-9-9-9-9-9-|6-6-6-6-6-6-6-6-2-2-2-2-2-9-9-9-|  |
B|9-9-9-9-9-9-9-9-9-9-9-9-9-9-9-9-|4-4-4-4-4-4-4-4-0-0-0-0-0-7-7-9-|  |
E|7-7-7-7-7-7-7-7-7-7-7-7-7-7-7-7-|------------------------------7-| /  x2

Lead:
e|--------------------------------|--------------------------------|
B|12----12----12--12----12----12--|12----12----12--10----10----10--|
G|--11----11----11--11----11----11|--13----13----13--9-----9-----9-|
D|----13----13--------13----13----|----14----14--------11----11----|
A|--------------------------------|--------------------------------|
E|--------------------------------|--------------------------------|

Rhythm:
  B5                               C#5             A
e|--------------------------------|----------------0-0-0-0-0-0-0-0-|
A|--------------------------------|----------------2-2-2-2-2-2-2-2-|
D|--------------------------------|6-6-6-6-6-6-6-6-2-2-2-2-2-2-2-2-|
G|9-9-9-9-9-9-9-9-9-9-9-9-9-9-9-9-|6-6-6-6-6-6-6-6-2-2-2-2-2-2-2-2-|
B|9-9-9-9-9-9-9-9-9-9-9-9-9-9-9-9-|4-4-4-4-4-4-4-4-0-0-0-0-0-0-0-0-|
E|7-7-7-7-7-7-7-7-7-7-7-7-7-7-7-7-|--------------------------------|

Both:
  B5                               A
e|--------------------------------|0-0-0-0-0-0-0-0-0-0-0-0-0-0-0-0-|
B|--------------------------------|2-2-2-2-2-2-2-2-2-2-2-2-2-2-2-2-|
G|--------------------------------|2-2-2-2-2-2-2-2-2-2-2-2-2-2-2-2-|
D|--------------------------------|2-2-2-2-2-2-2-2-2-2-2-2-2-2-2-2-|
A|9-9-9-9-111111111212121212121212|0-0-0-0-0-0-0-0-0-0-0-0-0-0-0-0-|
E|7-7-7-7-7-7-7-7-7-7-7-7-7-7-7-7-|--------------------------------|

Verse 3:
  E5                               C#5           B5 C#5          B5
e|--------------------------------|--------------------------------|
B|--------------------------------|--------------------------------|
G|9-9-9-9-9-9-9-9-9--99-9--99-9-9-|6--66-6--66-6-4-6--66-6--66-6-4-|
D|9-9-9-9-9-9-9-9-9--99-9--99-9-9-|6--66-6--66-6-4-6--66-6--66-6-4-|
A|7-7-7-7-7-7-7-7-7--77-7--77-7-7-|4--44-4--64-4-2-4--44-4--44-4-2-|
E|--------------------------------|--------------------------------|

  C#m   C#sus4    C#5              A
e|--------------------------------|0--00-0--00-0-0-0--00-0--00-0-0-|
B|--------------------------------|2--22-2--22-2-2-2--22-2--22-2-2-|
G|6--66-6--66-6-6-6--66-6--66-6-6-|2--22-2--22-2-2-2--22-2--22-2-2-|
D|2--22-4--44-4-4-6--66-6--66-6-6-|2--22-2--22-2-2-2--22-2--22-2-2-|
A|4--44-4--44-4-4-4--44-4--44-4-4-|0--00-0--00-0-0-0--00-0--00-0-0-|
E|--------------------------------|--------------------------------|

  E5                               C#5           B5 C#5          B5
e|--------------------------------|--------------------------------|
B|--------------------------------|--------------------------------|
G|9--99-9--99-9-9-9--99-9--99-9-9-|6--66-6--66-6-4-6--66-6--66-6-4-|
D|9--99-9--99-9-9-9--99-9--99-9-9-|6--66-6--66-6-4-6--66-6--66-6-4-|
A|7--77-7--77-7-7-7--77-7--77-7-7-|4--44-4--44-4-2-4--44-4--44-4-2-|
E|--------------------------------|--------------------------------|

  C#m   C#sus4    C#5              A                         E5  B5
e|--------------------------------|0--00-0--00-0-0-0--00-0---------|
B|--------------------------------|2--22-2--22-2-2-2--22-2---------|
G|6--66-6--66-6-6-6--66-6--66-6-6-|2--22-2--22-2-2-2--22-2---9-9---|
D|2--22-4--44-4-4-6--66-6--66-6-6-|2--22-2--22-2-2-2--22-2---9-9-9-|
A|4--44-4--44-4-4-4--44-4--44-4-4-|0--00-0--00-0-0-0--00-0---7-7-9-|
E|--------------------------------|------------------------------7-|

Chorus:

Lead:
e|--------------------------------|--------------------------------| \
B|12----12----12--12----12----12--|12----12----12--10----10----10--|  |
G|--11----11----11--11----11----11|--13----13----13--9-----9-----9-|  |
D|----13----13--------13----13----|----14----14--------11----11----|  |
A|--------------------------------|--------------------------------|  |
E|--------------------------------|--------------------------------|  |
                                                                      |
Rhythm:                                                               |
  B5                               C#5             A         E5  B5   |
e|--------------------------------|----------------0-0-0-0-0-------|  |
A|--------------------------------|----------------2-2-2-2-2-------|  |
D|--------------------------------|6-6-6-6-6-6-6-6-2-2-2-2-2-9-9---|  |
G|9-9-9-9-9-9-9-9-9-9-9-9-9-9-9-9-|6-6-6-6-6-6-6-6-2-2-2-2-2-9-9-9-|  |
B|9-9-9-9-9-9-9-9-9-9-9-9-9-9-9-9-|4-4-4-4-4-4-4-4-0-0-0-0-0-7-7-9-|  |
E|7-7-7-7-7-7-7-7-7-7-7-7-7-7-7-7-|------------------------------7-| /  x2

Lead:
e|--------------------------------|--------------------------------|
B|12----12----12--12----12----12--|12----12----12--10----10----10--|
G|--11----11----11--11----11----11|--13----13----13--9-----9-----9-|
D|----13----13--------13----13----|----14----14--------11----11----|
A|--------------------------------|--------------------------------|
E|--------------------------------|--------------------------------|

Rhythm:
  B5                               C#5             A
e|--------------------------------|----------------0-0-0-0-0-0-0-0-|
A|--------------------------------|----------------2-2-2-2-2-2-2-2-|
D|--------------------------------|6-6-6-6-6-6-6-6-2-2-2-2-2-2-2-2-|
G|9-9-9-9-9-9-9-9-9-9-9-9-9-9-9-9-|6-6-6-6-6-6-6-6-2-2-2-2-2-2-2-2-|
B|9-9-9-9-9-9-9-9-9-9-9-9-9-9-9-9-|4-4-4-4-4-4-4-4-0-0-0-0-0-0-0-0-|
E|7-7-7-7-7-7-7-7-7-7-7-7-7-7-7-7-|--------------------------------|

Both:
  B5                               A
e|--------------------------------|0-0-0-0-0-0-0-0-0-0-0-0-0-0-0-0-|
B|--------------------------------|2-2-2-2-2-2-2-2-2-2-2-2-2-2-2-2-|
G|--------------------------------|2-2-2-2-2-2-2-2-2-2-2-2-2-2-2-2-|
D|--------------------------------|2-2-2-2-2-2-2-2-2-2-2-2-2-2-2-2-|
A|9-9-9-9-111111111212121212121212|0-0-0-0-0-0-0-0-0-0-0-0-0-0-0-0-|
E|7-7-7-7-7-7-7-7-7-7-7-7-7-7-7-7-|--------------------------------|

Interlude:
  E5    Esus4     E     Esus2      C#5           B5 C#5          B5
e|--------------------------------|--------------------------------| \
B|--------------------------------|--------------------------------|  |
G|9-9-9-9-9-9-9-9-9-9-9-9-9-9-9-9-|6-666-6-666-6-4-6-666-6-666-6-4-|  |
D|9-9-9-7-7-7-7-7-6-6-6-4-4-4-4-4-|6-666-6-666-6-4-6-666-6-666-6-4-|  |
A|7-7-7-7-7-7-7-7-7-7-7-7-7-7-7-7-|4-444-4-444-4-2-4-644-4-444-4-2-|  |
E|--------------------------------|--------------------------------|  |
                                                                      |
  C#5  C#sus4     C#m   C#sus2     A                                  |
e|--------------------------------|0-000-0-000-0-0-0-000-0-000-0-0-|  |
B|--------------------------------|2-222-2-222-2-2-2-222-2-222-2-2-|  |
G|6-6-6-6-6-6-6-6-6-6-6-6-6-6-6-6-|2-222-2-222-2-2-2-222-2-222-2-2-|  |
D|6-6-6-4-4-4-4-4-2-2-2-1-1-1-1-1-|2-222-2-222-2-2-2-222-2-222-2-2-|  |
A|4-4-4-4-4-4-4-4-4-4-4-4-4-4-4-4-|0-000-0-000-0-0-0-000-0-000-0-0-|  |
E|--------------------------------|--------------------------------| /  x2

Chorus:

Lead:
e|--------------------------------|--------------------------------| \
B|12----12----12--12----12----12--|12----12----12--10----10----10--|  |
G|--11----11----11--11----11----11|--13----13----13--9-----9-----9-|  |
D|----13----13--------13----13----|----14----14--------11----11----|  |
A|--------------------------------|--------------------------------|  |
E|--------------------------------|--------------------------------|  |
                                                                      |
Rhythm:                                                               |
  B5                               C#5             A         E5  B5   |
e|--------------------------------|----------------0-0-0-0-0-------|  |
A|--------------------------------|----------------2-2-2-2-2-------|  |
D|--------------------------------|6-6-6-6-6-6-6-6-2-2-2-2-2-9-9---|  |
G|9-9-9-9-9-9-9-9-9-9-9-9-9-9-9-9-|6-6-6-6-6-6-6-6-2-2-2-2-2-9-9-9-|  |
B|9-9-9-9-9-9-9-9-9-9-9-9-9-9-9-9-|4-4-4-4-4-4-4-4-0-0-0-0-0-7-7-9-|  |
E|7-7-7-7-7-7-7-7-7-7-7-7-7-7-7-7-|------------------------------7-| /  x2

Lead:
e|--------------------------------|--------------------------------|
B|12----12----12--12----12----12--|12----12----12--10----10----10--|
G|--11----11----11--11----11----11|--13----13----13--9-----9-----9-|
D|----13----13--------13----13----|----14----14--------11----11----|
A|--------------------------------|--------------------------------|
E|--------------------------------|--------------------------------|

Rhythm:
  B5                               C#5             A
e|--------------------------------|----------------0-0-0-0-0-0-0-0-|
A|--------------------------------|----------------2-2-2-2-2-2-2-2-|
D|--------------------------------|6-6-6-6-6-6-6-6-2-2-2-2-2-2-2-2-|
G|9-9-9-9-9-9-9-9-9-9-9-9-9-9-9-9-|6-6-6-6-6-6-6-6-2-2-2-2-2-2-2-2-|
B|9-9-9-9-9-9-9-9-9-9-9-9-9-9-9-9-|4-4-4-4-4-4-4-4-0-0-0-0-0-0-0-0-|
E|7-7-7-7-7-7-7-7-7-7-7-7-7-7-7-7-|--------------------------------|

Both:
  B5                               B5
e|--------------------------------|--------------------------------|
B|--------------------------------|--------------------------------|
G|--------------------------------|--------------------------------|
D|--------------------------------|--------------------------------|
A|9-9-9-9-111111111212121212121212|9-9-9-9-111111111212121212121212|
E|7-7-7-7-7-7-7-7-7-7-7-7-7-7-7-7-|7-7-7-7-7-7-7-7-7-7-7-7-7-7-7-7-|

  B5                               A
e|--------------------------------|0
B|--------------------------------|2
G|--------------------------------|2   Let Ring
D|--------------------------------|2
A|9-9-9-9-111111111212121212121212|0
E|7-7-7-7-7-7-7-7-7-7-7-7-7-7-7-7-|-
comments
print report bad tab
5 comments total. Showing first comments.
+1 reply
cono the guitar wrote on October 21 2008, 11:42 pm

sketchy? More like ****in sweet! Good tab by the way it's dead on

+2 reply
Erik_Aero wrote on November 6 2008, 09:32 pm

I think it's two guitars in the verse.

0 reply
mazurek wrote on November 21 2008, 11:59 am

banging

I want to post or [tab]
guest
You may want to rate the tab now too:
select rating
Please do not post tabs as comments. Select "correction" instead!