Oops, an error
Loading. Please wait.

Dont Lose Touch Tab

ver1
ver1

Whole song

Interactive

More versions @911Tabs.com
17,910 views 24 this week
3 commentsread comments
1 2 3 4 5
excellent!
x 9
add to favorites launch autoscroll
font size
0
reset
Autoscroll
+/-
esc
set tempo
stop
Contributor
WARNING: You are trying to view
                                    content from Ultimate-Guitar.com
                                    in an unauthorized application,
                                    which is prohibited.

                                    Please use an official Ultimate
                                    Guitar Tabs application for iPhone,
                                    iPad or Android to access legitimate
                                    chords, guitar, bass, and drum tabs
                                    from Ultimate-Guitar.com database.

                                    Type "ultimate guitar tabs" in Apple
                                    App Store's or Android Market's
                                    search to find the application.
Song: Don't Lose Touch
Written by: Against Me!
Album: Searching For a Former Clarity
Guitars: distorted
Tuning: standard (EADGBE)
Tabbed by: Milo

Intro: 
2 bars of bass then this:

    D (on the offbeat)
 |-x---x---x---x---x---x---x-------|
 |-x---x---x---x---x---x---x-------|
 |-x-7-x-7-x-7-x-7-x-7-x-7-x-7-7\6-|
 |-x-7-x-7-x-7-x-7-x-7-x-7-x-7-7\6-| x2
 |-x-5-x-5-x-5-x-5-x-5-x-5-x-5-5\4-|
 |-x---x---x---x---x---x---x-------|

Verse 1:

    D
 |-x---x---x---x---x---x---x-------|
 |-x---x---x---x---x---x---x-------|
 |-x-7-x-7-x-7-x-7-x-7-x-7-x-7-7\6-|
 |-x-7-x-7-x-7-x-7-x-7-x-7-x-7-7\6-|
 |-x-5-x-5-x-5-x-5-x-5-x-5-x-5-5\4-|
 |-x---x---x---x---x---x---x-------|
You're coming off kind of contrived and pretentious


 |-x---x---x---x---x---x---x---x---|
 |-x---x---x---x---x---x---x---x---|
 |-x-7-x-7-x-7-x-7-x-7-x-7-x-7-x-7-|
 |-x-7-x-7-x-7-x-7-x-7-x-7-x-7-x-7-|
 |-x-5-x-5-x-5-x-5-x-5-x-5-x-5-x-5-|
 |-x---x---x---x---x---x---x---x---|
You're not saying anything we haven't heard before 

     G
 |-x----x----x----x----x----x----x----x----|
 |-x----x----x----x----x----x----x----x----|
 |-x-12-x-12-x-12-x-12-x-12-x-12-x-12-x-12-|
 |-x-12-x-12-x-12-x-12-x-12-x-12-x-12-x-12-|
 |-x-10-x-10-x-10-x-10-x-10-x-10-x-10-x-10-|
 |-x----x----x----x----x----x----x----x----|
You're caught up in an arguement or are you so

    D
 |-x---x---x---x---x---x---x---x---|
 |-x---x---x---x---x---x---x---x---|
 |-x-7-x-7-x-7-x-7-x-7-x-7-x-7-x-7-|
 |-x-7-x-7-x-7-x-7-x-7-x-7-x-7-x-7-|
 |-x-5-x-5-x-5-x-5-x-5-x-5-x-5-x-5-|
 |-x---x---x---x---x---x---x---x---|
lost in modern art?  You will lose it

    A
 |-x----x----x----x----x----x----x----x----|
 |-x----x----x----x----x----x----x----x----|
 |-x-14-x-14-x-14-x-14-x-14-x-14-x-14-x-14-|
 |-x-14-x-14-x-14-x-14-x-14-x-14-x-14-x-14-|
 |-x-12-x-12-x-12-x-12-x-12-x-12-x-12-x-12-|
 |-x----x----x----x----x----x----x----x----|
all,                   and you will find again

     G
 |-x----x----x----x----x----x----x----x----|
 |-x----x----x----x----x----x----x----x----|
 |-x-12-x-12-x-12-x-12-x-12-x-12-x-12-x-12-|
 |-x-12-x-12-x-12-x-12-x-12-x-12-x-12-x-12-|
 |-x-10-x-10-x-10-x-10-x-10-x-10-x-10-x-10-|
 |-x----x----x----x----x----x----x----x----|
                                 Don't Lose

    D
 |-x---x---x---x---x---x---x---x---|
 |-x---x---x---x---x---x---x---x---|
 |-x-7-x-7-x-7-x-7-x-7-x-7-x-7-x-7-|
 |-x-7-x-7-x-7-x-7-x-7-x-7-x-7-x-7-|
 |-x-5-x-5-x-5-x-5-x-5-x-5-x-5-x-5-|
 |-x---x---x---x---x---x---x---x---|
   Touch                 Don't Lose

 
 |-x---x---x---x---x---x---x---x---|
 |-x---x---x---x---x---x---x---x---|
 |-x-7-x-7-x-7-x-7-x-7-x-7-x-7-x-7-|
 |-x-7-x-7-x-7-x-7-x-7-x-7-x-7-x-7-|
 |-x-5-x-5-x-5-x-5-x-5-x-5-x-5-x-5-|
 |-x---x---x---x---x---x---x---x---|
   Touch      



Verse 2:
All power chords, all downstrokes, 8 beats a bar. punk.

 D
SOS texted from a cell-phone, please tell me I'm not the only one

                  G
that thinks we're taking ourselves too seriously

        D
Just a little too enamoured with inflated self purpose

         A                          G
Talk is cheap, and it doesn't mean much

           D
Don't lose touch, Don't lose touch.



Chorus: 
Play twice
         
           G
I'm losing Touch

          |-----------------------------------------------------------------|
          |-----------------------------------------------------------------|
          |-----------------------------------------------------------------|
          |---4-5-4---4-5-4---4-5-4---4-5-4---4-5-4---4-5-4---4-5-4---4-5-4-|
          |-5-------5-------5-------5-------5-------5-------5-------5-------|
          |-----------------------------------------------------------------|
I'm losing Touch


Verse 3:

        D
Constant entertainment for our restless minds


Constant stimulation for our epic appetites,

         G
Is there something wrong with these songs?

      D
Maybe there's something wrong with the audience

       A               G               D~   
Manipulation in rock music, fucking nausea.


Chorus:

           G
I'm losing Touch

          |-----------------------------------------------------------------|
          |-----------------------------------------------------------------|
          |-----------------------------------------------------------------|
          |---4-5-4---4-5-4---4-5-4---4-5-4---4-5-4---4-5-4---4-5-4---4-5-4-|
          |-5-------5-------5-------5-------5-------5-------5-------5-------|
          |-----------------------------------------------------------------|
I'm losing Touch

           G                   D~ 
I'm losing touch, And it's obvious




Song Order:

Intro
Verse 1
Verse 2
Chorus
Verse 3 
Chorus 
comments
print report bad tab
3 comments total.
0 reply
ElectricOrgasm wrote on June 29 2007, 03:04 pm

I think you have the root notes pretty much right but he plays different variations of those chords. Plus you didn't tab the second guitar during the chorus little riff (where he hits the open g instead of 5 of d but that's not a big deal at all). And guitars one and two and playing different parts during the verse where you just tabbed the roots. It's good for like a one guitar sort of arrangement though.

-1 reply
aceguitarock wrote on October 6 2007, 06:32 pm

Hey, I'm pretty these are the notes in the intro. Try them out.

|--------------------------------------------------------------------
|-7---7---7--7-7---7---7---7--7-7---8---8---8--8--8---8---8---8--8--8
|-7---7---7--7-7---7---7---7--7-7---7---7---7--7--7---7---7---7--7--7
|-7---7---7--7-7---7---7---7--7-7---9---9---9--9--9---9---9---9--9--9
|-9---9---9--9-9---9---9---9--9-9--10--10--10-10-10--10--10--10-10-10
|10--10--10-10-9--10--10--10-10-9------------------------------------

|--------------------------------------------------------------------
|-7---7---7--7--7---7---7---7--7--7-10--10--10-10-10--8---8---8--8--8
|-7---7---7--7--7---7---7---7--7--7--9---9---9--9--9--7---7---7--7--7
|-7---7---7--7--7---7---7---7--7--7-11--11--11-11-11--9---9---9--9--9
|-9---9---9--9--9---9---9---9--9--9-12--12--12-12-12-10--10--10-10-10
|10--10--10-10-10--10--10--10-10-10----------------------------------

|---------------------------------
|-7---7---7--7-7---7---7---7--7-7-
|-7---7---7--7-7---7---7---7--7-7-
|-7---7---7--7-7---7---7---7--7-7-
|-9---9---9--9-9---9---9---9--9-9-
|10--10--10-10-9--10--10--10-10-9-

+1 reply
HolyYetti wrote on July 20 2008, 03:39 pm

I'm pretty sure this is the way that the D is played during the intro

|-x---x---x---x---x---x---x---------|
|-x-3-x-3-x-3-x-3-x-3-x-3-x-3-3(3)--|
|-x-x-x-x-x-x-x-x-x-x-x-x-x-x-x(x)--|
|-x-4-x-4-x-4-x-4-x-4-x-4-x-4-4(4)--| x2
|-x-5-x-5-x-5-x-5-x-5-x-5-x-5-5\4---|
|-x---x---x---x---x---x---x---------|

I want to post or [tab]
guest
You may want to rate the tab now too:
select rating
Please do not post tabs as comments. Select "correction" instead!