Oops, an error
Loading. Please wait.

Dont Lose Touch Tab

ver2
ver2

Whole song

More versions @911Tabs.com
1,014 views 1 this week
no commentswrite comment
1 2 3 4 5
not so good
x 1
Autoscroll
+/-
esc
set tempo
stop
Contributor
Difficulty
novice
WARNING: You are trying to view
                                    content from Ultimate-Guitar.com
                                    in an unauthorized application,
                                    which is prohibited.

                                    Please use an official Ultimate
                                    Guitar Tabs application for iPhone,
                                    iPad or Android to access legitimate
                                    chords, guitar, bass, and drum tabs
                                    from Ultimate-Guitar.com database.

                                    Type "ultimate guitar tabs" in Apple
                                    App Store's or Android Market's
                                    search to find the application.
NOTE:  NOT MY WORK.  The best version on this site was from Guitar Pro, so I converted 
to text format.

Against Me! - Don't Lose Touch

     W                   W                   E   E  E   E  E   E  E   E
E||-------------------|-------------------|------------------------------|
B||-------------------|-------------------|------------------------------|
G||-------------------|-------------------|------------------------------|
D||-------------------|-------------------|------7------7------7------7--|
A||-------------------|-------------------|------9------9------9------9--|
E||-------------------|-------------------|-----10-----10-----10-----10--|


  E   E  E   E  E   E   E   E     E   E  E   E  E   E  E   E
-------------------------------|------------------------------|
-------------------------------|------------------------------|
-------------------------------|------------------------------|
------7------7------7---7---7--|------7------7------7------7--|
------9------9------9---9---7--|------9------9------9------9--|
-----10-----10-----10--10--10--|-----10-----10-----10-----10--|


  E   E  E   E  E   E   E   E     E   E  E   E  E   E  E   E
-------------------------------|------------------------------|
-------------------------------|------------------------------|
-------------------------------|------------------------------|
------7------7------7---7---7--|------7------7------7------7--|
------9------9------9---9---7--|------9------9------9------9--|
-----10-----10-----10--10--10--|-----10-----10-----10-----10--|


  E   E  E   E  E   E   E   E     E   E  E   E  E   E  E   E
-------------------------------|------------------------------|
-------------------------------|------------------------------|
-------------------------------|------------------------------|
------7------7------7---7---7--|------7------7------7------7--|
------9------9------9---9---7--|------9------9------9------9--|
-----10-----10-----10--10--10--|-----10-----10-----10-----10--|


  E   E  E   E  E   E   E   E     E   E  E   E  E   E  E   E
-------------------------------|------------------------------|
-------------------------------|------------------------------|
-------------------------------|------7------7------7------7--|
------7------7------7---7---7--|------9------9------9------9--|
------9------9------9---9---7--|-----10-----10-----10-----10--|
-----10-----10-----10--10--10--|------------------------------|


  E   E  E   E  E   E  E   E     E   E  E   E  E   E  E   E
------------------------------|------------------------------|
------------------------------|------------------------------|
------7------7------7------7--|------------------------------|
------9------9------9------9--|------7------7------7------7--|
-----10-----10-----10-----10--|------9------9------9------9--|
------------------------------|-----10-----10-----10-----10--|


  E   E  E   E  E   E  E   E     E   E  E   E  E   E  E   E
------------------------------|------------------------------|
------------------------------|------------------------------|
------------------------------|------9------9------9------9--|
------7------7------7------7--|-----11-----11-----11-----11--|
------9------9------9------9--|-----12-----12-----12-----12--|
-----10-----10-----10-----10--|------------------------------|


  E   E  E   E  E   E  E   E     E   E  E   E  E   E  E   E
------------------------------|------------------------------|
------------------------------|------------------------------|
------9------9------9------9--|------7------7------7------7--|
-----11-----11-----11-----11--|------9------9------9------9--|
-----12-----12-----12-----12--|-----10-----10-----10-----10--|
------------------------------|------------------------------|


  E   E  E   E  E   E  E   E     E   E  E   E  E   E  E   E
------------------------------|------------------------------|
------------------------------|------------------------------|
------7------7------7------7--|------------------------------|
------9------9------9------9--|------7------7------7------7--|
-----10-----10-----10-----10--|------9------9------9------9--|
------------------------------|-----10-----10-----10-----10--|


  E   E  E   E  E   E  E   E     E   E  E   E  E   E  E   E
------------------------------|------------------------------|
------------------------------|------------------------------|
------------------------------|------------------------------|
------7------7------7------7--|------7------7------7------7--|
------9------9------9------9--|------9------9------9------9--|
-----10-----10-----10-----10--|-----10-----10-----10-----10--|


  E   E    E    E    E    E    E    E
---------------------------------------|
---------------------------------------|
---------------------------------------|
------7---(7)---7---(7)---7---(7)---7--|
------9---(9)---9---(9)---9---(9)---9--|
-----10--(10)--10--(10)--10--(10)--10--|


    E    E    E    E    E    E    E    E
------------------------------------------|
------------------------------------------|
------------------------------------------|
---(7)---7---(7)---7---(7)---7---(7)---7--|
---(9)---9---(9)---9---(9)---9---(9)---9--|
--(10)--10--(10)--10--(10)--10--(10)--10--|


    E    E    E    E    E    E    E    E
------------------------------------------|
------------------------------------------|
------------------------------------------|
---(7)---7---(7)---7---(7)---7---(7)---7--|
---(9)---9---(9)---9---(9)---9---(9)---9--|
--(10)--10--(10)--10--(10)--10--(10)--10--|


    E    E    E    E    E    E    E    E
------------------------------------------|
------------------------------------------|
------------------------------------------|
---(7)---7---(7)---7---(7)---7---(7)---7--|
---(9)---9---(9)---9---(9)---9---(9)---9--|
--(10)--10--(10)--10--(10)--10--(10)--10--|


    E    E    E    E    E    E    E    E
------------------------------------------|
------------------------------------------|
------------------------------------------|
---(7)---7---(7)---7---(7)---7---(7)---7--|
---(9)---9---(9)---9---(9)---9---(9)---9--|
--(10)--10--(10)--10--(10)--10--(10)--10--|


    E    E    E    E    E    E    E    E
------------------------------------------|
------------------------------------------|
---(7)---7---(7)---7---(7)---7---(7)---7--|
---(9)---9---(9)---9---(9)---9---(9)---9--|
--(10)--10--(10)--10--(10)--10--(10)--10--|
------------------------------------------|


    E    E    E    E    E    E    E    E
------------------------------------------|
------------------------------------------|
---(7)---7---(7)---7---(7)---7---(7)---7--|
---(9)---9---(9)---9---(9)---9---(9)---9--|
--(10)--10--(10)--10--(10)--10--(10)--10--|
------------------------------------------|


    E    E    E    E    E    E    E    E
------------------------------------------|
------------------------------------------|
------------------------------------------|
---(7)---7---(7)---7---(7)---7---(7)---7--|
---(9)---9---(9)---9---(9)---9---(9)---9--|
--(10)--10--(10)--10--(10)--10--(10)--10--|


    E    E    E    E    E    E    E    E
------------------------------------------|
------------------------------------------|
------------------------------------------|
---(7)---7---(7)---7---(7)---7---(7)---7--|
---(9)---9---(9)---9---(9)---9---(9)---9--|
--(10)--10--(10)--10--(10)--10--(10)--10--|


    E    E    E    E    E    E    E    E
------------------------------------------|
------------------------------------------|
---(9)---9---(9)---9---(9)---9---(9)---9--|
--(11)--11--(11)--11--(11)--11--(11)--11--|
--(12)--12--(12)--12--(12)--12--(12)--12--|
------------------------------------------|


    E    E    E    E    E    E    E    E
------------------------------------------|
------------------------------------------|
---(9)---9---(9)---9---(9)---9---(9)---9--|
--(11)--11--(11)--11--(11)--11--(11)--11--|
--(12)--12--(12)--12--(12)--12--(12)--12--|
------------------------------------------|


    E    E    E    E    E    E    E    E
------------------------------------------|
------------------------------------------|
---(7)---7---(7)---7---(7)---7---(7)---7--|
---(9)---9---(9)---9---(9)---9---(9)---9--|
--(10)--10--(10)--10--(10)--10--(10)--10--|
------------------------------------------|


    E    E    E    E    E    E    E    E
------------------------------------------|
------------------------------------------|
---(7)---7---(7)---7---(7)---7---(7)---7--|
---(9)---9---(9)---9---(9)---9---(9)---9--|
--(10)--10--(10)--10--(10)--10--(10)--10--|
------------------------------------------|


    E    E    E    E    E    E    E    E
------------------------------------------|
------------------------------------------|
------------------------------------------|
---(7)---7---(7)---7---(7)---7---(7)---7--|
---(9)---9---(9)---9---(9)---9---(9)---9--|
--(10)--10--(10)--10--(10)--10--(10)--10--|


    E    E    E    E    E    E    E    E
------------------------------------------|
------------------------------------------|
------------------------------------------|
---(7)---7---(7)---7---(7)---7---(7)---7--|
---(9)---9---(9)---9---(9)---9---(9)---9--|
--(10)--10--(10)--10--(10)--10--(10)--10--|


    E    E    E    E    E    E    E    E
------------------------------------------|
------------------------------------------|
------------------------------------------|
---(7)---7---(7)---7---(7)---7---(7)---7--|
---(9)---9---(9)---9---(9)---9---(9)---9--|
--(10)--10--(10)--10--(10)--10--(10)--10--|


    E    E    E    E    E    E    E    E     Q    Q    Q    Q
------------------------------------------|----------------------|
------------------------------------------|----------------------|
------------------------------------------|--0----0----0----0----|
---(7)---7---(7)---7---(7)---7---(7)---7--|--x----x----x----x----|
---(9)---9---(9)---9---(9)---9---(9)---9--|--2----2----2----2----|
--(10)--10--(10)--10--(10)--10--(10)--10--|--3----3----3----3----|


  Q    Q    Q    Q       Q    Q    Q    Q       Q    Q    Q    Q
----------------------|----------------------|----------------------|
----------------------|----------------------|----------------------|
--0----0----0----0----|--0----0----0----0----|--0----0----0----0----|
--x----x----x----x----|--x----x----x----x----|--x----x----x----x----|
--2----2----2----2----|--2----2----2----2----|--2----2----2----2----|
--3----3----3----3----|--3----3----3----3----|--3----3----3----3----|


   Q     Q     Q     Q        Q     Q     Q     Q
--------------------------|--------------------------|
--10----10----10----10----|--10----10----10----10----|
---0-----0-----0-----0----|---0-----0-----0-----0----|
---0-----0-----0-----0----|---0-----0-----0-----0----|
---9-----9-----9-----9----|---9-----9-----9-----9----|
--10----10----10----10----|--10----10----10----10----|


   Q     Q     Q     Q        Q     Q     Q     Q       Q    Q    Q    Q
--------------------------|--------------------------|----------------------|
--10----10----10----10----|--10----10----10----10----|----------------------|
---0-----0-----0-----0----|---0-----0-----0-----0----|--0----0----0----0----|
---0-----0-----0-----0----|---0-----0-----0-----0----|--x----x----x----x----|
---9-----9-----9-----9----|---9-----9-----9-----9----|--2----2----2----2----|
--10----10----10----10----|--10----10----10----10----|--3----3----3----3----|


  Q    Q    Q    Q       Q    Q    Q    Q       Q    Q    Q    Q
----------------------|----------------------|----------------------|
----------------------|----------------------|----------------------|
--0----0----0----0----|--0----0----0----0----|--0----0----0----0----|
--x----x----x----x----|--x----x----x----x----|--x----x----x----x----|
--2----2----2----2----|--2----2----2----2----|--2----2----2----2----|
--3----3----3----3----|--3----3----3----3----|--3----3----3----3----|


   Q     Q     Q     Q        Q     Q     Q     Q
--------------------------|--------------------------|
--10----10----10----10----|--10----10----10----10----|
---0-----0-----0-----0----|---0-----0-----0-----0----|
---0-----0-----0-----0----|---0-----0-----0-----0----|
---9-----9-----9-----9----|---9-----9-----9-----9----|
--10----10----10----10----|--10----10----10----10----|


   Q     Q     Q     Q        E   E   E   E   E   E   E   E
--------------------------|----------------------------------|
--10----10----10----10----|--15--15--15--15--15--15--15--15--|
---0-----0-----0-----0----|---0---0---0---0---0---0---0---0--|
---0-----0-----0-----0----|---0---0---0---0---0---0---0---0--|
---9-----9-----9-----9----|--14--14--14--14--14--14--14--14--|
--10----10----10----10----|--15--15--15--15--15--15--15--15--|


  E   E  E   E  E   E  E   E     E   E  E   E  E   E   E   E
------------------------------|-------------------------------|
------------------------------|-------------------------------|
------------------------------|-------------------------------|
------7------7------7------7--|------7------7------7---7---7--|
------9------9------9------9--|------9------9------9---9---7--|
-----10-----10-----10-----10--|-----10-----10-----10--10--10--|


  E   E  E   E  E   E  E   E     E   E  E   E  E   E   E   E
------------------------------|-------------------------------|
------------------------------|-------------------------------|
------------------------------|-------------------------------|
------7------7------7------7--|------7------7------7---7---7--|
------9------9------9------9--|------9------9------9---9---7--|
-----10-----10-----10-----10--|-----10-----10-----10--10--10--|


  E   E  E   E  E   E  E   E     E   E  E   E  E   E  E   E
------------------------------|------------------------------|
------------------------------|------------------------------|
------7------7------7------7--|------7------7------7------7--|
------9------9------9------9--|------9------9------9------9--|
-----10-----10-----10-----10--|-----10-----10-----10-----10--|
------------------------------|------------------------------|


  E   E  E   E  E   E  E   E     E   E  E   E  E   E  E   E
------------------------------|------------------------------|
------------------------------|------------------------------|
------------------------------|------------------------------|
------7------7------7------7--|------7------7------7------7--|
------9------9------9------9--|------9------9------9------9--|
-----10-----10-----10-----10--|-----10-----10-----10-----10--|


  E   E  E   E  E   E  E   E     E   E  E   E  E   E  E   E
------------------------------|------------------------------|
------------------------------|------------------------------|
------9------9------9------9--|------9------9------9------9--|
-----11-----11-----11-----11--|-----11-----11-----11-----11--|
-----12-----12-----12-----12--|-----12-----12-----12-----12--|
------------------------------|------------------------------|


  E   E  E   E  E   E  E   E     E   E  E   E  E   E  E   E
------------------------------|------------------------------|
------------------------------|------------------------------|
------7------7------7------7--|------7------7------7------7--|
------9------9------9------9--|------9------9------9------9--|
-----10-----10-----10-----10--|-----10-----10-----10-----10--|
------------------------------|------------------------------|


   E  H        Q.        W                   Q    Q    Q    Q
----------------------|-------------------|----------------------|
----------------------|-------------------|----------------------|
----------------------|-------------------|--0----0----0----0----|
---7------------------|-------------------|--x----x----x----x----|
---9------------------|-------------------|--2----2----2----2----|
--10------------------|-------------------|--3----3----3----3----|


  Q    Q    Q    Q       Q    Q    Q    Q       Q    Q    Q    Q
----------------------|----------------------|----------------------|
----------------------|----------------------|----------------------|
--0----0----0----0----|--0----0----0----0----|--0----0----0----0----|
--x----x----x----x----|--x----x----x----x----|--x----x----x----x----|
--2----2----2----2----|--2----2----2----2----|--2----2----2----2----|
--3----3----3----3----|--3----3----3----3----|--3----3----3----3----|


   Q     Q     Q     Q        Q     Q     Q     Q
--------------------------|--------------------------|
--10----10----10----10----|--10----10----10----10----|
---0-----0-----0-----0----|---0-----0-----0-----0----|
---0-----0-----0-----0----|---0-----0-----0-----0----|
---9-----9-----9-----9----|---9-----9-----9-----9----|
--10----10----10----10----|--10----10----10----10----|


   Q     Q     Q     Q        Q     Q     Q     Q       Q    Q    Q    Q
--------------------------|--------------------------|----------------------|
--10----10----10----10----|--10----10----10----10----|----------------------|
---0-----0-----0-----0----|---0-----0-----0-----0----|--0----0----0----0----|
---0-----0-----0-----0----|---0-----0-----0-----0----|--x----x----x----x----|
---9-----9-----9-----9----|---9-----9-----9-----9----|--2----2----2----2----|
--10----10----10----10----|--10----10----10----10----|--3----3----3----3----|


  Q    Q    Q    Q       Q    Q    Q    Q       Q    Q    Q    Q
----------------------|----------------------|----------------------|
----------------------|----------------------|----------------------|
--0----0----0----0----|--0----0----0----0----|--0----0----0----0----|
--x----x----x----x----|--x----x----x----x----|--x----x----x----x----|
--2----2----2----2----|--2----2----2----2----|--2----2----2----2----|
--3----3----3----3----|--3----3----3----3----|--3----3----3----3----|


   E  H        Q.
----------------------||
----------------------||
----------------------||
---7------------------||
---9------------------||
--10------------------||


Duration Legend
---------------
W - whole
H - half
Q - quarter
E - 8th
S - 16th
T - 32nd
X - 64th
. - note dotted
|-n-|  - n-tuplets


Tablature Legend
----------------
L - tied note
x - dead note
g - grace note
(n) - ghost note
> - accentuded note
NH - natural harmonic
AH - artificial harmonic
TH - tapped harmonic
SH - semi harmonic
PH - pitch harmonic
h - hammer on
p - pull off
b - bend
br - bendRelease
pb - preBend
pbr - preBendRelease
brb - bendReleaseBend
\n/ - tremolo bar dip
\n - tremolo bar dive
-/n - tremolo bar Release up
/n\ - tremolo bar inverted dip
/n - tremolo bar return
-\n - tremolo bar Release down
S - shift slide
s - legato slide
/ -  slide into from below or out of upwards
\ -  slide into from above or out of downwards
~ - vibrato
W - wide vibrato
tr - trill
TP - tremolo picking
T - tapping
S - slap
P - pop
< - fade in
^ - brush up
v - brush down
comments
We did not receive enough feedback on this tab! Please rate:
print report bad tab
1 2 3 4 5
I want to post or [tab]
guest
You may want to rate the tab now too:
select rating
Please do not post tabs as comments. Select "correction" instead!