Oops, an error
Loading. Please wait.

I Am The Wooden Doors Tab

2,881 views 18 this week
no commentswrite comment
1 2 3 4 5
accurate
x 2
Autoscroll
+/-
esc
set tempo
stop
Contributor
Difficulty
intermediate
WARNING: You are trying to view
                                    content from Ultimate-Guitar.com
                                    in an unauthorized application,
                                    which is prohibited.

                                    Please use an official Ultimate
                                    Guitar Tabs application for iPhone,
                                    iPad or Android to access legitimate
                                    chords, guitar, bass, and drum tabs
                                    from Ultimate-Guitar.com database.

                                    Type "ultimate guitar tabs" in Apple
                                    App Store's or Android Market's
                                    search to find the application.
-------------------------------------------------------------------------------
			     I Am The Wooden Doors - Agalloch
-------------------------------------------------------------------------------
Tabbed by: Jeff Cameron
Email: jcameron99@gmail.com

Tuning: Standard

Ok, I spent forever making this tab as perfect as I could.  I just got software to slow 
all down, so it’s much easier for me now.  Anyway, it’s my baby, so rate, comment, and enjoy!

FYI the software I used to help me tab it is called Transcribe, get it here:

www.seventhstring.com

Section 1: 0:00 - 0:41
   Guitar 1, Repeat: x4
e|------------|--------------|--------------|------------|-------------------|
B|--pickup----|--------------|--------------|------------|-------------------|
G|------------|--------------|--------------|------------|-------------------|
D|---12\------|--------------|-------4p2----|------------|-------------------|
A|---12\------|--2-/5—-5p4h5-|-2-/5------5--|--2-/5—-4h5-|--2-/5--4----------|
E|---10\------|--------------|--------------|------------|-------------------|

  Guitar 2, tremolo picking (>>), Repeat: x6 (top line)
e|---------------------------------------------------------------------------|
B|---------------------------------------------------------------------------|
G|--4>>--/7>>--6>>--4>>--2>>--/7>>--6-7-6------------------------------------|
D|---------------------------------------------------------------------------|
A|---------------------------------------------------------------------------|
E|---------------------------------------------------------------------------|
 |
e|---------------------------------------------------------------------------|
B|---------------------------------------------------------------------------|
G|---11>>--9>>--7>>--11>>--9>>--7>>--4>>--/7>>--6>>--4>>--2>>--7>>--6-7-6----|
D|---------------------------------------------------------------------------|
A|---------------------------------------------------------------------------|
E|---------------------------------------------------------------------------|

Section 2: 0:41 - 0:50
  Guitar 1, Repeat: x2
e|---------------------------------------------------------------------------|
B|---------------------------------------------------------------------------|
G|---------------------------------------------------------------------------|
D|--2-2-2-2-2-2-2-2-2---------0-0-0-0-0-0-0-0-0-0-0-0------------------------|
A|--2-2-2-2-2-2-2-2-2—-5-4-2—-2-2-2-2-2-2-2-2-2-2-2-2------------------------|
E|--0-0-0-0-0-0-0-0-0---------3-3-3-3-3-3-3-3-3-3-3-3------------------------|

 Guitar 2, Repeat: x2
e|---------------------------------------------------------------------------|
B|---------12----14----12---------12----15----14-----------------------------|
G|---11-11----11----11------11-11----11----11--------------------------------|
D|---------------------------------------------------------------------------|
A|---------------------------------------------------------------------------|
E|---------------------------------------------------------------------------|

Section 3: 0:50 - 1:00
  Guitar 1, let ring
e|---------------------------------------------------------------------------|
B|---------------------------------------------------------------------------|
G|---------------------------------------------------------------------------|
D|----2-------0-------2-------0-------0--------------------------------------|
A|----2-------2-------2-------2-------2/4------------------------------------|
E|----0-------3-------0-------3-------3/5------------------------------------|

  Guitar 2, Repeat: x2
e|---------------------------------------------------------------------------|
B|---------12----14----12---------12----15----14-----------------------------|
G|---11-11----11----11------11-11----11----11--------------------------------|
D|---------------------------------------------------------------------------|
A|---------------------------------------------------------------------------|
E|---------------------------------------------------------------------------|

  Guitar 3
e|---------------------------------------------------------------------------|
B|---------------------------------------------------------------------------|
G|---4~~-4—-4/7~~-----4~~-4—-4/7~~—-7/9~~------------------------------------|
D|---------------------------------------------------------------------------|
A|---------------------------------------------------------------------------|
E|---------------------------------------------------------------------------|

Section 4: 1:00 - 1:36
  Guitar 1, Repeat: x4
e|---------------------------------------------------------------------------|
B|---------------------------------------------------------------------------|
G|---------------------------------------------------------------------------|
D|---------------------------------------------------------------------------|
A|--5-5-5-5-5-5-4-4-4-4-4-4-5-5-5-5-5-5-4-4-4-0-0-0--------------------------|
E|---------------------------------------------------------------------------|
 |
e|---------------------------------------------------------------------------|
B|----------0--------0-----------0---------0—(sometimes an open e instead)---|
G|---------------------------------------------------------------------------|
D|--------0--------0-----------2---------2-----------------------------------|
A|------2--------2-----------2---------2-------------------------------------|
E|----3--------3-----------0---------0---------------------------------------|

  Guitar 2, enter on 3rd repeat
e|---------------------------------------------------------------------------|
B|---------------------------------------------------------------------------|
G|---------------------------------------------------------------------------|
D|---------------------------------------------------------------------------|
A|---5-5-4-2-0—--5-5-4-2-0—--5-5-4-2-0---5-5-4-2-0---------------------------|
E|---------------------------------------------------------------------------|

  Guitar 3, enter on 4th repeat
e|---------------------------------------------------------------------------|
B|--------------------5h7-7-5-5h7p5------------------------------------------|
G|---6h7-7-6-6h7p6----7-------------7--/9-7-9-7-6--/7-6-7-6------------------|
D|---7-------------7----------------------------------------7----------------|
A|---------------------------------------------------------------------------|
E|---------------------------------------------------------------------------|

Section 5: 1:36 - 1:55
  Guitar 1, Repeat x2
e|---------------------------------------------------------------------------|
B|---3-3-3-3-3-3---------------3-3-3-3-3-3-----------------------------------|
G|---4-4-4-4-4-4--4-4-4-4-4-4--4-4-4-4-4-4--4-4-4-4-4-4----------------------|
D|---4-4-4-4-4-4—-5-5-5-5-5-5--4-4-4-4-4-4--5-5-5-5-5-5----------------------|
A|---2-2-2-2-2-2--5-5-5-5-5-5--2-2-2-2-2-2--5-5-5-5-5-5----------------------|
E|----------------3-3-3-3-3-3---------------3-3-3-3-3-3----------------------|
 |
e|---------------------------------------------------------------------------|
B|--2-2-2-2-2-2-2-2-2-2-2-2--------------------------------------------------|
G|--2-2-2-2-2-2-2-2-2-2-2-2---4-4-4-4-4-4-4-4-4-4-4-4------------------------|
D|--2-2-2-2-2-2-2-2-2-2-2-2---5-5-5-5-5-5-5-5-5-5-5-5------------------------|
A|--0-0-0-0-0-0-0-0-0-0-0-0---5-5-5-5-5-5-5-5-5-5-5-5------------------------|
E|----------------------------3-3-3-3-3-3-3-3-3-3-3-3------------------------|

  Guitar 2, Repeat x2
e|---------------------------------------------------------------------------|
B|---------------------------------------------------------------------------|
G|---6h7—9p7--6h7—9p7---6--4--4----------------------------------------------|
D|---7--------7---------7-----5----------------------------------------------|
A|---------------------------------------------------------------------------|
E|---------------------------------------------------------------------------|
Section 6:  1:55 - 2:31
		Repeat Section 4

Section 7:  2:31 – 3:08
  Guitar 1, acoustic, Repeat: x4
e|---------------------------------------------------------------------------|
B|---------------------------------------------------------------------------|
G|---------------------------------------------------------------------------|
D|------0------0------0-----0------0------0------0------0--------------------|
A|----5------5------5-----4------5------5------5------4----------------------|
E|--7------7------7-----7------7------7------7------7------------------------|
 |
e|---------------------------------------------------------------------------|
B|---------------------------------------------------------------------------|
G|---------------------------------------------------------------------------|
D|--------0-----0-----0-----0-----0-----0------0-----0-----------------------|
A|------5-----5-----5-----5-----4-----4------7-----7-------------------------|
E|----3-----3-----2-----2-----2-----2-----/5-----5---------------------------|

  Guitar 2, enter 2nd repeat, Repeat: x3
e|------2-----2-----2-----2-----2-----2-----2-----2--------------------------|
B|----3-----3-----3-----2-----3-----3-----3-----2----------------------------|
G|--4-----4-----4-----4-----4-----4-----4-----4------------------------------|
D|---------------------------------------------------------------------------|
A|---------------------------------------------------------------------------|
E|---------------------------------------------------------------------------|
 |
e|------2-----2-----2-----2-----2-----2-----2-----2--------------------------|
B|----3-----3-----3-----3-----2-----2-----5-----5----------------------------|
G|--0-----0-----------------------------2-----2------------------------------|
D|--------------4-----4-----4-----4------------------------------------------|
A|---------------------------------------------------------------------------|
E|---------------------------------------------------------------------------|

  Guitar 3, solo acoustic, enter 3rd repeat
e|---------------------------------------------------------------------------|
B|--12-12-12-10-10h12p10----12-12-12-12-12-12-10-10h12p10--------------------|
G|-----------------------11-------------------------------11-----------------|
D|---------------------------------------------------------------------------|
A|---------------------------------------------------------------------------|
E|---------------------------------------------------------------------------|
 |
e|---------------------------------------------------------------------------|
B|--12-12-12-12-12-12-14-12h14p12-------14-14-14-14-14-14-15-14h15p14--------|
G|--------------------------------11-11-------------------------------11-----|
D|---------------------------------------------------------------------------|
A|---------------------------------------------------------------------------|
E|---------------------------------------------------------------------------|
 |
e|---------------------------------------------------------------------------|
B|--12-12-12-10-10h12p10----12-12-12-12-12-12-10-10h12p10--------------------|
G|-----------------------11-------------------------------11-----------------|
D|---------------------------------------------------------------------------|
A|---------------------------------------------------------------------------|
E|---------------------------------------------------------------------------|
 |
e|-------------------12-12-12-10-10-10---------------------------------------|
B|-12-12-12-10-10-10-------------------12-12-12-10-10-10-12----12-12----12-12|
G|-----------------------------------------------------------11-------11-----|
D|---------------------------------------------------------------------------|
A|---------------------------------------------------------------------------|
E|---------------------------------------------------------------------------|

Section 8: 3:08 - 3:26
  Guitar 1, Repeat: x2
e|---------------------------------------------------------------------------|
B|---------------------------------------------------------------------------|
G|---------------------------------------------------------------------------|
D|--0--0-0-0-0--0--0-0-0-0--0--0-0-0-0--0--0-0-0-0---------------------------|
A|--5--5-5-5-5--4--4-4-4-4--5--5-5-5-5--4--4-4-4-4---------------------------|
E|--7--7-7-7-7—-7--7-7-7-7--7--7-7-7-7--7--7-7-7-7---------------------------|
 |
e|---------------------------------------------------------------------------|
B|---------------------------------------------------------------------------|
G|---------------------------------------------------------------------------|
D|--0--0-0-0-0--0--0-0-0-0--0--0-0-0-0---0--0-0-0-0--------------------------|
A|--5--5-5-5-5--5--5-5-5-5--4--4-4-4-4--/7--7-7-7-7--------------------------|
E|--3--3-3-3-3--2--2-2-2-2--2--2-2-2-2--/5--5-5-5-5--------------------------|

  Guitar 2, come in on second bar of Guitar 1 part, Repeat: x2
e|---------------------------------------------------------------------------|
B|---------------------------------------------------------------------------|
G|----4--4-4-4-4--4--4-4-4-4--6--6-6-6-6--6--6-6-6-6-------------------------|
D|---------------------------------------------------------------------------|
A|---------------------------------------------------------------------------|
E|---------------------------------------------------------------------------|

Section 9: 3:26 - 4:01
		Repeat Section 5

Section 10: 4:01 - 4:21

  Guitar 1: same as Section 9

  Guitar 2, solo acoustic, this comes in right at the end of Section 9 as a           
to Section 10
e|---------------------------9-10--9-------14--------------------------------|
B|---------------------10-12---------12-12----15-17-15-12-14-----------------|
G|---------------11-12---------------------------------------14-12\11--------|
D|------11-12-14------------------------------------------------------12-----|
A|---14----------------------------------------------------------------------|
E|---------------------------------------------------------------------------|


e|----------------------------------10/12--------12--------------------------|
B|-------------------------------12-------12-12--14--14--15--12--------------|
G|---------11-13/14-11-11-----11---------------------14--16--12--------------|
D|------12-----------------12------------------------------------------------|
A|---14----------------------------------------------------------------------|
E|---------------------------------------------------------------------------|

Section 11: 4:21 - 4:40
		Repeat Section 8

Section 12: 4:40 - 5:17
  Guitar 1, Repeat: x4
e|---------------------------------------------------------------------------|
B|---------------------------------------------------------------------------|
G|--4--4-4-4-4--4--4-4-4-4--2--2-2-2-2--2--2-2-2-2---------------------------|
D|--4--4-4-4-4--4--4-4-4-4--2--2-2-2-2--2--2-2-2-2---------------------------|
A|--2--2-2-2-2--2--2-2-2-2--0--0-0-0-0--0--0-0-0-0---------------------------|
E|---------------------------------------------------------------------------|
 |
e|---------------------------------------------------------------------------|
B|---------------------------------------------------------------------------|
G|---------------------------------------------------------------------------|
D|--5--5-5-5-5--5--5-5-5-5--4--4-4-4-4--4--4-4-4-4---------------------------|
A|--5--5-5-5-5--5--5-5-5-5--4--4-4-4-4--4--4-4-4-4---------------------------|
E|--3--3-3-3-3--3--3-3-3-3--2--2-2-2-2--2--2-2-2-2---------------------------|

  Guitar 2, Repeat: x4
e|---------------------------------------------------------------------------|
B|---------------------------------------------------------------------------|
G|--4--4-4-4-4--4--4-4-4-4--6-6/9--9--9-9-9-9--9--9-9-9-9--9--9-9-9-9--------|
D|---------------------------------------------------------------------------|
A|---------------------------------------------------------------------------|
E|---------------------------------------------------------------------------|
 |
e|---------------------------------------------------------------------------|
B|---------------------------------------------------------------------------|
G|--7--7-7-7-7--6--6-6-6-6---------------------------------------------------|
D|--------------(alternately 6-7-6 on the g string)--------------------------|
A|---------------------------------------------------------------------------|
E|---------------------------------------------------------------------------|

Section 13: 5:17 - 5:53

  Guitar 1, Repeat: x4
e|---------------|--------------|------------|-------------------------------|
B|---------------|--------------|------------|-------------------------------|
G|---------------|-------2p0----|------------|-------------------------------|
D|---------------|-----------4--|------------|-------------------------------|
A|---2-/5—-5p4h5-|-2-/5---------|--2-/5—-4h5-|--2-/5--4----------------------|
E|---------------|--------------|------------|-------------------------------|

  Guitar 2, tremolo picking (>>), Repeat: x6 (top line)
e|---------------------------------------------------------------------------|
B|---------------------------------------------------------------------------|
G|--4>>--/7>>--6>>--4>>--2>>--/7>>--6-7-6------------------------------------|
D|---------------------------------------------------------------------------|
A|---------------------------------------------------------------------------|
E|---------------------------------------------------------------------------|
 |
e|---------------------------------------------------------------------------|
B|---------------------------------------------------------------------------|
G|---11>>--9>>--7>>--11>>--9>>--7>>--4>>--/7>>--6>>--4>>--2>>--7>>--6-7-6----|
D|---------------------------------------------------------------------------|
A|---------------------------------------------------------------------------|
E|---------------------------------------------------------------------------|

Section 14: 5:53 - end

  Guitar 1, let ring
e|---------------------------------------------------------------------------|
B|---------------------------------------------------------------------------|
G|---------------------------------------------------------------------------|
D|----2-------0-------2-------0-------0--------------------------------------|
A|----2-------2-------2-------2-------2/4------------------------------------|
E|----0-------3-------0-------3-------3/5------------------------------------|

  Guitar 2, Repeat: x2
e|---------------------------------------------------------------------------|
B|---------12----14----12---------12----15----14-----------------------------|
G|---11-11----11----11------11-11----11----11--------------------------------|
D|---------------------------------------------------------------------------|
A|---------------------------------------------------------------------------|
E|---------------------------------------------------------------------------|

  Guitar 3
e|---------------------------------------------------------------------------|
B|---------------------------------------------------------------------------|
G|---4~~-4—-4/7~~-----4~~-4—-4/7~~—-7/9~~------------------------------------|
D|---------------------------------------------------------------------------|
A|---------------------------------------------------------------------------|
E|---------------------------------------------------------------------------|

| /  slide up
| \  slide down
| h  hammer-on
| p  pull-off
| ~  vibrato
| +  harmonic
| x  Mute note
===============================================================================
comments
We did not receive enough feedback on this tab! Please rate:
1 2 3 4 5
I want to post or [tab]
guest
You may want to rate the tab now too:
select rating
Please do not post tabs as comments. Select "correction" instead!