Oops, an error
Loading. Please wait.

Pakisabi Na Lang Tab

ver1
ver1

Whole song

More versions @911Tabs.com
49,391 views 58 this week
no commentswrite comment
1 2 3 4 5
worth learning
x 1
Autoscroll
+/-
esc
set tempo
stop
Contributor
Hey! There's an official Ultimate Guitar app which is ideal
for learning songs when you're away from computer. Get the app
WARNING: You are trying to view
                                    content from Ultimate-Guitar.com
                                    in an unauthorized application,
                                    which is prohibited.

                                    Please use an official Ultimate
                                    Guitar Tabs application for iPhone,
                                    iPad or Android to access legitimate
                                    chords, guitar, bass, and drum tabs
                                    from Ultimate-Guitar.com database.

                                    Type "ultimate guitar tabs" in Apple
                                    App Store's or Android Market's
                                    search to find the application.
===============================================================================
                     Pakisabi Na Lang - Aiza Seguerra
--------------------------------------------------------------------------------
Tabbed by: stephanie_7368
Email:     stephanie_7368@yahoo.com

NOTE: Scroll down for the CHORDS in STANDARD TUNING (no capo).

  CHORDS: ----------------     ----------------     ----------------
          A       - x02220     D       - xx0232     F7sus4  - 131311
          Am7     - x02010     Dm      - xx0231     F#      - 244322
          A7      - x02020     Dm7     - xx0211     F#7     - 242322
          A7sus4  - x02030     D#      - x68886     F#7sus4 - 242422
          A#      - x13331     D#m7    - x68676     F#m     - 244222
          A#sus2  - x13311     D#sus2  - x68866     F#m7    - 242222
          B       - x24442     E       - 022100     G       - 320033
          Bm7     - x24232     Em      - 022000     G7      - 353433
          C       - x32010     Em7     - 020000     G7sus4  - 353533
          Cm7     - x35343     E7      - 020100     Gm      - 355333
          Csus2   - x35533     E7sus4  - 020200     Gm7     - 353333
          C#7     - x46464     F       - 133211     G#m     - 466444
          C#m7    - x46454     Fm      - 133111     G#m7    - 464444
          C#7sus4 – x46474     F7      - 131211     ----------------
          ----------------     ----------------


*CAPO ON 1ST FRET---------------------------------------------------------------

LEGENDS:
  m -> palm mute
  p -> pull-off

ARRANGED FOR SOLO PLAYING

NOTE: - Hindi ko na tinab yung VERSE II hanggang tapos. Just use the chords
        and your plucking preferences to make it simple. ^^


INTRO
     1                                 2
     Csus2                             F               Fm
     1 * * * 2 * * * 3 * * * 4 * * *   1 * * * 2 * * * 3 * * * 4 * * *
  e|-3---------3-----3---------3-----|-1---------1-----1-----1p0-------|
  B|-----------m---------------m-----|-----------2-----1---------1-----|
  G|-5-----5---5-5---5-----5---5-5---|-2-----2---2-2---1-----------0---|
  D|-------5---5-----------5---5-----|-------3---3-----3---------------|
  A|-3---3---3-----3-----3---3-----3-|-----3---3-----3-3---------------|
  E|-----------------0---------------|-1---------------1---------------|

     3 (same as 1)                     4
     Csus2                             F
     1 * * * 2 * * * 3 * * * 4 * * *   1 * * * 2 * * * 3 * * * 4 * * *
  e|-3---------3-----3---------3-----|-1---------1-----1---------------|
  B|-----------m---------------m-----|-----------2-----1---------------|
  G|-5-----5---5-5---5-----5---5-5---|-2-----2---2-2---1---------------|
  D|-------5---5-----------5---5-----|-------3---3-----3---------------|
  A|-3---3---3-----3-----3---3-----3-|-----3---3-----3-3---------------|
  E|-----------------0---------------|-1---------------1---------------|


VERSE I
     5 (same as 1)                     6
     Csus2                             F               C       x2x010
     1 * * * 2 * * * 3 * * * 4 * * *   1 * * * 2 * * * 3 * * * 4 * * *
  e|-3---------3-----3---------3-----|-1---------------0-------0-------|
  B|-----------m---------------m-----|-----------1-----1-----1---1-----|
  G|-5-----5---5-5---5-----5---5-5---|-2-----2-----------0-----------0-|
  D|-------5---5-----------5---5-----|-------3-------------------------|
  A|-3---3---3-----3-----3---3-----3-|-----3---3---3---3---3---2---2---|
  E|-----------------0---------------|-1-------------------------------|
     na-is kong malaman niya      nag- mamahal   ako             'yan lang

     7                                 8
     Am7             xx0010            G7sus4                  G7
     1 * * * 2 * * * 3 * * * 4 * * *   1 * * * 2 * * * 3 * * * 4 * * *
  e|-----------0-----0---------0-----|---------------------------------|
  B|-1---------1-----1---------1-----|-3---------3-----3---------------|
  G|-----0-----------0-----0---------|-5---------5-----5-------4-------|
  D|---2---2-----2---0---0-----------|-------3---3---------------3-----|
  A|-0-------------------------------|-----5---5-----5-------5-----5---|
  E|---------------------------------|-3---------------3-------3-------|
    ang nag-i-  isang   panga-  rap    ko

     9                                 10
     Am7             3x2010            1x2010          Am7
     1 * * * 2 * * * 3 * * * 4 * * *   1 * * * 2 * * * 3 * * * 4 * * *
  e|-0---------0-----0---------0-----|-0---------0---------------------|
  B|-1-----1---1-----1----1----1-----|-1-----1---1-----1-----1---1-----|
  G|-------0---0-0--------0----0-----|-------0---0-0---0-----0---0-0---|
  D|-----2---2-----2-----2---2-------|-----2---2-----2-----2---2-----2-|
  A|-0-------------------------------|---------------------------------|
  E|-----------------3---------------|-1---------------0---------------|
    gusto ko mang sabihin       'di ko kayang     simulan     pag nag-

     11                                12  .->(1 is barred)
     xx0010          2x023x            3x0211          4m2100
     1 * * * 2 * * * 3 * * * 4 * * *   1 * * * 2 * * * 3 * * * 4 * * *
  e|-0---------0---------------------|-1---------1-----0---------------|
  B|-1-----1---1-----3---------3-----|-1-----1---1-----0---------------|
  G|-0-----0---0-0---2-----2---2-----|-2-----2---2-----1---------------|
  D|-0---0---0-----0-----0---0-------|-----0---0-------2---------------|
  A|---------------------------------|-----------------m---------------|
  E|-----------------2---------------|-3---------------4---------------|
     ki-     ta kayo             paki- sa- bi     na lang          paki-


CHORUS
     13                                14
     577655          C#m7              D               A
     1 * * * 2 * * * 3 * * * 4 * * *   1 * * * 2 * * * 3 * * * 4 * * *
  e|-5---------5-----4---------4-----|-2---------2-----0---------0-----|
  B|-5---------5-----5-----5---5-----|-3-----3---3-----1-----1---1-----|
  G|-6-----6---6-----4-----4---4-----|-----2---2---2---1-----1---1-1---|
  D|-------7---7---------6---6-------|-0-------------0-----1---1----1--|
  A|-----7---7-------4---------------|-----------------0---------------|
  E|-5-------------------------------|---------------------------------|
  sabi na lang na mahal ko siya  'di na baleng may mahal siyang iba  paki-

     15                                16
     F#m7            C#m7              x22222  xx120x  E7sus4  E7
     1 * * * 2 * * * 3 * * * 4 * * *   1 * * * 2 * * * 3 * * * 4 * * *
  e|-----------------4---------4-----|-2---------------------0---------|
  B|-2---------2-----5-----5---5-----|-2-------0-------0-----0-0-------|
  G|-2-----2---2-----4-----4---4-----|-------2-2-------2-----2-1-------|
  D|-----2---2-----------6---6-------|-----2---1-----------0-----------|
  A|-----------------4---------------|-2-----------------2-------------|
  E|-2-------------------------------|-----------------0-------0-------|
  sabing huwag siyang mag-alala  'di ako   uma-  a-  sa          alam

     17                                18
     F#m7            C#m7              D               x21220
     1 * * * 2 * * * 3 * * * 4 * * *   1 * * * 2 * * * 3 * * * 4 * * *
  e|-2---------2-----4---------4-----|-2---------2-----0---------------|
  B|-2-----2---2-----5-----5---5-----|-3---------3-----2---------------|
  G|-2-----2---2-----4-----4---4-----|-------2---2-2---2---------------|
  D|-----2---2-----------6---6-------|-0---0---0-------1---------------|
  A|-----------------4---------------|-----------------2---------------|
  E|-2-------------------------------|---------------------------------|
  kong ito'y   mala- bo       'di ko   na maba-  ba- go              ga-

     19                                20
     Bm7             E7sus4            F
     1 * * * 2 * * * 3 * * * 4 * * *   1 * * * 2 * * * 3 * * * 4 * * *
  e|-----------2-----0---------------|---------------------------------|
  B|-3---------3-----0---------------|-1---------1-----1---------1-----|
  G|-2-----2---2-----2---------------|---------------------------------|
  D|-----4---4-------0---------------|-----3---------------3-----------|
  A|-2---------------2---------------|---3---3-------3---3---3-------3-|
  E|-----------------0---------------|-1---------------1---------------|
    nun pa man   pakisa- bi        na lang

     21
     G7sus4
     1 * * * 2 * * * 3 * * * 4 * * *
  e|-3---------------3---------------|
  B|-----------------3---------------|
  G|-------5---------5---------------|
  D|-----3-------3---3---------------|
  A|---5-------5-----5---------------|
  E|-3-------------3-----------------|


VERSE II (same as VERSE I)
  sana ay malaman niya masaya na rin ako
  kahit na nasasaktan ang puso ko
  wala na 'kong maisip na masmadali pang paraan
  'pag nagkita kayo pakisabi na lang


(repeat CHORUS except measures 20 and 21)


BRIDGE (kayo na bahalang dumiskarte sa pluckings ^^)
        A        C#m7     x57775   x57765
  (pakisabi na lang)   umiibig   ako
         F#m       797977 797877 E7sus4    E7
  (lagi siyang naririto sa puso ko)    pakisabi na lang
          F7sus4  F7
  (puwede ba)


CHORUS II
      A#                  Dm7
  pakisabi na lang na mahal ko siya
         D#                         A#
  'di na baleng may mahal siyang iba
       Gm7                  Dm7
  paki sabi huwag siyang mag-alala
       Cm7       F7sus4 F7
  'di ako umaasa
       Gm7            Dm7
  alam kong ito'y malabo
         D#          x3233x
  'di ko na mababago
    Cm7            F7sus4
  ganun pa man pakisabi na lang


(repeat CHORUS II)


ENDING
  Dm               35333x
     (mahal ko siya)
    F7sus4
  ganun pa man pakisabi...
  F7(hold)     D#sus2                     A#sus2
      na lang         (paki sabi na lang)
      D#sus2                           A#sus2
  pakisabi na lang (paki sabi na lang)
                D#sus2                    A#sus2
  mahal ko siya        (paki sabi na lang)
      D#sus2         A#sus2         D#sus2...
  pakisabi na lang mahal ko siya... (FADING)



*STANDARD TUNING---------------------------------------------------------------


INTRO
  D F#m G Gm
  D F#m G Gm


VERSE I
  D             F#m         G          D  x46650
  nais kong malaman niya nagmamahal ako
            Bm7       E7sus4        A7sus4 A7
  'yan lang ang nag-iisang pangarap ko
  Bm7                 A           G           D
     gusto ko mang sabihin 'di ko kayang simulan
          E7sus4 E7     A7sus4  A7
  'pag nagkita kayo pakisabi na lang


CHORUS
      B                   D#m7
  pakisabi na lang na mahal ko siya
         E                        B
  'di na baleng may mahal siyang iba
      G#m7                D#m7
  pakisabi huwag siyang mag-alala
       C#m7     F#
  'di ako umaasa
       G#m7           D#m7
  alam kong ito'y malabo
         E          x4344x
  'di ko na mababago
    C#m7           F#7sus4      G  A7sus4
  ganun pa man pakisabi na lang


VERSE II (same as VERSE I)
  D           F#m          G             D x46650
  sana ay malaman niya masaya na rin ako
        Bm7         E7sus4        A7sus4 A7
  kahit na nasasaktan ang puso ko
  Bm7                 A             G           D
     wala na 'kong maisip na masmadali pang paraan
          E7sus4   E    A7sus4      A7
  'pag nagkita kayo pakisabi na lang


(repeat CHORUS except last 2 chords)


BRIDGE
        B        D#m7     E        G
  (pakisabi na lang)   umiibig   ako
         G#m          C#7sus4 C#7 F#7sus4    F#7
  (lagi siyang naririto sa  puso ko)    pakisabi na lang
          G7sus4  G7
  (puwede ba)


CHORUS II
      C                   Em
  pakisabi na lang na mahal ko siya
         F                          C
  'di na baleng may mahal siyang iba
       Am7                  Em
  paki sabi huwag siyang mag-alala
       Dm7       G7sus4 G7
  'di ako umaasa
       Am7            Em
  alam kong ito'y malabo
         F           x5455x
  'di ko na mababago
    Dm7            G7sus4
  ganun pa man pakisabi na lang


(repeat CHORUS II)


ENDING
  Em               Am7
     (mahal ko siya)
    Dm
  ganun pa man pakisabi...
  G(hold)     F                          Csus2
      na lang         (paki sabi na lang)
      F                               Csus2
  pakisabi na lang (paki sabi na lang)
                F                         Csus2
  mahal ko siya        (paki sabi na lang)
      F              Csus2          F...
  pakisabi na lang mahal ko siya... (FADING)

===============================================================================
comments
We did not receive enough feedback on this tab! Please rate:
print report bad tab
1 2 3 4 5
I want to post or [tab]
guest
You may want to rate the tab now too:
select rating
Please do not post tabs as comments. Select "correction" instead!