Oops, an error
Loading. Please wait.

Life Happens Tab

4,370 views 3 this week
1 commentread comment
1 2 3 4 5
excellent!
x 1
add to favorites launch autoscroll
font size
0
reset
Autoscroll
+/-
esc
set tempo
stop
Contributor
Difficulty
WARNING: You are trying to view
                                    content from Ultimate-Guitar.com
                                    in an unauthorized application,
                                    which is prohibited.

                                    Please use an official Ultimate
                                    Guitar Tabs application for iPhone,
                                    iPad or Android to access legitimate
                                    chords, guitar, bass, and drum tabs
                                    from Ultimate-Guitar.com database.

                                    Type "ultimate guitar tabs" in Apple
                                    App Store's or Android Market's
                                    search to find the application.
LIFE HAPPENS BY AJ RAFAEL
WATCH IT ON YOUTUBE

ahahaha finally my firsttab  :D
-------------------------------------------------------------------------------
                             life HAPPENS - AJ RAFAEL\\\\
-------------------------------------------------------------------------------
Tabbed by:MichaelCapati
Email:          i.am.spiiderman@hotmail.com
add my bebo:   www.bebo.com/my-kl  :D
Tuning:standard
ahahaha oh yeah, when i put a

..---x---||
..---x---||
..---x---||
..---x---||,it means to do that thing, where you hit the strings with
..---x---|| the palm of your hand, ok?  cool 
..---x---||


Intro
e|-------9-9------------9-------|-------7-7--------------7---------|
B|-------9-9------------9-------|-------7-7--------------7---------|
G|-------9-9------------9-------|-------8-8--------------8---------|
D|------11-11-----------11------|-------9-9--------------9---------|
A|-------x-x------------x-------|-------x-x--------------x---------|
E|---9--------------------------|---7------------------------------|

e|-------5-5------------5-------|-------5-5--------------5---------|
B|-------5-5------------5-------|-------5-5--------------5---------|
G|-------6-6------------6-------|-------6-6--------------6---------|
D|------ 7-7------------7-------|-------7-7--------------7---------|
A|-------x-x------------x-------|-------x-x--------------x---------|
E|---5--------------------------|---5------------------------------|

 1st Verse
e|-------9-9------------9-------|-------7-7--------------7---------|
B|-------9-9------------9-------|-------7-7--------------7---------|
G|-------9-9------------9-------|-------8-8--------------8---------|
D|------11-11-----------11------|-------9-9--------------9---------|
A|-------x-x------------x-------|-------x-x--------------x---------|
E|---9--------------------------|---7------------------------------|

e|-------5-5------------5-------|-------5-5--------------5---------|
B|-------5-5------------5-------|-------5-5--------------5---------|
G|-------6-6------------6-------|-------6-6--------------6---------|
D|------ 7-7------------7-------|-------7-7--------------7---------|
A|-------x-x------------x-------|-------x-x--------------x---------|
E|---5--------------------------|---5------------------------------|


e|-------9-9------------9-------|-------7-7--------------7---------|
B|-------9-9------------9-------|-------7-7--------------7---------|
G|-------9-9------------9-------|-------8-8--------------8---------|
D|------11-11-----------11------|-------9-9--------------9---------|
A|-------x-x------------x-------|-------x-x--------------x---------|
E|---9--------------------------|---7------------------------------|

e|---5--------------------------|---------------------------------|
B|---5--------------------------|---------------------------------|
G|---6--------------------------|---------------------------------|
D|---7--------------------------|---------------------------------|
A|---x--------------------------|---------------------------------|
E|---5--------------------------|---------------------------------|

e|-------9-9------------9-------|-------7-7--------------7---------|
B|-------9-9------------9-------|-------7-7--------------7---------|
G|-------9-9------------9-------|-------8-8--------------8---------|
D|------11-11-----------11------|-------9-9--------------9---------|
A|-------x-x------------x-------|-------x-x--------------x---------|
E|---9--------------------------|---7------------------------------|

e|-------5-5------------5-------|-------5-5--------------5---------|
B|-------5-5------------5-------|-------5-5--------------5---------|
G|-------6-6------------6-------|-------6-6--------------6---------|
D|------ 7-7------------7-------|-------7-7--------------7---------|
A|-------x-x------------x-------|-------x-x--------------x---------|
E|---5--------------------------|---5------------------------------|

e|-------9-9------------9-------|-------7-7--------------7---------|
B|-------9-9------------9-------|-------7-7--------------7---------|
G|-------9-9------------9-------|-------8-8--------------8---------|
D|------11-11-----------11------|-------9-9--------------9---------|
A|-------x-x------------x-------|-------x-x--------------x---------|
E|---9--------------------------|---7------------------------------|

e|---x--------------------------|----------------------------------|
B|---x--------------------------|----------------------------------|
G|---x--------------------------|----------------------------------|
D|---x--------------------------|----------------------------------|
A|---x--------------------------|----------------------------------|
E|---x--------------------------|----------------------------------|




Pre Chorus - you noe what to do with the strumming thing ;)
e|--------------------------------|---------------------------------------|
B|--------------------------------|----5~-5x------------------------------|
G|---6~-6x---------2~-2x----------|----4~-4x------------4~-4x-------------|
D|---7~-7x---------2~-2x----------|----4~-4x------------4~-4x-------------|
A|---7~-7x---------x--xx----------|----x--xx------------x--4x-------------|
E|---5~-5x---------2~-2x----------|----x--xx------------4~-4x-------------|

e|---4~-4x------------------------|--------------------------------------|
B|---5~-5x------------------------|--------------------------------------|
G|---6~-6x----------6~-6x---------|--------------------------------------|
D|---6~-6x----------7~-7x---------|----9-9-9-9-9x------------------------|
A|---4~-4x----------7~-7x---------|----9-9-9-9-9x------------------------|
E|------------------5~-5x---------|----7-7-7-7-7x------------------------|

chorus - figure out struming as well

e|--------------------------------|----------9--------------------------|
B|--9~-9x--x----------------------|----------9--------------------------|
G|--9~-9x--x------8~8x--x---------|----9~-9--10-------------------------| 
D|--9~-9x--x------9~9x--x---------|----11~11-11-----7-----9-------------|
A|--7~-7x--x------9~9x--x---------|----11~11-11-----7-----9-------------|
E|----------------7~7x--x---------|----9~-9--9------5-----7-------------|
        life happens...          

e|--------------------------------|-----------------------------------|
B|--9~-9x--x----------------------|-----------------------------------|
G|--9~-9x--x-----8~8x--x----------|----9------------------------------|
D|--9~-9x--x-----9~9x--x----------|----11-----6------7----------------|
A|--7~-7x--x-----9~9x--x----------|----11-----6------7----------------|
E|---------------7~7x--x----------|----9------4------5----------------|
        life happens...                  


e|--------------------------------|-----------------------0~----------|
B|--------------------------------|-----------------------0~----------|
G|---9~9x---------9~9x------------|---9~9x----------------2~----------|
D|---9~9x---------9~9x------------|---9~9x----------------2~----------|
A|---x~xx---------x~xx------------|---7~7x----------------0~----------|
E|---9~9x---------7~7x------------|-----------------------x-----------|
and the delays..

e|--------------------------------|-----------------------------------|
B|----5~5x------------------------|-----------------------------------|
G|----6~6x---------8~-8-----------|------6x-----------------------8---|
D|----6~6x---------9~-9-----------|------7x-----------------------9---|
A|----4~4x---------9~-9-----------|------7x-----------------------9---|
E|-----------------7~-7-----------|------5x-----------------------7---|
..i know you..     

Post-chorus
e|-------9-9------------9-------|-------7-7--------------7---------|
B|-------9-9------------9-------|-------7-7--------------7---------|
G|-------9-9------------9-------|-------8-8--------------8---------|
D|------11-11-----------11------|-------9-9--------------9---------|
A|-------x-x------------x-------|-------x-x--------------x---------|
E|---9--------------------------|---7------------------------------|

e|-------5-5------------5-------|-------5-5--------------5---------|
B|-------5-5------------5-------|-------5-5--------------5---------|
G|-------6-6------------6-------|-------6-6--------------6---------|
D|------ 7-7------------7-------|-------7-7--------------7---------|
A|-------x-x------------x-------|-------x-x--------------x---------|
E|---5--------------------------|---5------------------------------|
 

2nd verse
e|---9----------------9----------|---7---------------7-----------|
B|---9----------------9----------|---7---------------7-----------|
G|---9----------------9----------|---8---------------8-----------|
D|---11---------------11---------|---9---------------9-----------|
A|---x----------------x----------|---x---------------x-----------|
E|---9----------------9----------|---7---------------7-----------|

e|------------------------------|----------------------------------|
B|------------------------------|----------------------------------|
G|---6--------------------------|----------------------------------|
D|---7--------------------------|----------------------------------|
A|---7--------------------------|----------------------------------|
E|---5--------------------------|----------------------------------|

e|---9----------------9----------|---7---------------7-----------|
B|---9----------------9----------|---7---------------7-----------|
G|---9----------------9----------|---8---------------8-----------|
D|---11---------------11---------|---9---------------9-----------|
A|---x----------------x----------|---x---------------x-----------|
E|---9----------------9----------|---7---------------7-----------|

e|-----------------------------|----------------------------------|
B|---5-5~------------5-5-5-----|--5-5~----------------------------|
G|---6-6~------------6-6-6-----|--6-6~----------------------------|
D|---7-7~------------7-7-7-----|--7-7~----------------------------|
A|---7-7~------------7-7-7-----|--7-7~----------------------------|
E|---5-5~------------5-5-5-----|--5-5~----------------------------|

|-------9-9------------9-------|-------7-7--------------7---------|
B|-------9-9------------9-------|-------7-7--------------7---------|
G|-------9-9------------9-------|-------8-8--------------8---------|
D|------11-11-----------11------|-------9-9--------------9---------|
A|-------x-x------------x-------|-------x-x--------------x---------|
E|---9--------------------------|---7------------------------------|

e|-------5-5------------5-------|-------5-5--------------5---------|
B|-------5-5------------5-------|-------5-5--------------5---------|
G|-------6-6------------6-------|-------6-6--------------6---------|
D|------ 7-7------------7-------|-------7-7--------------7---------|
A|-------x-x------------x-------|-------x-x--------------x---------|
E|---5--------------------------|---5------------------------------|

|-------9-9------------9-------|-------7-7--------------7---------|
B|-------9-9------------9-------|-------7-7--------------7---------|
G|-------9-9------------9-------|-------8-8--------------8---------|
D|------11-11-----------11------|-------9-9--------------9---------|
A|-------x-x------------x-------|-------x-x--------------x---------|
E|---9--------------------------|---7------------------------------|

e|-------5-5------------5-------|-------5-5--------------5---------|
B|-------5-5------------5-------|-------5-5--------------5---------|
G|-------6-6------------6-------|-------6-6--------------6---------|
D|------ 7-7------------7-------|-------7-7--------------7---------|
A|-------x-x------------x-------|-------x-x--------------x---------|
E|---5--------------------------|---5------------------------------|

Pre Chorus - you noe what to do with the strumming thing ;)
e|--------------------------------|---------------------------------------|
B|--------------------------------|----5~-5x------------------------------|
G|---6~-6x---------2~-2x----------|----4~-4x------------4~-4x-------------|
D|---7~-7x---------2~-2x----------|----4~-4x------------4~-4x-------------|
A|---7~-7x---------x--xx----------|----x--xx------------x--4x-------------|
E|---5~-5x---------2~-2x----------|----x--xx------------4~-4x-------------|

e|---4~-4x------------------------|--------------------------------------|
B|---5~-5x------------------------|--------------------------------------|
G|---6~-6x----------6~-6x---------|--------------------------------------|
D|---6~-6x----------7~-7x---------|----9-9-9-9-9x------------------------|
A|---4~-4x----------7~-7x---------|----9-9-9-9-9x------------------------|
E|------------------5~-5x---------|----7-7-7-7-7x------------------------|





2nd chorus sliightly different ahahah

e|--------------------------------|-----------------------------------|
B|-----9--------------------------|-----------------------------------|
G|-----9-----------8--------------|----9------------------------------|
D|-----9-----------9--------------|----9---------------7-------9------|
A|-----7-----------9--------------|----x---------------7-------9------|
E|-----------------7--------------|----9---------------5-------7------|
        life happens...          

e|--------------------------------|-----------------------------------|
B|-----9--------------------------|-----------------------------------|
G|-----9-----------8--------------|----9------------------------------|
D|-----9-----------9--------------|----11-----6------7----------------|
A|-----7-----------9--------------|----11-----6------7----------------|
E|-----------------7--------------|----9------4------5----------------|
        life happens...             


e|--------------------------------|-----------------------0-----------|
B|--------------------------------|-----------------------0-----------|
G|-----9------------9-------------|-----9-----------------2-----------|
D|-----9------------9-------------|-----9-----------------2-----------|
A|-----x------------x-------------|-----7-----------------0-----------|
E|-----9------------7-------------|-----------------------x-----------|
and the delays.. 
e|--------------------------------|-----------------------------------|
B|------5-------------------------|-----------------------------------|
G|------6-------------8-----------|------6x---------------------------|
D|------6-------------9-----------|------7x---------------------------|
A|------4-------------9-----------|------7x---------------------------|
E|--------------------7-----------|------5x---------------------------|
..i know you..     

Bridge
e|-----0-0~-------------------|------0-0---------------0-0~---------------|
B|-----0-0~-------------------|------0-0---------------0-0~---------------|
G|-----2-2~-----2-2~----------|------2-2---------------2-2~---------------|
D|-----2-2~-----2-2~----------|------2-2---------------2-2~---------------|
A|--------------x-x~----------|-------------------------------------------|
E|--------------2-2~----------|-------------------------------------------|

e|-----0-0~-------------------|-------------------------------------------|
B|-----0-0~-------------------|-------------------------------------------|
G|-----2-2~-----2-2~----------|------4------------------------------------|
D|-----2-2~-----2-2~----------|------4--(figure out strumming)------------|
A|--------------x-x~----------|------2------------------------------------|
E|--------------2-2~----------|-------------------------------------------|

e|-----0----------------------|------0-----------------0------------------|
B|-----0----------------------|------0-----------------0------------------|
G|-----2----------2-----------|------2-----------------2------------------|
D|-----2----------2-----------|------2-----------------2------------------|
A|----------------x-----------|-------------------------------------------|
E|----------------2-----------|-------------------------------------------|

e|-----0----------------------|----------------------------------|
B|-----0----------------------|----------------------------------|
G|-----2----------2-----------|------4-4-4-4-4-4-4-4-4-4x--------|
D|-----2----------2-----------|------4-4-4-4-4-4-4-4-4-4x--------|
A|----------------x-----------|------2-2-2-2-2-2-2-2-2-2x--------|
E|----------------2-----------|----------------------------------|


3rd chorus   * OhMyGosh    KEY CHANGE !!!
 e|--------------------------------|-------------------------------------|
B|---------------------------------|--------------------------------------|
G|------------------6~6x-----------|----8~8x------------4-------6---------|
D|-----4~4x---------6~6x-----------|----8~8x------------4-------6---------|
A|-----4~4x---------4~4x-----------|----6~6x------------2-------4---------|
E|-----2~2x------------------------|--------------------------------------|
        life happens...          it   goes by..

e|--------------------------------|-----------------------------------|
B|--------------------------------|-----------------------------------|
G|-----------------6~6x-----------|----8------------------------------|
D|-----4~4x--------6~6x-----------|----8-----8------9-----------------|
A|-----4~4x--------4~4x-----------|----6-----8------9-----------------|
E|-----2~2x-----------------------|----------6------7-----------------|
        life happens...            

e|--11~11x------------------------|----------------------------------|
B|--11~11x------------------------|--11~11x----------8~8x------------|
G|--11~11x------10~10x------------|--11~11x----------9~9x------------|
D|--13~13x------11~11x------------|--11~11x----------9~9x------------|
A|--13~13x------11~11x------------|--9-~9-x----------7~7x------------|
E|--11~11x------9-~9-x------------|----------------------------------|
and the delays.. 

Outro |
e|--------------------------------|---------6x------------------------|
B|--------------------------------|---6h7~--7x----------4-4-4-4-------|
G|--------------------6-x--x-6----|---6~----6x----------4-4-4-4-------|
D|------4~4-x-x-------6-x--x-6----|---6h8~--8x----------4-4-4-4-------|
A|------4~4-x-x-------4-x--x-5----|---6~----6x----------2-2-2-2-------|
E|------2~2-x-x---------x--x------|-----------------------------------|

e|--------------------------------|---------6x------------------------|
B|--------------------------------|---6h7~--7x----------4x------------|
G|--------------------6-x--x-6----|---6~----6x----------4x------------|
D|------4~4-x-x-------6-x--x-6----|---6h8~--8x----------4x------------|
A|------4~4-x-x-------4-x--x-5----|---6~----6x----------2x------------|
E|------2~2-x-x---------x--x------|-----------------------------------|

outro ||
e|-----11-11x--11-------9-9x--9---|---7~~-----------------------------|
B|-----11-11x--11-------9-9x--9---|---7~~-----------------------------|
G|-----11-11x--11-------8-8x--8---|---8~~-----------------------------|
D|-----13-13x--13-------7-7x--7---|---9~~-----------------------------|
A|-----x--x-x--x--------x---------|---9~~-----------------------------|
E|--11~---------------9~----------|---7~~-----------------------------|

e|---------------9~---------------|-----------------------------------|
B|-----------11~------------------|-----------------------------------|
G|--------11~---------------------|-----------------------------------|
D|-----11~------------------------|-----------------------------------|
A|--9~----------------------------|-----------------------------------|
E|--------------------------------|-----------------------------------|



END


NOTE:though im not sure about that


--0--|                             -----|
--0--|                             -----|
--2--|chord, because it could be a --2--|
--2--|                             --2--|
--0--|                             --x--|
--0--|                             --2--|
            

and vice versa..


but yeh its 100% for everything else :D



| /  slide up
| \  slide down
| h  hammer-on
| p  pull-off
| ~  vibrato
| +  harmonic
| x  Mute note
===============================================================================
comments
We did not receive enough feedback on this tab! Please rate:
print report bad tab
1 2 3 4 5
1 comment total.
0 reply
emekablue wrote on October 28 2009, 10:35 pm

"it means to do that thing, where you hit the strings with the palm of your hand, ok? cool"

haha, you meann palm mute?

I want to post or [tab]
guest
You may want to rate the tab now too:
select rating
Please do not post tabs as comments. Select "correction" instead!