Oops, an error
Loading. Please wait.

Wind Tab

ver1
ver1

Whole song

Interactive

More versions @911Tabs.com
16,005 views 42 this week
no commentswrite comment
1 2 3 4 5
please rate
add to favorites launch autoscroll
font size
0
reset
Autoscroll
+/-
esc
set tempo
stop
Contributor
Difficulty
intermediate
WARNING: You are trying to view
                                    content from Ultimate-Guitar.com
                                    in an unauthorized application,
                                    which is prohibited.

                                    Please use an official Ultimate
                                    Guitar Tabs application for iPhone,
                                    iPad or Android to access legitimate
                                    chords, guitar, bass, and drum tabs
                                    from Ultimate-Guitar.com database.

                                    Type "ultimate guitar tabs" in Apple
                                    App Store's or Android Market's
                                    search to find the application.
                            


                 Akeboshi --- by malakian 18

you can play this tablature wth a piano or an acoustica guitar (nylon)



     H        E     H        E     H        E     E  E  E  E  E   
E||--------------|--------------|--------------|-----------------|
B||--------------|--------------|--------------|-----4--3--------|
G||--------------|--------------|--------------|--5--------0--3--|
D||--------------|--------------|--------------|-----------------|
A||--------------|--------------|--------------|-----------------|
E||--------------|--------------|--------------|-----------------|


  E  E  E  E  E     E  E  E  E  E     E  E  E  E  E     E  E  E  E  E   
-----------------|-----------------|-----------------|-----------------|
-----4--1--------|--1--4--3--------|-----4--1--------|--1--4--3--------|
--1-----------3--|-----------0--3--|--1-----------3--|-----------0--3--|
-----------1-----|-----------------|-----------1-----|-----------------|
-----------------|-----------------|-----------------|-----------------|
-----------------|-----------------|-----------------|-----------------|


  E  E  E  E  E     E  E  E  E  E     E  E  E  E  E     H        S. T  
-----------------|-----------------|-----------------|----------------|
-----4--1--------|--1--4--3--------|-----4--1--------|----------------|
--1-----------3--|-----------0--3--|--1-----------3--|--0--------L----|
-----------1-----|-----------------|-----------1-----|----------------|
-----------------|-----------------|-----------------|----------------|
-----------------|-----------------|-----------------|----------------|


  H        E     H        E     Q    S. T E.  T T    Q    S. T E.  T T  
--------------|--------------|--------------------|--------------------|
--------------|--------------|--------------------|--------------------|
--------------|--------------|--------------------|--------------------|
--------------|--------------|--------------------|--------------------|
--------------|--------------|--3----L------------|--------------------|
--------------|--------------|------------3---L---|--4----L------------|


  Q    S. T E.  T T    Q    S. T E.  T T    Q    S. T E.  T T  
--------------------|--------------------|--------------------|
--------------------|--------------------|--------------------|
--------------------|--------------------|--------------------|
--------------------|--------------------|--------------------|
--3----L------------|--------------------|--3----L------------|
------------3---L---|--4----L------------|------------3---L---|


  Q    S. T E.  T T    Q    S. T E.  T T    Q    S. T E.  T T  
--------------------|--------------------|--------------------|
--------------------|--------------------|--------------------|
--------------------|--------------------|--------------------|
--------------------|--------------------|------------1---L---|
--------------------|--3----L------------|--------------------|
--4----L------------|------------3---L---|--4----L------------|


  S. Q    T S E.     S. Q    T S E.     S. Q    T S E.     S. Q    T S E.   
------------------|------------------|------------------|------------------|
------------------|------------------|------------------|------------------|
------------------|------------------|------------------|------------------|
------------------|------------------|------------------|------------------|
--3---------------|------------------|--3---------------|------------------|
------------3-----|--4---------------|------------3-----|--4---------------|


  S. Q    T S E.     S. Q    T S E.     S. Q    T S E.     S. Q    T E.  T T  
------------------|------------------|------------------|--------------------|
------------------|------------------|------------------|--------------------|
------------------|------------------|------------------|--------------------|
------------------|------------------|------------------|--------------------|
--3---------------|------------------|--3---------------|--------------------|
------------3-----|--4---------------|------------3-----|--4-----------------|


  Q    S. T E.  T T    Q    S. T E.  T T    Q    S. T E.  T T  
--------------------|--------------------|--------------------|
--------------------|--------------------|--------------------|
--------------------|--------------------|--------------------|
--------------------|--------------------|--------------------|
--3----L------------|--------------------|--3----L------------|
------------3---L---|--4----L------------|------------3---L---|


  Q    S. T E.  T T    S. Q    T S E.     S. Q    T S E.     S. Q    T S E.   
--------------------|------------------|------------------|------------------|
--------------------|------------------|------------------|------------------|
--------------------|------------------|------------------|------------------|
--------------------|------------------|------------------|------------------|
--------------------|--3---------------|------------------|--3---------------|
--4----L------------|------------3-----|--4---------------|------------3-----|


  S. Q    T S E.     S. Q    T S E.     S. Q    T S E.     S. Q    T S E.   
------------------|------------------|------------------|------------------|
------------------|------------------|------------------|------------------|
------------------|------------------|------------------|------------------|
------------------|------------------|------------------|------------------|
------------------|--3---------------|------------------|--3---------------|
--4---------------|------------3-----|--4---------------|------------3-----|


  S. Q    T E.  T T    Q    S. T E.  T T    Q    S. T E.  T T  
--------------------|--------------------|--------------------|
--------------------|--------------------|--------------------|
--------------------|--------------------|--------------------|
--------------------|--------------------|--------------------|
--------------------|--3----L------------|--------------------|
--4-----------------|------------3---L---|--4----L------------|


  Q    S. T E.  T T    Q    S. T E.  T T    Q    S. T E.  T T  
--------------------|--------------------|--------------------|
--------------------|--------------------|--------------------|
--------------------|--------------------|--------------------|
--------------------|--------------------|--------------------|
--3----L------------|--------------------|--3----L------------|
------------3---L---|--4----L------------|------------3---L---|


  Q    S. T E.  T T    Q    S. T E.  T T    Q    S. T E.  T T  
--------------------|--------------------|--------------------|
--------------------|--------------------|--------------------|
--------------------|--------------------|--------------------|
--------------------|--------------------|--------------------|
--------------------|--3----L------------|--------------------|
--4----L------------|------------3---L---|--4----L------------|


  Q    S. T E.  T T    Q    S. T E.  T T    Q    S. T E.  T T  
--------------------|--------------------|--------------------|
--------------------|--------------------|--------------------|
--------------------|--------------------|--------------------|
--------------------|--------------------|--------------------|
--3----L------------|--------------------|--3----L------------|
------------3---L---|--4----L------------|------------3---L---|


  Q    S. T E.  T T    Q    S. T E.  T T    Q    S. T E.  T T  
--------------------|--------------------|--------------------|
--------------------|--------------------|--------------------|
--------------------|--------------------|--------------------|
--------------------|--------------------|--------------------|
--------------------|--3----L------------|--------------------|
--4----L------------|------------3---L---|--4----L------------|


  Q    S. T E.  T T    Q    S. T E.  T T E     Q    S. T E.  T T  
--------------------|-----------------------|--------------------|
--------------------|-----------------------|--------------------|
--------------------|-----------------------|--------------------|
--------------------|-----------------------|--------------------|
--3----L------------|-----------------------|--------------------|
------------3---L---|--4----L---------------|--1----L----3---L---|


  Q    S. T E.  T T    Q    S. T E.  T T    Q    S. T E.  T T  
--------------------|--------------------|--------------------|
--------------------|--------------------|--------------------|
--------------------|--------------------|--------------------|
--------------------|--------------------|--------------------|
--3----L----1---L---|--------------------|--3----L----1---L---|
--------------------|--1----L----3---L---|--------------------|


  Q    S. T E.  T T    Q    S. T E.  T T    Q    S. T E.  T T  
--------------------|--------------------|--------------------|
--------------------|--------------------|--------------------|
--------------------|--------------------|--------------------|
--------------------|--------------------|--------------------|
--------------------|--3----L----1---L---|--------------------|
--1----L----3---L---|--------------------|--1----L----3---L---|


  Q    S. Q    T    Q    S. T E.  T T    Q    S. T E.  T T  
-----------------|--------------------|--------------------|
-----------------|--------------------|--------------------|
-----------------|--------------------|--------------------|
-----------------|--------------------|--------------------|
--1----L---------|--3----L------------|--------------------|
-----------------|------------3---L---|--4----L------------|


  Q    S. T E.  T T    Q    S. T E.  T T    Q    S. T E.  T T  
--------------------|--------------------|--------------------|
--------------------|--------------------|--------------------|
--------------------|--------------------|--------------------|
--------------------|--------------------|--------------------|
--3----L------------|--------------------|--3----L------------|
------------3---L---|--4----L------------|------------3---L---|


  Q    S. T E.  T T    Q    S. T E.  T T    Q    S. T E.  T T  
--------------------|--------------------|--------------------|
--------------------|--------------------|--------------------|
--------------------|--------------------|--------------------|
--------------------|--------------------|--------------------|
--------------------|--3----L------------|--------------------|
--4----L------------|------------3---L---|--4----L------------|


  Q    S. T E.  T T    Q    S. T E.  T T    Q    S. T E.  T T  
--------------------|--------------------|--------------------|
--------------------|--------------------|--------------------|
--------------------|--------------------|--------------------|
--------------------|--------------------|--------------------|
--3----L------------|--------------------|--3----L------------|
------------3---L---|--4----L------------|------------3---L---|


  Q    S. T E.  T T    Q    S. T E.  T T    Q    S. T E.  T T  
--------------------|--------------------|--------------------|
--------------------|--------------------|--------------------|
--------------------|--------------------|--------------------|
--------------------|--------------------|--------------------|
--------------------|--3----L------------|--------------------|
--4----L------------|------------3---L---|--4----L------------|


  E.  T T E  E  E     Q    S. T E.  T T    Q    S. T E.  T T  
-------------------|--------------------|--------------------|
-------------------|--------------------|--------------------|
-------------------|--------------------|--------------------|
-------------------|--------------------|--------------------|
--3---L---------1--|--------------------|--3----L------------|
----------3--4-----|--4----L------------|------------3---L---|


  Q    S. T E.  T T    Q    S. T E.  T T    Q    S. T E.  T T  
--------------------|--------------------|--------------------|
--------------------|--------------------|--------------------|
--------------------|--------------------|--------------------|
--------------------|--------------------|--------------------|
--------------------|--3----L------------|--------------------|
--4----L------------|------------3---L---|--4----L------------|


  Q    S. T E.  T T    Q    S. T E.  T T    Q    S. T E.  T T  
--------------------|--------------------|--------------------|
--------------------|--------------------|--------------------|
--------------------|--------------------|--------------------|
--------------------|--------------------|--------------------|
--3----L------------|--------------------|--3----L------------|
------------3---L---|--4----L------------|------------3---L---|


  Q    S. T E.  T T    Q    S. T E.  T T    H        S. T    Q    S. T E.  T T  
--------------------|--------------------|----------------|--------------------|
--------------------|--------------------|----------------|--------------------|
--------------------|--------------------|----------------|--------------------|
--------------------|--------------------|----------------|--------------------|
--------------------|--3----L----3---L---|--3--------L----|--3----L----3---L---|
--4----L------------|--------------------|----------------|--------------------|


  H        S. T    Q    S. T E.  T T    H        S. T    Q    S. T E.  T T  
----------------|--------------------|----------------|--------------------|
----------------|--------------------|----------------|--------------------|
----------------|--------------------|----------------|--------------------|
----------------|--------------------|----------------|--------------------|
--3--------L----|--3----L----3---L---|--3--------L----|--3----L----3---L---|
----------------|--------------------|----------------|--------------------|


  H        E     H        E     H        E     H        E     H        E   
--------------|--------------|--------------|--------------|--------------|
--------------|--------------|--------------|--------------|--------------|
--------------|--------------|--------------|--------------|--------------|
--------------|--------------|--------------|--------------|--------------|
--3--------L--|--------------|--------------|--------------|--------------|
--------------|--------------|--------------|--------------|--------------|


  H        E     H        E     H        E     H        E     H        E   
--------------|--------------|--------------|--------------|--------------|
--------------|--------------|--------------|--------------|--------------|
--------------|--------------|--------------|--------------|--------------|
--------------|--------------|--------------|--------------|--------------|
--------------|--------------|--------------|--------------|--------------|
--------------|--------------|--------------|--------------|--------------|


  H        E     Q    S. T E.  T T    Q    S. T E.  T T    Q    S. T E.  T T  
--------------|--------------------|--------------------|--------------------|
--------------|--------------------|--------------------|--------------------|
--------------|--------------------|--------------------|--------------------|
--------------|--------------------|--------------------|--------------------|
--------------|--3----L------------|--------------------|--3----L------------|
--------------|------------3---L---|--4----L------------|------------3---L---|


  Q    S. T E.  T T    Q    S. T E.  T T    Q    S. T E.  T T  
--------------------|--------------------|--------------------|
--------------------|--------------------|--------------------|
--------------------|--------------------|--------------------|
--------------------|--------------------|--------------------|
--------------------|--3----L------------|--------------------|
--4----L------------|------------3---L---|--4----L------------|


  Q    S. T E.  T T    Q    S. T E.  T T    Q    S. T E.  T T  
--------------------|--------------------|--------------------|
--------------------|--------------------|--------------------|
--------------------|--------------------|--------------------|
--------------------|--------------------|--------------------|
--3----L------------|--------------------|--3----L------------|
------------3---L---|--4----L------------|------------3---L---|


  Q    S. T E.  T T    Q    S. T E.  T T    Q    S. T E.  T T  
--------------------|--------------------|--------------------|
--------------------|--------------------|--------------------|
--------------------|--------------------|--------------------|
--------------------|--------------------|--------------------|
--------------------|--3----L------------|--------------------|
--4----L------------|------------3---L---|--4----L------------|


  Q    S. T E.  T T    Q    S. T E.  T T    Q    S. T E.  T T  
--------------------|--------------------|--------------------|
--------------------|--------------------|--------------------|
--------------------|--------------------|--------------------|
--------------------|--------------------|--------------------|
--3----L------------|--------------------|--3----L------------|
------------3---L---|--4----L------------|------------3---L---|


  Q    S. T Q       H        E    
-----------------|--------------||
-----------------|--------------||
-----------------|--------------||
-----------------|--------------||
-----------------|--------------||
--4----L---------|--------------||




Duration Legend
---------------
W - whole
H - half
Q - quarter
E - 8th
S - 16th
T - 32nd
X - 64th
. - note dotted
|-n-|  - n-tuplets


Tablature Legend
----------------
L - tied note
x - dead note
g - grace note
(n) - ghost note
> - accentuded note
NH - natural harmonic
AH - artificial harmonic
TH - tapped harmonic
SH - semi harmonic
PH - pitch harmonic
h - hammer on
p - pull off
b - bend
br - bendRelease
pb - preBend
pbr - preBendRelease
brb - bendReleaseBend
\n/ - tremolo bar dip
\n - tremolo bar dive
-/n - tremolo bar Release up
/n\ - tremolo bar inverted dip
/n - tremolo bar return
-\n - tremolo bar Release down
S - shift slide
s - legato slide
/ -  slide into from below or out of upwards
\ -  slide into from above or out of downwards
~ - vibrato
W - wide vibrato
tr - trill
TP - tremolo picking
T - tapping
S - slap
P - pop
< - fade in
^ - brush up
v - brush down
comments
We did not receive enough feedback on this tab! Please rate:
print report bad tab
1 2 3 4 5
I want to post or [tab]
guest
You may want to rate the tab now too:
select rating
Please do not post tabs as comments. Select "correction" instead!