Oops, an error
Loading. Please wait.

Lady Of Rome Sister Of Brazil Tab

ver1
ver1

Whole song

Interactive

More versions @911Tabs.com
962 views 18 this week
no commentswrite comment
1 2 3 4 5
excellent!
x 3
add to favorites launch autoscroll
font size
0
reset
Autoscroll
+/-
esc
set tempo
stop
Contributor
Difficulty
intermediate
WARNING: You are trying to view
                                    content from Ultimate-Guitar.com
                                    in an unauthorized application,
                                    which is prohibited.

                                    Please use an official Ultimate
                                    Guitar Tabs application for iPhone,
                                    iPad or Android to access legitimate
                                    chords, guitar, bass, and drum tabs
                                    from Ultimate-Guitar.com database.

                                    Type "ultimate guitar tabs" in Apple
                                    App Store's or Android Market's
                                    search to find the application.
                         LADY OF ROME, SISTER OF BRAZIL
                           As recorded by Al Di Meola
                       (From the 1977 Album ELEGANT GYPSY)

Music by Al Di Meola
Transcribed by MRFairbrother

          Bm7                  Dm7                 C#m7                 F#7b9
      7 9 7 7 7 7          5 5 7 5 6 5          9 x 9 9 9 9          9 x 8 9 8 x

         E7b9                 Amaj7                G6/A
      7 x 6 7 6 x          5 x 6 6 5 x          5 x 5 4 5 x

Gtr I (E A D G B E) - 'Acoustic 1'
Gtr II (E A D G B E) - 'Acoustic 2'

 Intro
  Q=96
  Bm7                             Dm7
 4/4
  Gtr I
                                  |-3-|
   W          +H.          E  E   S S S E +H.
|-----------|-------------------|---------------------|
|-----------|-------------------|---------------------|
|--9--------|-(9)----------7--6-|-6h7p6---------------|
|-----------|-------------------|-------9-(9)---------|
|-----------|-------------------|---------------------|
|-----------|-------------------|---------------------|
|
| Gtr II
|  W          +H      E E +Q      Q        E  E  H
|-^7--------|-(7)----^9-7-(7)---|---------------^5----|
|-^7--------|-(7)----^7---------|---------------^6----|
|-^7--------|-(7)----^7---------|-------------5-------|
|-^7--------|-(7)----^7---------|----------7----------|
|-^9--------|-(9)----^9---------|-5-------------------|
|-^7--------|-(7)----^7---------|---------------------|
                                  W


                       C#m7
  +H.         E E      W              +H.             a E a  E
|--------------------|-------------|--------------------------------|
|--------------------|-------------|--------------------------------|
|--------------------|-6-----------|--(6)-------------6h7-6h=7------|
|-(9)---------7-9----|-------------|--------------------------------|
|--------------------|-------------|--------------------------------|
|--------------------|-------------|--------------------------------|
|
| +H      E E E E a    Q   H.          E   E  E E E E   E    E a
|-(5)----^5-8-7-5----|----^4-------|-^-9--12-10-9-------------------|
|-(6)----^6-------6\-|----^5-------|-^-9----------9-----------------|
|--------^5----------|----^4-------|-^-9------------9---------------|
|--------^7----------|----^6-------|-^-9----------------9-----------|
|--------^5----------|-4-----------|-^11--------------------11------|
|--------------------|-------------|-^-9-----------------------9\---|
                       W


  F#7b9                               Bm7
                                      |-3-|
   W          +H.            a E  E   S S S E +H.
|-----------|-----------------------|---------------------|
|-----------|-----------------------|---------------------|
|--6--------|-(6)------------6h7--6-|-6-------------------|
|-----------|-----------------------|---9-9-9-(9)---------|
|-----------|-----------------------|---------------------|
|-----------|-----------------------|---------------------|
|
|  W          +Q     E E E E   E  E   Q        H.       a
|-----------|-----------------------|---------^7-------!7-|
|-^8--------|-(8)--^10-8------------|---------^7-------!7-|
|-^9--------|-(9)--^-9---9----------|---------^7-------!7-|
|-^8--------|-(8)--^-8-----8--------|---------^7----------|
|-^x--------|-(9)--^-9--------------|---------^9----------|
|-^9--------|------------------9\-6s|=7-------------------|
                                      W


                          E7b9
  +H         +Q.     E    E  E  E  E  E  Q  a E   +Q    E  E  E  a  Q.
|-----------------------|----------------5S=7h9-|-(9)---7-------10h12--------||
|-----------------------|-------------7---------|---------10S12--------------||
|-----------------------|----6--7--9------------|----------------------------||
|-(9)--------(9)-----7--|-9---------------------|----------------------------||
|-----------------------|-----------------------|----------------------------||
|-----------------------|-----------------------|----------------------------||
|
|  E  E  E E +E  E E E    E  E +Q    +H            E  E E  E  E     E  Q
|-^9--7-----------------|-----------------------|----------------------------||
|-^7----10-7-(7)--------|-----------------------|-^8--6----------------------||
|-^7-------------7------|-----------------------|-^7----7--------------------||
|------------------7-9\-|---^6-(6)---(6)--------|-^6-------6--------6--9\----||
|-----------------------|---^x-(x)---(x)--------|-^7----------7--------------||
|-----------------------|-7---------------------|--0-------------------------||
                          W                        W


 Bridge
  Q=106
  Amaj7                                        G6/A
   TP                 TP          TP  TP   TP   TP                TP         TP TP    TP
                                  |---3----|                                 |---3----|
   W                 +H          +Q   Q    Q    W                +H         +Q  Q     Q
|-12--------------|-(12)--------(12)-10----9-|-10-------------|-(10)-------(10)-9-------|
|-----------------|--------------------------|----------------|----------------------12-|
|-----------------|--------------------------|----------------|-------------------------|
|-----------------|--------------------------|----------------|-------------------------|
|-----------------|--------------------------|----------------|-------------------------|
|-----------------|--------------------------|----------------|-------------------------|
|
|  Q  E E Q  +Q       q    E  E   q      Q      E E Q  +H         q    E E   q     Q
|-----------------|--------------------------|----------------|-------------------------|
|-^5--x-5-5--(5)--|--14---12-10--12-----10---|----------------|--12---10-8--12----10----|
|-^6--x-6-6--(6)--|--------------------------|------4--(4)----|-------------------------|
|-^6--x-6-6--(6)--|--11----9--7---9------7---|----5-----------|---9----7-5---9-----7----|
|-----------------|--------------------------|--0-------------|-------------------------|
|-^5--x-5-5--(5)--|--------------------------|----------------|-------------------------|
                                                W


  Amaj7                                      G6/A
  TP                TP         TP  TP    TP   TP                TP
                               |----3----|
  W                +H         +Q   Q     Q    W                +W
|-9--------------|-(9)--------(9)----------|----------------|-------------------------||
|----------------|----------------12----10-|-12-------------|-(12)--------------------||
|----------------|-------------------------|----------------|-------------------------||
|----------------|-------------------------|----------------|-------------------------||
|----------------|-------------------------|----------------|-------------------------||
|----------------|-------------------------|----------------|-------------------------||
|
| E E  Q  +H        q    E  E  q      Q       E E Q  +H         q    E E +q   E  e
|----------------|-------------------------|----------------|-------------------------||
|-----^5--(5)----|-14---12-10-12-----14----|----------------|--12---10-8-(8)----10----||
|-----^6--(6)----|-------------------------|------7--(7)----|-------------------------||
|---6------------|-11----9--7--9-----11----|----5-----------|---9----7-5-(5)-----7----||
|----------------|-------------------------|--0-------------|-------------------------||
|-5--------------|-------------------------|----------------|-------------------------||
  W                                           W


 Solo
  Bm7                                         Dm7
  Gtr II
  Q   Q   E E Q      Q   Q    E  E    E   E   Q           Q   E E Q
  |   |   | | |      |   |    |  |    |   |   |           |   | | |
  /   /   x / /      /   /    x  /    /   /   /           /   x / /

                              |----3----|     |-3--|
  Q   H.            +H       +Q     Q   Q     S  S S  E  +H.
|----12----------|-(12)-----(12)---10---9---|-9h10p9-----------------|
|----------------|--------------------------|--------12-(12)---------|
|----------------|--------------------------|------------------------|
|----------------|--------------------------|------------------------|
|----------------|--------------------------|------------------------|
|----------------|--------------------------|------------------------|


                       C#m7
    Q   Q   E E  E E   Q  Q  E E Q     Q   Q   E  E E    E
    |   |   | |  | |   |  |  | | |     |   |   |  | |    |
    /   /   x /  / /   /  /  x / /     /   /   x  / /    /

                       TP              TP
   +H       Q    Q     W              +H      +Q.     a  E
|--------------------|-9------------|-(9)-----(9)-----9h10-|
|-(12)-----10---12---|--------------|----------------------|
|--------------------|--------------|----------------------|
|--------------------|--------------|----------------------|
|--------------------|--------------|----------------------|
|--------------------|--------------|----------------------|


  F#7b9                                           Bm7
  Q  Q  E E Q     Q         Q         E  E  E E    Q   Q         E E Q
  |  |  | | |     |         |         |  |  | |    |   |         | | |
  /  /  x / /     /         /         x  /  / /    /   /         x / /

                                                         |-3--|
  W              +E  a  a Q   a  a E +E  E  E E   +Q.    S  S S  H
|-9------------|-(9)-9h10p9---9h10p9-(9)-9----9-|-(9)----9-10-9---------|
|--------------|---------------------------12---|---------------12------|
|--------------|--------------------------------|-----------------------|
|--------------|--------------------------------|-----------------------|
|--------------|--------------------------------|-----------------------|
|--------------|--------------------------------|-----------------------|


                       E7b9
    Q   Q  E E  E  E       Q  Q  E E Q      Q   Q    E  E     E E
    |   |  | |  |  |       |  |  | | |      |   |    |  |     | |
    /   /  x /  /  /       /  /  x / /      /   /    x  /     / /

                           TP               TP       TP
   +H.          E  E    a  W               +H       +E.    S  E E
|--------------------|------------------|---------------------------|
|-(12)---------10-10-|-10h12------------|-(12)-----(12)---10--------|
|--------------------|------------------|--------------------11-9---|
|--------------------|------------------|---------------------------|
|--------------------|------------------|---------------------------|
|--------------------|------------------|---------------------------|


  Amaj7                                                      G6/A
   Q  Q  E E Q    Q         Q          E    E     E   E          Q     Q    E  E Q
   |  |  | | |    |         |          |    |     |   |          |     |    |  | |
   /  /  x / /    /         /          x    /     /   /          /     /    x  / /

                    PM--------|
                    |--3--|            |---3---|  |--3---|
   W              E S  S  S S  S  S  S E  E    E  E E    E    a  E  Q.     +H
|---------------|----------------------9-10---12-10-9------|------------------------|
|-10------------|----------------10-12------------------10-|-10h12-12-----(12)------|
|---------------|-----------9-11---------------------------|------------------------|
|---------------|---9-11-12--------------------------------|------------------------|
|---------------|------------------------------------------|------------------------|
|---------------|------------------------------------------|------------------------|


                            Amaj7
   Q  Q    E  E    E    E    Q  Q  E E Q    Q   Q            E    E     E     E
   |  |    |  |    |    |    |  |  | | |    |   |            |    |     |     |
   /  /    x  /    /    /    /  /  x / /    /   /            x    /     /     /

   TP      TP    TP   TP     TP                 PM------------------------|
           |----3-----|                         |-3--|
   H      +Q     Q    Q      W              Q   S S  S  S S  S  S S  S  S  E.
|-14-----(14)---12--------|---------------|----------------------------------------|
|--------------------15---|-14------------|----------------------------------------|
|-------------------------|---------------|---------------9------------------------|
|-------------------------|---------------|-------9-11-12---12-11-9----11----------|
|-------------------------|---------------|----12-------------------12----12-------|
|-------------------------|---------------|----------------------------------------|


  G6/A
   Q     Q     E     E Q            Q          Q            E  E    E    E
   |     |     |     | |            |          |            |  |    |    |
   /     /     x     / /            /          /            x  /    /    /

   PM--------------------------------------------------------------------------
                                               |-3--|
   S e.  S e.  S  e.   S  S  S S    S  S S  S  S S  S  S S  E  S S  S S  S  S
|----------------------9----10-9-|--------------------------------------------|
|-------10----12-10------12------|-12-10-9-12-10-9----10-9--------------------|
|-11-9-----9---------------------|-----------------11------11-11-9------------|
|--------------------------------|---------------------------------12-9-11----|
|--------------------------------|-----------------------------------------12-|
|--------------------------------|--------------------------------------------|


  Amaj7
  Q       Q          E E      Q
  |       |          | |      |
  /       /          x /      /

 --------------------------------|
             |-3--|
  S S  E  E  S  S S  E S  S  +S   E.
|--------------------------------------|
|--------------------------------------|
|--------------------------------------|
|---9-------------9-11-9---------------|
|-9---12-12-11-12--------12-(12)-12----|
|--------------------------------------|


                                         G6/A
  Q       Q     E       E    E    E        Q         Q         E     E    Q
  |       |     |       |    |    |        |         |         |     |    |
  /       /     x       /    /    /        /         /         x     /    /

  PM--------------------------------------------------------------------------------
                |--3--|
  S  S E  E  E  S  S  S S S  S  S S  S    +S  E  S  +S  E  S  +S   E   S +S   E  S
|--------------------------------------|-------------------------------------------|
|--------------------------------------|-------------------------------------------|
|-----------------------9--------------|------9-11-(11)-9--------------------------|
|-9-11-9-------------11---9-12-11-9-11-|-(11)-------------12-(12)-11---9-(9)-------|
|--------12-12-11-12-------------------|-------------------------------------12-11-|
|--------------------------------------|-------------------------------------------|


    Q          Q       E    E   E   E
    |          |       |    |   |   |
    /          /       x    /   /   /

 ---------------------|
   +S   E  S  +S  E S +S  S S S S S S S
|---------------------------------------|
|---------------------------------------|
|---------------------------------------|
|-------------------------------------2-|
|-(11)--------------0-(0)-------0-2-4---|
|------12-10-(10)-9-------0-2-4---------|


  Amaj7                                            G6/A
  Q       Q     E    E   Q     Q   Q   E  E E  E    Q  Q  E E Q
  |       |     |    |   |     |   |   |  | |  |    |  |  | | |
  /       /     x    /   /     /   /   x  / /  /    /  /  x / /

                         TP    TP      TP      TP   TP
          |-3-| |--3---|
  S S S S E E E E  E   E Q    +H      +Q.      E    W
|----------------------7-9--|-(9)-----(9)--------|-10S===========|
|-------------7-9-10--------|-----------------10-|---------------|
|-----2S6-7-9---------------|--------------------|---------------|
|-4-5-----------------------|--------------------|---------------|
|---------------------------|--------------------|---------------|
|---------------------------|--------------------|---------------|


                     Amaj7
   Q  Q   E E  E E    Q  Q  E E Q    Q  Q  E E E E
   |  |   | |  | |    |  |  | | |    |  |  | | | |
   /  /   x /  / /    /  /  x / /    /  /  x / / /

   TP     TP   TP     TP
   H      Q    Q      W              W
|-14-----12---10---|---------------|---------------*|
|------------------|-14------------|---------------*|
|------------------|---------------|---------------*|
|------------------|---------------|---------------*|
|------------------|---------------|---------------*|
|------------------|---------------|---------------*|
comments
We did not receive enough feedback on this tab! Please rate:
print report bad tab
1 2 3 4 5
I want to post or [tab]
guest
You may want to rate the tab now too:
select rating
Please do not post tabs as comments. Select "correction" instead!