Oops, an error
Loading. Please wait.

Im In A Hurry Tab

ver1
ver1

Whole song

Interactive

More versions @911Tabs.com
4,939 views 35 this week
no commentswrite comment
1 2 3 4 5
excellent!
x 3
Autoscroll
+/-
esc
set tempo
stop
Contributor
Difficulty
intermediate
Hey! There's an official Ultimate Guitar app which is ideal
for learning songs when you're away from computer. Get the app
WARNING: You are trying to view
                                    content from Ultimate-Guitar.com
                                    in an unauthorized application,
                                    which is prohibited.

                                    Please use an official Ultimate
                                    Guitar Tabs application for iPhone,
                                    iPad or Android to access legitimate
                                    chords, guitar, bass, and drum tabs
                                    from Ultimate-Guitar.com database.

                                    Type "ultimate guitar tabs" in Apple
                                    App Store's or Android Market's
                                    search to find the application.
-----------------------------------------------------------------------------
          I'm In A Hurry (And Don't Know Why) - Alabama (GUITAR)
                       
-----------------------------------------------------------------------------
Tabbed by: Scotto10

Tuning: Standard

=============================================================================

Guitar



     W                   W                   W                 
E||-------------------|-------------------|-------------------|
B||-------------------|-------------------|-------------------|
G||-------------------|-------------------|-------------------|
D||-------------------|-------------------|-------------------|
A||-------------------|-------------------|-------------------|
E||-------------------|-------------------|-------------------|


  W                   W                   W                   W                 
-------------------|-------------------|-------------------|-------------------|
-------------------|-------------------|-------------------|-------------------|
-------------------|-------------------|-------------------|-------------------|
-------------------|-------------------|-------------------|-------------------|
-------------------|-------------------|-------------------|-------------------|
-------------------|-------------------|-------------------|-------------------|


  W                   E  E  H.              E  E  H.            
-------------------|--0--0---------------|--0--0---------------|
-------------------|--2--2---------------|--0--0---------------|
-------------------|--2--2---------------|--1--1---------------|
-------------------|--2--2---------------|--2--2---------------|
-------------------|--0--0---------------|--2--2---------------|
-------------------|---------------------|--0--0---------------|


  E  E  H.              E  E  H.              E  E  H.            
--2--2---------------|--2--2---------------|--0--0---------------|
--2--2---------------|--3--3---------------|--2--2---------------|
--2--2---------------|--2--2---------------|--2--2---------------|
--4--4---------------|--0--0---------------|--2--2---------------|
--4--4---------------|---------------------|--0--0---------------|
--2--2---------------|---------------------|---------------------|


  E  E  H.              E  E  H.              E  E  Q    E  E  E  E   
--0--0---------------|--2--2---------------|--2--2-------5--5--5--2--|
--0--0---------------|--2--2---------------|--3--3-------2--2--2--3--|
--1--1---------------|--2--2---------------|--2--2-------2--2--2--x--|
--2--2---------------|--4--4---------------|--0--0-------0--0--0--0--|
--2--2---------------|--4--4---------------|-------------------------|
--0--0---------------|--2--2---------------|-------------------------|


  E  E  E  E  E  E  E  E     E  E  E  E  E  E  E  E   
--0--0--0--0--0--0--0--0--|--0--0--0--0--0--0--0--0--|
--2--2--2--2--2--2--2--2--|--0--0--0--0--0--0--0--0--|
--2--2--2--2--2--2--2--2--|--1--1--1--1--1--1--1--1--|
--2--2--2--2--2--2--2--2--|--2--2--2--2--2--2--2--2--|
--0--0--0--0--0--0--0--0--|--2--2--2--2--2--2--2--2--|
--------------------------|--0--0--0--0--0--0--0--0--|


  E  E  E  E  E  E  E  E     E  E  E  E  E  E  E  E   
--2--2--2--2--2--2--2--2--|--2--2--2--2--2--2--2--2--|
--2--2--2--2--2--2--2--2--|--3--3--3--3--3--3--3--3--|
--2--2--2--2--2--2--2--2--|--2--2--2--2--2--2--2--2--|
--4--4--4--4--4--4--4--4--|--0--0--0--0--0--0--0--0--|
--4--4--4--4--4--4--4--4--|--------------------------|
--2--2--2--2--2--2--2--2--|--------------------------|


  E  E  E  E  E  E  E  E     E  E  E  E  E  E  E  E   
--0--0--0--0--0--0--0--0--|--0--0--0--0--0--0--0--0--|
--2--2--2--2--2--2--2--2--|--0--0--0--0--0--0--0--0--|
--2--2--2--2--2--2--2--2--|--1--1--1--1--1--1--1--1--|
--2--2--2--2--2--2--2--2--|--2--2--2--2--2--2--2--2--|
--0--0--0--0--0--0--0--0--|--2--2--2--2--2--2--2--2--|
--------------------------|--0--0--0--0--0--0--0--0--|


  E  E  E  E  E  E  E  E     E  E  E  E  E  E  E  E     E  E  H.            
--2--2--2--2--2--2--2--2--|--2--2--2--2--2--2--2--2--|--0--0---------------|
--2--2--2--2--2--2--2--2--|--3--3--3--3--3--3--3--3--|--2--2---------------|
--2--2--2--2--2--2--2--2--|--2--2--2--2--2--2--2--2--|--2--2---------------|
--4--4--4--4--4--4--4--4--|--0--0--0--0--0--0--0--0--|--2--2---------------|
--4--4--4--4--4--4--4--4--|--------------------------|--0--0---------------|
--2--2--2--2--2--2--2--2--|--------------------------|---------------------|


  E  E  H.              E  E  H.              E  E  H.            
--0--0---------------|--2--2---------------|--2--2---------------|
--0--0---------------|--2--2---------------|--3--3---------------|
--1--1---------------|--2--2---------------|--2--2---------------|
--2--2---------------|--4--4---------------|--0--0---------------|
--2--2---------------|--4--4---------------|---------------------|
--0--0---------------|--2--2---------------|---------------------|


  E  E  H.              E  E  H.              E  E  H.            
--0--0---------------|--0--0---------------|--2--2---------------|
--2--2---------------|--0--0---------------|--2--2---------------|
--2--2---------------|--1--1---------------|--2--2---------------|
--2--2---------------|--2--2---------------|--4--4---------------|
--0--0---------------|--2--2---------------|--4--4---------------|
---------------------|--0--0---------------|--2--2---------------|


  E  E  Q    E  E  E  E     E  E  E  E  E  E  E  E     E  E  E  E  E  E  E  E   
--2--2-------5--5--5--2--|--0--0--0--0--0--0--0--0--|--0--0--0--0--0--0--0--0--|
--3--3-------2--2--2--3--|--2--2--2--2--2--2--2--2--|--0--0--0--0--0--0--0--0--|
--2--2-------2--2--2--x--|--2--2--2--2--2--2--2--2--|--1--1--1--1--1--1--1--1--|
--0--0-------0--0--0--0--|--2--2--2--2--2--2--2--2--|--2--2--2--2--2--2--2--2--|
-------------------------|--0--0--0--0--0--0--0--0--|--2--2--2--2--2--2--2--2--|
-------------------------|--------------------------|--0--0--0--0--0--0--0--0--|


  E  E  E  E  E  E  E  E     E  E  E  E  E  E  E  E   
--2--2--2--2--2--2--2--2--|--2--2--2--2--2--2--2--2--|
--2--2--2--2--2--2--2--2--|--3--3--3--3--3--3--3--3--|
--2--2--2--2--2--2--2--2--|--2--2--2--2--2--2--2--2--|
--4--4--4--4--4--4--4--4--|--0--0--0--0--0--0--0--0--|
--4--4--4--4--4--4--4--4--|--------------------------|
--2--2--2--2--2--2--2--2--|--------------------------|


  E  E  E  E  E  E  E  E     E  E  E  E  E  E  E  E   
--0--0--0--0--0--0--0--0--|--0--0--0--0--0--0--0--0--|
--2--2--2--2--2--2--2--2--|--0--0--0--0--0--0--0--0--|
--2--2--2--2--2--2--2--2--|--1--1--1--1--1--1--1--1--|
--2--2--2--2--2--2--2--2--|--2--2--2--2--2--2--2--2--|
--0--0--0--0--0--0--0--0--|--2--2--2--2--2--2--2--2--|
--------------------------|--0--0--0--0--0--0--0--0--|


  E  E  E  E  E  E  E  E     E  E  E  E  E  E  E  E     E  Q.     Q.     E   
--2--2--2--2--2--2--2--2--|--2--2--2--2--2--2--2--2--|--0--0------0------0--|
--2--2--2--2--2--2--2--2--|--3--3--3--3--3--3--3--3--|--2--2------2------2--|
--2--2--2--2--2--2--2--2--|--2--2--2--2--2--2--2--2--|--2--2------2------2--|
--4--4--4--4--4--4--4--4--|--0--0--0--0--0--0--0--0--|--2--2------2------2--|
--4--4--4--4--4--4--4--4--|--------------------------|----------------------|
--2--2--2--2--2--2--2--2--|--------------------------|----------------------|


  Q    Q.     Q.        W                   W                 
-------0------0------|-------------------|--2----------------|
--L----2------2------|--0----------------|--3----------------|
--L----2------2------|--1----------------|--2----------------|
--L----2------2------|--2----------------|--0----------------|
---------------------|--2----------------|--0----------------|
---------------------|-------------------|-------------------|


                                          ^                   ^                 
  W                   W                   W                   W                 
--0----------------|-------------------|--2----------------|--2----------------|
--2----------------|--0----------------|--2----------------|--3----------------|
--2----------------|--1----------------|--2----------------|--2----------------|
--2----------------|--2----------------|--4----------------|--0----------------|
-------------------|--2----------------|--4----------------|--0----------------|
-------------------|-------------------|--2----------------|-------------------|


  ^                   PM PM PM PM PM PM                                   
  W                   E  E  E  E  E  E  E  E     E  E  E  E  E  E  E  E   
--0----------------|--------------------------|--0--0--0--0--0--0--0--0--|
--2----------------|--------------------------|--2--2--2--2--2--2--2--2--|
--2----------------|--1--1--1--1--1--1--1--1--|--2--2--2--2--2--2--2--2--|
--2----------------|--2--2--2--2--2--2--2--2--|--2--2--2--2--2--2--2--2--|
--0----------------|--2--2--2--2--2--2--2--2--|--0--0--0--0--0--0--0--0--|
-------------------|--0--0--0--0--0--0--0--0--|--------------------------|


  E  E  E  E  E  E  E  E     E  E  E  E  E  E  E  E   
--0--0--0--0--0--0--0--0--|--2--2--2--2--2--2--2--2--|
--0--0--0--0--0--0--0--0--|--2--2--2--2--2--2--2--2--|
--1--1--1--1--1--1--1--1--|--2--2--2--2--2--2--2--2--|
--2--2--2--2--2--2--2--2--|--4--4--4--4--4--4--4--4--|
--2--2--2--2--2--2--2--2--|--4--4--4--4--4--4--4--4--|
--0--0--0--0--0--0--0--0--|--2--2--2--2--2--2--2--2--|


  E  E  E  E  E  E  E  E     E  E  E  E  E  E  E  E   
--2--2--2--2--2--2--2--2--|--0--0--0--0--0--0--0--0--|
--3--3--3--3--3--3--3--3--|--2--2--2--2--2--2--2--2--|
--2--2--2--2--2--2--2--2--|--2--2--2--2--2--2--2--2--|
--0--0--0--0--0--0--0--0--|--2--2--2--2--2--2--2--2--|
--0--0--0--0--0--0--0--0--|--0--0--0--0--0--0--0--0--|
--------------------------|--------------------------|


  E  E  E  E  E  E  E  E     E  E  E  E  E  E  E  E   
--0--0--0--0--0--0--0--0--|--2--2--2--2--2--2--2--2--|
--0--0--0--0--0--0--0--0--|--2--2--2--2--2--2--2--2--|
--1--1--1--1--1--1--1--1--|--2--2--2--2--2--2--2--2--|
--2--2--2--2--2--2--2--2--|--4--4--4--4--4--4--4--4--|
--2--2--2--2--2--2--2--2--|--4--4--4--4--4--4--4--4--|
--0--0--0--0--0--0--0--0--|--2--2--2--2--2--2--2--2--|


  E  E  E  E  E  E  E  E     Q    Q    Q    Q       Q    Q    Q    Q     
--2--2--2--2--2--2--2--2--|--0----0----0----0----|--0----0----0----0----|
--3--3--3--3--3--3--3--3--|--2----2----0----0----|--0----0----0----0----|
--2--2--2--2--2--2--2--2--|--2----2----2----2----|--1---------1----1----|
--0--0--0--0--0--0--0--0--|----------------------|-------2--------------|
--0--0--0--0--0--0--0--0--|----------------------|----------------------|
--------------------------|----------------------|----------------------|


  Q    Q    Q    Q       Q    Q    Q    Q       Q    Q    Q    Q     
--0----0----0----0----|--0----0----0----0----|--0----0----0----0----|
--0----0----0----0----|--0----0----0----0----|--2----2----0----0----|
----------------------|----------------------|--2----2----2----2----|
--4----4----2----2----|--0----0----2----2----|----------------------|
----------------------|----------------------|----------------------|
----------------------|----------------------|----------------------|


  Q    Q    Q    Q       Q    Q    Q    Q       Q    Q    Q    Q     
--0----0----0----0----|--0----0----0----0----|--0----0----0----0----|
--0----0----0----0----|--0----0----0----0----|--0----0----0----0----|
--1---------1----1----|----------------------|----------------------|
-------2--------------|--4----4----2----2----|--0----0----2----2----|
----------------------|----------------------|----------------------|
----------------------|----------------------|----------------------|


  E  E  E  E  E  E  E  E     E  E  E  E  E  E  E  E   
--0--0--0--0--0--0--0--0--|--0--0--0--0--0--0--0--0--|
--2--2--2--2--2--2--2--2--|--0--0--0--0--0--0--0--0--|
--2--2--2--2--2--2--2--2--|--1--1--1--1--1--1--1--1--|
--2--2--2--2--2--2--2--2--|--2--2--2--2--2--2--2--2--|
--0--0--0--0--0--0--0--0--|--2--2--2--2--2--2--2--2--|
--------------------------|--0--0--0--0--0--0--0--0--|


  E  E  E  E  E  E  E  E     E  E  E  E  E  E  E  E   
--2--2--2--2--2--2--2--2--|--2--2--2--2--2--2--2--2--|
--2--2--2--2--2--2--2--2--|--3--3--3--3--3--3--3--3--|
--2--2--2--2--2--2--2--2--|--2--2--2--2--2--2--2--2--|
--4--4--4--4--4--4--4--4--|--0--0--0--0--0--0--0--0--|
--4--4--4--4--4--4--4--4--|--------------------------|
--2--2--2--2--2--2--2--2--|--------------------------|


  E  E  E  E  E  E  E  E     E  E  E  E  E  E  E  E   
--0--0--0--0--0--0--0--0--|--0--0--0--0--0--0--0--0--|
--2--2--2--2--2--2--2--2--|--0--0--0--0--0--0--0--0--|
--2--2--2--2--2--2--2--2--|--1--1--1--1--1--1--1--1--|
--2--2--2--2--2--2--2--2--|--2--2--2--2--2--2--2--2--|
--0--0--0--0--0--0--0--0--|--2--2--2--2--2--2--2--2--|
--------------------------|--0--0--0--0--0--0--0--0--|


  E  E  E  E  E  E  E  E     E  E  E  E  E  E  E  E   
--2--2--2--2--2--2--2--2--|--2--2--2--2--2--2--2--2--|
--2--2--2--2--2--2--2--2--|--3--3--3--3--3--3--3--3--|
--2--2--2--2--2--2--2--2--|--2--2--2--2--2--2--2--2--|
--4--4--4--4--4--4--4--4--|--0--0--0--0--0--0--0--0--|
--4--4--4--4--4--4--4--4--|--------------------------|
--2--2--2--2--2--2--2--2--|--------------------------|


  E  E  E  E  E  E  E  E     E  E  E  E  E  E  E  E   
--0--0--0--0--0--0--0--0--|--0--0--0--0--0--0--0--0--|
--2--2--2--2--2--2--2--2--|--0--0--0--0--0--0--0--0--|
--2--2--2--2--2--2--2--2--|--1--1--1--1--1--1--1--1--|
--2--2--2--2--2--2--2--2--|--2--2--2--2--2--2--2--2--|
--0--0--0--0--0--0--0--0--|--2--2--2--2--2--2--2--2--|
--------------------------|--0--0--0--0--0--0--0--0--|


  E  E  E  E  E  E  E  E     E  E  E  E  E  E  E  E   
--2--2--2--2--2--2--2--2--|--2--2--2--2--2--2--2--2--|
--2--2--2--2--2--2--2--2--|--3--3--3--3--3--3--3--3--|
--2--2--2--2--2--2--2--2--|--2--2--2--2--2--2--2--2--|
--4--4--4--4--4--4--4--4--|--0--0--0--0--0--0--0--0--|
--4--4--4--4--4--4--4--4--|--------------------------|
--2--2--2--2--2--2--2--2--|--------------------------|


  E  E  E  E  E  E  E  E     E  E  E  E  E  E  E  E   
--0--0--0--0--0--0--0--0--|--0--0--0--0--0--0--0--0--|
--2--2--2--2--2--2--2--2--|--0--0--0--0--0--0--0--0--|
--2--2--2--2--2--2--2--2--|--1--1--1--1--1--1--1--1--|
--2--2--2--2--2--2--2--2--|--2--2--2--2--2--2--2--2--|
--0--0--0--0--0--0--0--0--|--2--2--2--2--2--2--2--2--|
--------------------------|--0--0--0--0--0--0--0--0--|


  E  E  E  E  E  E  E  E     E  E  E  E  E  E  E  E                       
--2--2--2--2--2--2--2--2--|--2--2--2--2--2--2--2--2--|-------------------|
--2--2--2--2--2--2--2--2--|--3--3--3--3--3--3--3--3--|-------------------|
--2--2--2--2--2--2--2--2--|--2--2--2--2--2--2--2--2--|-------------------|
--4--4--4--4--4--4--4--4--|--0--0--0--0--0--0--0--0--|-------------------|
--4--4--4--4--4--4--4--4--|--------------------------|-------------------|
--2--2--2--2--2--2--2--2--|--------------------------|-------------------|


-------------------|-------------------|-------------------|-------------------|
-------------------|-------------------|-------------------|-------------------|
-------------------|-------------------|-------------------|-------------------|
-------------------|-------------------|-------------------|-------------------|
-------------------|-------------------|-------------------|-------------------|
-------------------|-------------------|-------------------|-------------------|


-------------------|-------------------|-------------------||
-------------------|-------------------|-------------------||
-------------------|-------------------|-------------------||
-------------------|-------------------|-------------------||
-------------------|-------------------|-------------------||
-------------------|-------------------|-------------------||





========================================================================
========================================================================

                      I'm In A Hurry (And Don't Know Why)                       


                                                                         Alabama
Guitar 2



     W                   W                   W                 
E||-------------------|-------------------|-------------------|
B||-------------------|-------------------|-------------------|
G||-------------------|-------------------|-------------------|
D||-------------------|-------------------|-------------------|
A||-------------------|-------------------|-------------------|
E||-------------------|-------------------|-------------------|


  W                   W                   W                   W                 
-------------------|-------------------|-------------------|-------------------|
-------------------|-------------------|-------------------|-------------------|
-------------------|-------------------|-------------------|-------------------|
-------------------|-------------------|-------------------|-------------------|
-------------------|-------------------|-------------------|-------------------|
-------------------|-------------------|-------------------|-------------------|


  W                   E  E  E  E  E  E  E  E     E  E  E  E  E  E  E  E   
-------------------|--0--0--------------------|--0--0--------------------|
-------------------|--2--2--------------------|--0--0--------------------|
-------------------|--2--2--------2-----2-----|--1--1--------4-----4-----|
-------------------|--2--2-----2-----2-----2--|--2--2-----2-----2-----2--|
-------------------|--0--0--------------------|--2--2--------------------|
-------------------|--------------------------|--0--0--------------------|


  E  E  E  E  E  E  E  E     E  E  E  E  E  E  E  E   
--2--2--------------------|--2--2--------------------|
--2--2--------2-----2-----|--3--3--------3-----3-----|
--2--2--------------------|--2--2-----2-----2-----2--|
--4--4-----4-----4-----4--|--0--0--------------------|
--4--4--------------------|--------------------------|
--2--2--------------------|--------------------------|


  E  E  E  E  E  E  E  E     E  E  E  E  E  E  E  E   
--0--0--------------------|--0--0--------------------|
--2--2--------------------|--0--0--------------------|
--2--2--------2-----2-----|--1--1--------4-----4-----|
--2--2-----2-----2-----2--|--2--2-----2-----2-----2--|
--0--0--------------------|--2--2--------------------|
--------------------------|--0--0--------------------|


  E  E  E  E  E  E  E  E     E  E  E  E  E  E  E  E     Q    Q    Q    Q     
--2--2--------------------|--2--2--------5--5--5--2--|--0----0----0----0----|
--2--2--------2-----2-----|--3--3--------2--2--2--3--|--2----2----2----2----|
--2--2--------------------|--2--2-----2--2--2--2--x--|--2----2----2----2----|
--4--4-----4-----4-----4--|--0--0--------0--0--0--0--|--2----2----2----2----|
--4--4--------------------|--------------------------|--0----0----0----0----|
--2--2--------------------|--------------------------|----------------------|


  Q    Q    Q    Q       Q    Q    Q    Q       Q    Q    Q    Q     
----------------------|----------------------|--2----2----2----2----|
----------------------|--2----2----2----2----|--3----3----3----3----|
--1----1----1----1----|--2----2----2----2----|--2----2----2----2----|
--2----2----2----2----|--4----4----4----4----|--0----0----0----0----|
--2----2----2----2----|--4----4----4----4----|----------------------|
--0----0----0----0----|--2----2----2----2----|----------------------|


  Q    Q    Q    Q       Q    Q    Q    Q       Q    Q    Q    Q     
--0----0----0----0----|----------------------|----------------------|
--2----2----2----2----|----------------------|--2----2----2----2----|
--2----2----2----2----|--1----1----1----1----|--2----2----2----2----|
--2----2----2----2----|--2----2----2----2----|--4----4----4----4----|
--0----0----0----0----|--2----2----2----2----|--4----4----4----4----|
----------------------|--0----0----0----0----|--2----2----2----2----|


  Q    Q    Q    Q       E  E  E  E  E  E  E  E     E  E  E  E  E  E  E  E   
--2----2----2----2----|--0--0--------------------|--0--0--------------------|
--3----3----3----3----|--2--2--------------------|--0--0--------------------|
--2----2----2----2----|--2--2--------2-----2-----|--1--1--------4-----4-----|
--0----0----0----0----|--2--2-----2-----2-----2--|--2--2-----2-----2-----2--|
----------------------|--0--0--------------------|--2--2--------------------|
----------------------|--------------------------|--0--0--------------------|


  E  E  E  E  E  E  E  E     E  E  E  E  E  E  E  E   
--2--2--------------------|--2--2--------------------|
--2--2--------2-----2-----|--3--3--------3-----3-----|
--2--2--------------------|--2--2-----2-----2-----2--|
--4--4-----4-----4-----4--|--0--0--------------------|
--4--4--------------------|--------------------------|
--2--2--------------------|--------------------------|


  E  E  E  E  E  E  E  E     E  E  E  E  E  E  E  E   
--0--0--------------------|--0--0--------------------|
--2--2--------------------|--0--0--------------------|
--2--2--------2-----2-----|--1--1--------4-----4-----|
--2--2-----2-----2-----2--|--2--2-----2-----2-----2--|
--0--0--------------------|--2--2--------------------|
--------------------------|--0--0--------------------|


  E  E  E  E  E  E  E  E     E  E  E  E  E  E  E  E     Q    Q    Q    Q     
--2--2--------------------|--2--2--------5--5--5--2--|--0----0----0----0----|
--2--2--------2-----2-----|--3--3--------2--2--2--3--|--2----2----2----2----|
--2--2--------------------|--2--2-----2--2--2--2--x--|--2----2----2----2----|
--4--4-----4-----4-----4--|--0--0--------0--0--0--0--|--2----2----2----2----|
--4--4--------------------|--------------------------|--0----0----0----0----|
--2--2--------------------|--------------------------|----------------------|


  Q    Q    Q    Q       Q    Q    Q    Q       Q    Q    Q    Q     
----------------------|----------------------|--2----2----2----2----|
----------------------|--2----2----2----2----|--3----3----3----3----|
--1----1----1----1----|--2----2----2----2----|--2----2----2----2----|
--2----2----2----2----|--4----4----4----4----|--0----0----0----0----|
--2----2----2----2----|--4----4----4----4----|----------------------|
--0----0----0----0----|--2----2----2----2----|----------------------|


  Q    Q    Q    Q       Q    Q    Q    Q       Q    Q    Q    Q     
--0----0----0----0----|----------------------|----------------------|
--2----2----2----2----|----------------------|--2----2----2----2----|
--2----2----2----2----|--1----1----1----1----|--2----2----2----2----|
--2----2----2----2----|--2----2----2----2----|--4----4----4----4----|
--0----0----0----0----|--2----2----2----2----|--4----4----4----4----|
----------------------|--0----0----0----0----|--2----2----2----2----|


  Q    Q    Q    Q       E  E  Q    Q.     E     Q      Q     Q      E.   S   
--2----2----2----2----|-----0--0----0------0--|--0---------------------------|
--3----3----3----3----|-----2--2----0------0--|--2s----10----10s----14----Ls-|
--2----2----2----2----|-----2--2----2------2--|--2s----10----10s----14----Ls-|
--0----0----0----0----|-----2--2----2------2--|--2---------------------------|
----------------------|-----------------------|------------------------------|
----------------------|-----------------------|------------------------------|


   W                   Q.     Q.     Q       W                 
--------------------|--5------------------|--5----------------|
--12----------------|---------7-----------|--5----------------|
--13----------------|----------------7----|--6----------------|
--------------------|---------------------|--7----------------|
--------------------|---------------------|-------------------|
--------------------|---------------------|-------------------|


                      ^                   ^                                     
  W                   W                   W                   W                 
-------------------|--5----------------|--2----------------|-------------------|
-------------------|--5----------------|--3----------------|-------------------|
-------------------|--6----------------|--2----------------|-------------------|
-------------------|-------------------|-------------------|-------------------|
-------------------|-------------------|-------------------|-------------------|
-------------------|-------------------|-------------------|-------------------|


  PM PM PM PM PM PM PM PM                                                    
  E  E  E  E  E  E  E  E     E  E  Q    E  E  Q       E  E  Q    E  E  Q     
--------------------------|------------------------|------------------------|
--------------------------|------------------------|------------------------|
--------------------------|------------------------|------------------------|
--------------------------|-----0--2----0----------|--------0---------------|
--------------------------|--4-------------4--2----|--2--4-------4--2--0----|
--0--0--0--0--0--0--0--0--|------------------------|------------------------|


  E  E  Q    E  E  Q       E  E  Q    E  E  Q       E  E  Q    E  E  Q     
------------------------|------------------------|------------------------|
------------------------|------------------------|------------------------|
------------------------|------------------------|------------------------|
------------------------|--------0---------------|-----0--2----0----------|
--0--2--4----2--0-------|-----0-------4--2--0----|--4-------------4--2----|
-------------------0----|--4---------------------|------------------------|


  E  E  Q    E  Q    E     E  E  Q    E  E  Q       E  E  E  E  E  E  E  E   
------------------------|------------------------|--------------------------|
------------------------|------------------------|--------------------------|
------------------------|------------------------|--------------------------|
------------------------|------------------------|--------0--0--------------|
--4--2--0----2--4-------|--------0---------------|-----0--------4--2--2--0--|
---------------------4--|--L--6-------6--4--0----|--4-----------------------|


  W                   W                   W                   W                 
-------------------|-------------------|-------------------|-------------------|
-------------------|-------------------|-------------------|-------------------|
-------------------|-------------------|-------------------|-------------------|
-------------------|-------------------|-------------------|-------------------|
--0----------------|-------------------|-------------------|-------------------|
-------------------|-------------------|-------------------|-------------------|


  W                   W                   W                   W                 
-------------------|-------------------|-------------------|-------------------|
-------------------|-------------------|-------------------|-------------------|
-------------------|-------------------|-------------------|-------------------|
-------------------|-------------------|-------------------|-------------------|
-------------------|-------------------|-------------------|-------------------|
-------------------|-------------------|-------------------|-------------------|


  Q    Q    Q    Q       Q    Q    Q    Q       Q    Q    Q    Q     
----------------------|----------------------|--2----2----2----2----|
--2----2----2----2----|----------------------|--2----2----2----2----|
--2----2----2----2----|--1----1----1----1----|--2----2----2----2----|
--2----2----2----2----|--2----2----2----2----|--4----4----4----4----|
----------------------|--2----2----2----2----|--4----4----4----4----|
----------------------|----------------------|--2----2----2----2----|


  Q    Q    Q    Q       W                   W                 
--2----2----2----2----|-------------------|-------------------|
--3----3----3----3----|-------------------|-------------------|
--2----2----2----2----|-------------------|-------------------|
--0----0----0----0----|-------------------|-------------------|
--0----0----0----0----|-------------------|-------------------|
----------------------|-------------------|-------------------|


  W                   W                   W                   W                 
-------------------|-------------------|-------------------|-------------------|
-------------------|-------------------|-------------------|-------------------|
-------------------|-------------------|-------------------|-------------------|
-------------------|-------------------|-------------------|-------------------|
-------------------|-------------------|-------------------|-------------------|
-------------------|-------------------|-------------------|-------------------|


  W                   W                                                         
-------------------|-------------------|-------------------|-------------------|
-------------------|-------------------|-------------------|-------------------|
-------------------|-------------------|-------------------|-------------------|
-------------------|-------------------|-------------------|-------------------|
-------------------|-------------------|-------------------|-------------------|
-------------------|-------------------|-------------------|-------------------|


-------------------|-------------------|-------------------|-------------------|
-------------------|-------------------|-------------------|-------------------|
-------------------|-------------------|-------------------|-------------------|
-------------------|-------------------|-------------------|-------------------|
-------------------|-------------------|-------------------|-------------------|
-------------------|-------------------|-------------------|-------------------|


-------------------|-------------------|-------------------|-------------------|
-------------------|-------------------|-------------------|-------------------|
-------------------|-------------------|-------------------|-------------------|
-------------------|-------------------|-------------------|-------------------|
-------------------|-------------------|-------------------|-------------------|
-------------------|-------------------|-------------------|-------------------|


-------------------|-------------------||
-------------------|-------------------||
-------------------|-------------------||
-------------------|-------------------||
-------------------|-------------------||
-------------------|-------------------||




Duration Legend
---------------
W - whole
H - half
Q - quarter
E - 8th
S - 16th
T - 32nd
X - 64th
. - note dotted
|-n-|  - n-tuplets


Tablature Legend
----------------
L - tied note
x - dead note
g - grace note
(n) - ghost note
> - accentuded note
NH - natural harmonic
AH - artificial harmonic
TH - tapped harmonic
SH - semi harmonic
PH - pitch harmonic
h - hammer on
p - pull off
b - bend
br - bendRelease
pb - preBend
pbr - preBendRelease
brb - bendReleaseBend
\n/ - tremolo bar dip
\n - tremolo bar dive
-/n - tremolo bar Release up
/n\ - tremolo bar inverted dip
/n - tremolo bar return
-\n - tremolo bar Release down
S - shift slide
s - legato slide
/ -  slide into from below or out of upwards
\ -  slide into from above or out of downwards
~ - vibrato
W - wide vibrato
tr - trill
TP - tremolo picking
T - tapping
S - slap
P - pop
< - fade in
^ - brush up
v - brush down
comments
We did not receive enough feedback on this tab! Please rate:
print report bad tab
1 2 3 4 5
I want to post or [tab]
guest
You may want to rate the tab now too:
select rating
Please do not post tabs as comments. Select "correction" instead!