Oops, an error
Loading. Please wait.

Boys And Girls Chords

9,318 views 33 this week
2 commentsread comments
1 2 3 4 5
excellent!
x 4
Autoscroll
+/-
esc
set tempo
stop
Contributor
Hey! There's an official Ultimate Guitar app which is ideal
for learning songs when you're away from computer. Get the app
WARNING: You are trying to view
                                    content from Ultimate-Guitar.com
                                    in an unauthorized application,
                                    which is prohibited.

                                    Please use an official Ultimate
                                    Guitar Tabs application for iPhone,
                                    iPad or Android to access legitimate
                                    chords, guitar, bass, and drum tabs
                                    from Ultimate-Guitar.com database.

                                    Type "ultimate guitar tabs" in Apple
                                    App Store's or Android Market's
                                    search to find the application.
Standard tuning

Chords: E, F#m, B 
 

E                                      F#m         B           

E----------------------------------------------------------------------------|
B------0-------------------0-------0------2-----2------4-----4---------------|
G-----1-1---1-------------1-1-----1-1----2-2---2-2----4-4---4-4--------------|
D----2---2-2-------------2---2---2---2--4---4-4---4--4---4-4---4-------------|
A-------------2--4--6-------------------------------2-----2------------------|
E--0------0-------------0-----0-0------2-----2-------------------------------|

   E
Oh why can't we be

Best friends anymore?
           F#m
They say a friend

Ain't to be

Between a girl and a boy
        B
I don't know who said it
                       E
Or why it got to be so wrong

   E
Oh why don't you call

Don't you care anymore
         F#m
It's not fair

Don't let 'em get you

It took us both and now I got to fix you
             B
Well I don't know how to fix you
                                                  E
You say it's just the way it's got to be, but how so?

E
Why
      F#m
Is an awful lot of question
            B
And I can't give me no answer
                 E
I keep wondering on

Oh why can't you see
That I'm not trying to be
No kind of bother
I'm just trying to save what was left between you and me
And where we left it before they took it
And took it all
And took off

Oh why did I let them drive a wedge between
Well I watched it, and I didn't say nothing
And now I'm crying when I sleep
Now I'm sayin', I'm prayin', to that sweet melody in my soul

Why
Is an awful lot of question
And I can't give me no answer
I keep wondering on

I wanna know, who said it
Well who said that, oh Lord
comments
print report bad tab
2 comments total.
0 reply
nadeem.nathoo88 wrote on January 2 2014, 01:25 pm, edited at 01:26 pm

After carefully watching some alabama shake videos the into is actually something like:E-----------------------------------------------------------------------------|B-----------------------------------------------------------------------------|G--------9-----------------------------------14-------------------------------|D------6---6-----------------------------13-----13----------------------------|A----7-------7---(that part 4x)------12------------12----(and this part 4x)|E--0------------------------------12------------------------------------------|

0 reply
nadeem.nathoo88 wrote on January 2 2014, 01:26 pm

After carefully watching some alabama shake videos the into is actually something like:

E-----------------------------------------------------------------------------|
B-----------------------------------------------------------------------------|
G--------9-----------------------------------14-------------------------------|
D------6---6-----------------------------13-----13----------------------------|
A----7-------7---(that part 4x)------12------------12----(and this part 4x)|
E--0------------------------------12------------------------------------------|

I want to post or [tab]
guest
You may want to rate the tab now too:
select rating
Please do not post tabs as comments. Select "correction" instead!