Oops, an error
Loading. Please wait.

Ironic Tab

ver2
ver2

Whole song

More versions @911Tabs.com
7,390 views 18 this week
no commentswrite comment
1 2 3 4 5
please rate
Autoscroll
+/-
esc
set tempo
stop
Contributor
Difficulty
advanced
WARNING: You are trying to view
                                    content from Ultimate-Guitar.com
                                    in an unauthorized application,
                                    which is prohibited.

                                    Please use an official Ultimate
                                    Guitar Tabs application for iPhone,
                                    iPad or Android to access legitimate
                                    chords, guitar, bass, and drum tabs
                                    from Ultimate-Guitar.com database.

                                    Type "ultimate guitar tabs" in Apple
                                    App Store's or Android Market's
                                    search to find the application.
                                    Ironic

Alanis Morissette
Guitar 1 (Capo 4)



         w/fingers, let ring throughout                      
     C7M                                                     
     E   S                              S E  E  E  E  S E.   
E||--3----------------------------------3-L--------3----3---|
B||--0---0------------------------------0-L--0--L--0----0---|
G||--0---0------------------------------0-L--0--L--0----0---|
D||------------------------------------------2--L--2--2-----|
A||--3---------------------------------------------3--3-----|
E||---------------------------------------------------------|


  D6add11                         C7M                      
  E.      S E  E  S S E  S E.     E.  S E  E  E  E  S E.   
--5-------5-L-------5------5---|--3---3-L--3--L--3--------|
--0-------0-L--0--L-0------0---|--0---0-L--0--L--0----0---|
--0-------0-L--0--L-0-0--0-0---|--0---0-L--0--L--0----0---|
----------4-L--4--L---4--4-----|-----------2--L-----2-----|
--5-------------------5--------|--3-----------------3-----|
-------------------------------|--------------------------|


            Cadd9               D/F#    Gsus2             D/F#    Em7           
  E  S S E  E     E  Q    E     Q    E  E     H           Q    E  E   H         
--3----2-L-------------------|-------------------------|-----------------------|
------------3-----L----------|----------3-----L--------|--3----L---------------|
------------0-----L--0-------|--2-------2-----L--------|--2----L--0---L--------|
-----0-----------------------|----------0-----L--------|--0----L--0---L--------|
--3----3-L--3-----L-------0--|--0----------------------|-----------------------|
-----------------------------|----------3-----L--------|--2----L--0---L--------|


  keep playing last four chords!!                                           
  E.                              S E  E  H           E.  S E  E  H         
---------------------------------------------------|-----------------------|
--3-------------------------------3----3--L--------|------3-L--------------|
--2-------------------------------2----2--L--------|--2--------0--L--------|
--0------------------------------------0--L--------|-----------0--L--------|
---------------------------------------------------|-----------------------|
--2------------------------------------3--L--------|--2--------0--L--------|


  E.  S E  E  H           Q    E  E  H           E.  S E  E  H         
-----------------------|----------------------|-----------------------|
--3--------3--L--------|--3----L--------------|--3---3----3--L--------|
--2---2----2--L--------|--2----L--0--L--------|--2---2----2--L--------|
--0--------------------|--0----L--0--L--------|--0--------0--L--------|
-----------0--L--------|----------------------|-----------0--L--------|
--2--------3--L--------|--2----L--0--L--------|--2--------3--L--------|


  E.  S E  E  H           E.  S E  E  E  E  E  E     E.  S E  E  Q    Q     
-----------------------|--------------------------|------------------------|
------3-L--------------|------3-L-----------3-----|------3-L---------------|
--2--------0--L--------|--2--------2--L--2--------|--2--------0--L----0----|
--0--------0--L--------|--0--------0--L--------0--|--0--------0--L----0----|
-----------------------|--------------------------|------------------------|
--2--------0--L--------|--2--------3--L-----------|--2--------0--L----0----|


  D        G                   D        Em                
  E.  S E  E  S S E  S S E     E.  S E  E  S S E  S S E   
--2---2-L--3--L-3-3--3-3-3--|--2---2-L--0--L-0-0--0-0-0--|
--3---3-L--3--L-3-3--3-3-3--|--3---3-L--0--L-0-0--0-0-0--|
--2---2-L--0--L-0-0--0-0-0--|--2---2-L--0--L-0-0--0-0-0--|
--0---0-L--0--L-0-0--0-0-0--|--0---0-L--2--L-2-2--2-2-2--|
-----------2--L-2-2--2-2-2--|-----------2--L-2-2--2-2-2--|
-----------3--L-3-3--3-3-3--|-----------0--L-0-0--0-0-0--|


  D        G                   D        Em                
  E.  S E  E  S S E  S S E     E.  S E  E  S S E  S S E   
--2---2-L--3--L-3-3--3-3-3--|--2---2-L--0--L-0-0--0-0-0--|
--3---3-L--3--L-3-3--3-3-3--|--3---3-L--0--L-0-0--0-0-0--|
--2---2-L--0--L-0-0--0-0-0--|--2---2-L--0--L-0-0--0-0-0--|
--0---0-L--0--L-0-0--0-0-0--|--0---0-L--2--L-2-2--2-2-2--|
-----------2--L-2-2--2-2-2--|-----------2--L-2-2--2-2-2--|
-----------3--L-3-3--3-3-3--|-----------0--L-0-0--0-0-0--|


  D        G                   D        Em                
  E.  S E  E  S S E  S S E     E.  S E  E  S S E  S S E   
--2---2-L--3--L-3-3--3-3-3--|--2---2-L--0--L-0-0--0-0-0--|
--3---3-L--3--L-3-3--3-3-3--|--3---3-L--0--L-0-0--0-0-0--|
--2---2-L--0--L-0-0--0-0-0--|--2---2-L--0--L-0-0--0-0-0--|
--0---0-L--0--L-0-0--0-0-0--|--0---0-L--2--L-2-2--2-2-2--|
-----------2--L-2-2--2-2-2--|-----------2--L-2-2--2-2-2--|
-----------3--L-3-3--3-3-3--|-----------0--L-0-0--0-0-0--|


  F         C                  D      Dsus4                    
  E  S S E  E  E  E  E  S S    E  S S E     E  S S E  S S S S  
--1--1-1-1--0--L--0--0--0-0-|--2--2-2-3-----3--3-3-3--3-3-3-3-|
--1--1-1-1--1--L--1--1--1-1-|--3--3-3-3-----3--3-3-3--3-3-3-3-|
--2--2-2-2--0--L--0--0--0-0-|--2--2-2-2-----2--2-2-2--2-2-2-2-|
--3--3-3-3--2--L--2--2--2-2-|--0--0-0-0-----0--0-0-0--0-0-0-0-|
--3--3-3-3--3--L--3--3--3-3-|---------------------------------|
--1--1-1-1------------------|---------------------------------|


  D/F#         Gsus2                 D/F#      Em7                
  E.   S E  E  S     S E  S S S S    E.   S E  E   S S E  S S E   
----------------------------------|------------------------------|
--3----3----3--3-----3-3--3-3-3-3-|--3----3----3---L-3-3--3-3-3--|
--2----2----2--2-----2-2--2-2-2-2-|--2----2----0---L-0-0--0-0-0--|
--0----0----0--0-----0-0--0-0-0-0-|--0----0----2---L-2-2--2-2-2--|
----------------------------------|------------2---L-2-2--2-2-2--|
--2----2----3--3-----3-3--3-3-3-3-|--2----2----0---L-0-0--0-0-0--|


  D/F#         Gsus2                 D/F#      Em7                
  E.   S E  E  S     S E  S S S S    E.   S E  E   S S E  S S E   
----------------------------------|------------------------------|
--3----3----3--3-----3-3--3-3-3-3-|--3----3----3---L-3-3--3-3-3--|
--2----2----2--2-----2-2--2-2-2-2-|--2----2----0---L-0-0--0-0-0--|
--0----0----0--0-----0-0--0-0-0-0-|--0----0----2---L-2-2--2-2-2--|
----------------------------------|------------2---L-2-2--2-2-2--|
--2----2----3--3-----3-3--3-3-3-3-|--2----2----0---L-0-0--0-0-0--|


  D/F#         Gsus2                 D/F#      Em7                
  E.   S E  E  S     S E  S S S S    E.   S E  E   S S E  S S E   
----------------------------------|------------------------------|
--3----3----3--3-----3-3--3-3-3-3-|--3----3----3---L-3-3--3-3-3--|
--2----2----2--2-----2-2--2-2-2-2-|--2----2----0---L-0-0--0-0-0--|
--0----0----0--0-----0-0--0-0-0-0-|--0----0----2---L-2-2--2-2-2--|
----------------------------------|------------2---L-2-2--2-2-2--|
--2----2----3--3-----3-3--3-3-3-3-|--2----2----0---L-0-0--0-0-0--|


  D/F#         Gsus2                 D/F#      Em7                
  E.   S E  E  S     S E  S S S S    E.   S E  E   S S E  S S E   
----------------------------------|------------------------------|
--3----3----3--3-----3-3--3-3-3-3-|--3----3----3---L-3-3--3-3-3--|
--2----2----2--2-----2-2--2-2-2-2-|--2----2----0---L-0-0--0-0-0--|
--0----0----0--0-----0-0--0-0-0-0-|--0----0----2---L-2-2--2-2-2--|
----------------------------------|------------2---L-2-2--2-2-2--|
--2----2----3--3-----3-3--3-3-3-3-|--2----2----0---L-0-0--0-0-0--|


  D/F#         Gsus2                 D/F#      Em7                
  E.   S E  E  S     S E  S S S S    E.   S E  E   S S E  S S E   
----------------------------------|------------------------------|
--3----3----3--3-----3-3--3-3-3-3-|--3----3----3---L-3-3--3-3-3--|
--2----2----2--2-----2-2--2-2-2-2-|--2----2----0---L-0-0--0-0-0--|
--0----0----0--0-----0-0--0-0-0-0-|--0----0----2---L-2-2--2-2-2--|
----------------------------------|------------2---L-2-2--2-2-2--|
--2----2----3--3-----3-3--3-3-3-3-|--2----2----0---L-0-0--0-0-0--|


  D        G                   D        Em                
  E.  S E  E  S S E  S S E     E.  S E  E  S S E  S S E   
--2---2-L--3--L-3-3--3-3-3--|--2---2-L--0--L-0-0--0-0-0--|
--3---3-L--3--L-3-3--3-3-3--|--3---3-L--0--L-0-0--0-0-0--|
--2---2-L--0--L-0-0--0-0-0--|--2---2-L--0--L-0-0--0-0-0--|
--0---0-L--0--L-0-0--0-0-0--|--0---0-L--2--L-2-2--2-2-2--|
-----------2--L-2-2--2-2-2--|-----------2--L-2-2--2-2-2--|
-----------3--L-3-3--3-3-3--|-----------0--L-0-0--0-0-0--|


  D        G                   D        Em                
  E.  S E  E  S S E  S S E     E.  S E  E  S S E  S S E   
--2---2-L--3--L-3-3--3-3-3--|--2---2-L--0--L-0-0--0-0-0--|
--3---3-L--3--L-3-3--3-3-3--|--3---3-L--0--L-0-0--0-0-0--|
--2---2-L--0--L-0-0--0-0-0--|--2---2-L--0--L-0-0--0-0-0--|
--0---0-L--0--L-0-0--0-0-0--|--0---0-L--2--L-2-2--2-2-2--|
-----------2--L-2-2--2-2-2--|-----------2--L-2-2--2-2-2--|
-----------3--L-3-3--3-3-3--|-----------0--L-0-0--0-0-0--|


  D        G                   D        Em                
  E.  S E  E  S S E  S S E     E.  S E  E  S S E  S S E   
--2---2-L--3--L-3-3--3-3-3--|--2---2-L--0--L-0-0--0-0-0--|
--3---3-L--3--L-3-3--3-3-3--|--3---3-L--0--L-0-0--0-0-0--|
--2---2-L--0--L-0-0--0-0-0--|--2---2-L--0--L-0-0--0-0-0--|
--0---0-L--0--L-0-0--0-0-0--|--0---0-L--2--L-2-2--2-2-2--|
-----------2--L-2-2--2-2-2--|-----------2--L-2-2--2-2-2--|
-----------3--L-3-3--3-3-3--|-----------0--L-0-0--0-0-0--|


  F         C                  D      Dsus4                    
  E  S S E  E  E  E  E  S S    E  S S E     E  S S E  S S S S  
--1--1-1-1--0--L--0--0--0-0-|--2--2-2-3-----3--3-3-3--3-3-3-3-|
--1--1-1-1--1--L--1--1--1-1-|--3--3-3-3-----3--3-3-3--3-3-3-3-|
--2--2-2-2--0--L--0--0--0-0-|--2--2-2-2-----2--2-2-2--2-2-2-2-|
--3--3-3-3--2--L--2--2--2-2-|--0--0-0-0-----0--0-0-0--0-0-0-0-|
--3--3-3-3--3--L--3--3--3-3-|---------------------------------|
--1--1-1-1------------------|---------------------------------|


  C7M                             D6add11                         
  E   S S E  E  S S E  S S S S    E.      S S S E  S S E  S E  S  
--3---3-3-L--3--3-3-3--3-3-3-3-|--5-------5-5-5-5--L-5-5--5-5--5-|
--0---0-0-L--0--0-0-0--0-0-0-0-|--0-------0-0-0-0--L-0-0--0-0--0-|
--0---0-0-L--0--0-0-0--0-0-0-0-|--0-------0-0-0-0--L-0-0--0-0--0-|
--2---2-2-L--2--2-2-2--2-2-2-2-|--4-------4-4-4-4--L-4-4--4-4--4-|
--3---3-3-L--3--3-3-3--3-3-3-3-|--5-------5-5-5-5--L-5-5--5-5--5-|
-------------------------------|---------------------------------|


  C7M                             D6add11                         
  E   S S E  E  S S E  S S S S    E.      S S S E  S S E  S E  S  
--3---3-3-L--3--3-3-3--3-3-3-3-|--5-------5-5-5-5--L-5-5--5-5--5-|
--0---0-0-L--0--0-0-0--0-0-0-0-|--0-------0-0-0-0--L-0-0--0-0--0-|
--0---0-0-L--0--0-0-0--0-0-0-0-|--0-------0-0-0-0--L-0-0--0-0--0-|
--2---2-2-L--2--2-2-2--2-2-2-2-|--4-------4-4-4-4--L-4-4--4-4--4-|
--3---3-3-L--3--3-3-3--3-3-3-3-|--5-------5-5-5-5--L-5-5--5-5--5-|
-------------------------------|---------------------------------|


  C7M                             D6add11                         
  E   S S E  E  S S E  S S S S    E.      S S S E  S S E  S E  S  
--3---3-3-L--3--3-3-3--3-3-3-3-|--5-------5-5-5-5--L-5-5--5-5--5-|
--0---0-0-L--0--0-0-0--0-0-0-0-|--0-------0-0-0-0--L-0-0--0-0--0-|
--0---0-0-L--0--0-0-0--0-0-0-0-|--0-------0-0-0-0--L-0-0--0-0--0-|
--2---2-2-L--2--2-2-2--2-2-2-2-|--4-------4-4-4-4--L-4-4--4-4--4-|
--3---3-3-L--3--3-3-3--3-3-3-3-|--5-------5-5-5-5--L-5-5--5-5--5-|
-------------------------------|---------------------------------|


  C7M                                                    
  E   S S E  E  S S E  S S S S    E.  S E  E  E  Q.      
--3---3-3-L--3--3-3-3--3-3-3-3-|--3---2-L---------------|
--0---0-0-L--0--0-0-0--0-0-0-0-|-----------3--L---------|
--0---0-0-L--0--0-0-0--0-0-0-0-|-----------------0------|
--2---2-2-L--2--2-2-2--2-2-2-2-|------------------------|
--3---3-3-L--3--3-3-3--3-3-3-3-|------------------------|
-------------------------------|------------------------|


  D/F#         Gsus2                 D/F#      Em7                
  E.   S E  E  S     S E  S S S S    E.   S E  E   S S E  S S E   
----------------------------------|------------------------------|
--3----3----3--3-----3-3--3-3-3-3-|--3----3----3---L-3-3--3-3-3--|
--2----2----2--2-----2-2--2-2-2-2-|--2----2----0---L-0-0--0-0-0--|
--0----0----0--0-----0-0--0-0-0-0-|--0----0----2---L-2-2--2-2-2--|
----------------------------------|------------2---L-2-2--2-2-2--|
--2----2----3--3-----3-3--3-3-3-3-|--2----2----0---L-0-0--0-0-0--|


  D/F#         Gsus2                 D/F#      Em7                
  E.   S E  E  S     S E  S S S S    E.   S E  E   S S E  S S E   
----------------------------------|------------------------------|
--3----3----3--3-----3-3--3-3-3-3-|--3----3----3---L-3-3--3-3-3--|
--2----2----2--2-----2-2--2-2-2-2-|--2----2----0---L-0-0--0-0-0--|
--0----0----0--0-----0-0--0-0-0-0-|--0----0----2---L-2-2--2-2-2--|
----------------------------------|------------2---L-2-2--2-2-2--|
--2----2----3--3-----3-3--3-3-3-3-|--2----2----0---L-0-0--0-0-0--|


  D/F#         Gsus2                 D/F#      Em7                
  E.   S E  E  S     S E  S S S S    E.   S E  E   S S E  S S E   
----------------------------------|------------------------------|
--3----3----3--3-----3-3--3-3-3-3-|--3----3----3---L-3-3--3-3-3--|
--2----2----2--2-----2-2--2-2-2-2-|--2----2----0---L-0-0--0-0-0--|
--0----0----0--0-----0-0--0-0-0-0-|--0----0----2---L-2-2--2-2-2--|
----------------------------------|------------2---L-2-2--2-2-2--|
--2----2----3--3-----3-3--3-3-3-3-|--2----2----0---L-0-0--0-0-0--|


  D/F#         Gsus2                 D/F#   Em7                          
  E.   S E  E  S     S E  S S S S    E.   S E   E  H           H         
----------------------------------|-------------------------|-----------|
--3----3----3--3-----3-3--3-3-3-3-|--3----3-x---3--L--------|--L--------|
--2----2----2--2-----2-2--2-2-2-2-|--2----2-x---0--L--------|--L--------|
--0----0----0--0-----0-0--0-0-0-0-|--0----0-x---2--L--------|--L--------|
----------------------------------|---------x---2--L--------|--L--------|
--2----2----3--3-----3-3--3-3-3-3-|--2----2-x---0--L--------|--L--------|


  Q.     E  H           E.  S E  E  H           E.  S E  E  H         
---------------------|-----------------------|-----------------------|
--3------3--L--------|------3-L--------------|------3-L--------------|
--2------2--L--------|--2--------0--L--------|--2--------2--L--------|
--0------0--L--------|-----------0--L--------|--0--------0--L--------|
---------------------|-----------------------|-----------------------|
--2------3--L--------|--2--------0--L--------|--2--------3--L--------|


                             D        G                 
  E.  S E  E  Q    E  S S    E.  S E  E  S S E  S S E   
--------------------------|--2---2-L--3--L-3-3--3-3-3--|
------3-L----------3--3-3-|--3---3-L--3--L-3-3--3-3-3--|
--2--------0--L----0--0-0-|--2---2-L--0--L-0-0--0-0-0--|
--0--------0--L----2--2-2-|--0---0-L--0--L-0-0--0-0-0--|
-------------------2--2-2-|-----------2--L-2-2--2-2-2--|
--2--------0--L----0--0-0-|-----------3--L-3-3--3-3-3--|


  D        Em                  D        G                 
  E.  S E  E  S S E  S S E     E.  S E  E  S S E  S S E   
--2---2-L--0--L-0-0--0-0-0--|--2---2-L--3--L-3-3--3-3-3--|
--3---3-L--0--L-0-0--0-0-0--|--3---3-L--3--L-3-3--3-3-3--|
--2---2-L--0--L-0-0--0-0-0--|--2---2-L--0--L-0-0--0-0-0--|
--0---0-L--2--L-2-2--2-2-2--|--0---0-L--0--L-0-0--0-0-0--|
-----------2--L-2-2--2-2-2--|-----------2--L-2-2--2-2-2--|
-----------0--L-0-0--0-0-0--|-----------3--L-3-3--3-3-3--|


  D        Em                  D        G                 
  E.  S E  E  S S E  S S E     E.  S E  E  S S E  S S E   
--2---2-L--0--L-0-0--0-0-0--|--2---2-L--3--L-3-3--3-3-3--|
--3---3-L--0--L-0-0--0-0-0--|--3---3-L--3--L-3-3--3-3-3--|
--2---2-L--0--L-0-0--0-0-0--|--2---2-L--0--L-0-0--0-0-0--|
--0---0-L--2--L-2-2--2-2-2--|--0---0-L--0--L-0-0--0-0-0--|
-----------2--L-2-2--2-2-2--|-----------2--L-2-2--2-2-2--|
-----------0--L-0-0--0-0-0--|-----------3--L-3-3--3-3-3--|


  D        Em                  F         C                
  E.  S E  E  S S E  S S E     E  S S E  E  E  E  E  S S  
--2---2-L--0--L-0-0--0-0-0--|--1--1-1-1--0--L--0--0--0-0-|
--3---3-L--0--L-0-0--0-0-0--|--1--1-1-1--1--L--1--1--1-1-|
--2---2-L--0--L-0-0--0-0-0--|--2--2-2-2--0--L--0--0--0-0-|
--0---0-L--2--L-2-2--2-2-2--|--3--3-3-3--2--L--2--2--2-2-|
-----------2--L-2-2--2-2-2--|--3--3-3-3--3--L--3--3--3-3-|
-----------0--L-0-0--0-0-0--|--1--1-1-1------------------|


  D      Dsus4                      C7M                           
  E  S S E     E  S S E  S S S S    E   S S E  E  S S E  S S S S  
--2--2-2-3-----3--3-3-3--3-3-3-3-|--3---3-3-L--3--3-3-3--3-3-3-3-|
--3--3-3-3-----3--3-3-3--3-3-3-3-|--0---0-0-L--0--0-0-0--0-0-0-0-|
--2--2-2-2-----2--2-2-2--2-2-2-2-|--0---0-0-L--0--0-0-0--0-0-0-0-|
--0--0-0-0-----0--0-0-0--0-0-0-0-|--2---2-2-L--2--2-2-2--2-2-2-2-|
---------------------------------|--3---3-3-L--3--3-3-3--3-3-3-3-|
---------------------------------|-------------------------------|


  D6add11                           C7M                           
  E.      S S S E  S S E  S E  S    E   S S E  E  S S E  S S S S  
--5-------5-5-5-5--L-5-5--5-5--5-|--3---3-3-L--3--3-3-3--3-3-3-3-|
--0-------0-0-0-0--L-0-0--0-0--0-|--0---0-0-L--0--0-0-0--0-0-0-0-|
--0-------0-0-0-0--L-0-0--0-0--0-|--0---0-0-L--0--0-0-0--0-0-0-0-|
--4-------4-4-4-4--L-4-4--4-4--4-|--2---2-2-L--2--2-2-2--2-2-2-2-|
--5-------5-5-5-5--L-5-5--5-5--5-|--3---3-3-L--3--3-3-3--3-3-3-3-|
---------------------------------|-------------------------------|


  D6add11                           C7M                           
  E.      S S S E  S S E  S E  S    E   S S E  E  S S E  S S S S  
--5-------5-5-5-5--L-5-5--5-5--5-|--3---3-3-L--3--3-3-3--3-3-3-3-|
--0-------0-0-0-0--L-0-0--0-0--0-|--0---0-0-L--0--0-0-0--0-0-0-0-|
--0-------0-0-0-0--L-0-0--0-0--0-|--0---0-0-L--0--0-0-0--0-0-0-0-|
--4-------4-4-4-4--L-4-4--4-4--4-|--2---2-2-L--2--2-2-2--2-2-2-2-|
--5-------5-5-5-5--L-5-5--5-5--5-|--3---3-3-L--3--3-3-3--3-3-3-3-|
---------------------------------|-------------------------------|


  D6add11                           C7M                           
  E.      S S S E  S S E  S E  S    E   S S E  E  S S E  S S S S  
--5-------5-5-5-5--L-5-5--5-5--5-|--3---3-3-L--3--3-3-3--3-3-3-3-|
--0-------0-0-0-0--L-0-0--0-0--0-|--0---0-0-L--0--0-0-0--0-0-0-0-|
--0-------0-0-0-0--L-0-0--0-0--0-|--0---0-0-L--0--0-0-0--0-0-0-0-|
--4-------4-4-4-4--L-4-4--4-4--4-|--2---2-2-L--2--2-2-2--2-2-2-2-|
--5-------5-5-5-5--L-5-5--5-5--5-|--3---3-3-L--3--3-3-3--3-3-3-3-|
---------------------------------|-------------------------------|


                                      free time            
  C7M                            C7M                       
  E   S S S S E  E  S S E  E     Q    Q         Q    Q     
--0---0-0-L-0-0--0--0-0-0--0--|--3----3---------3----3----|
--0---0-0-L-0-0--0--0-0-0--0--|--0----0---------0----0----|
--0---0-0-L-0-0--0--0-0-0--0--|--0----0---------0----0----|
--2-----2-L---2--2----2-2--2--|--2----2---------2----2----|
--3-----3-L---3--3----3-3--3--|--3----3---------3----3----|
------------------------------|---------------------------|


  Q    Q    H                      
--3----3----3--------|-----------||
--0----0----0--------|-----------||
--0----0----0--------|-----------||
--2----2----2--------|-----------||
--3----3----3--------|-----------||
---------------------|-----------||




Duration Legend
---------------
W - whole
H - half
Q - quarter
E - 8th
S - 16th
T - 32nd
X - 64th
. - note dotted
|-n-|  - n-tuplets


Tablature Legend
----------------
L - tied note
x - dead note
g - grace note
(n) - ghost note
> - accentuded note
NH - natural harmonic
AH - artificial harmonic
TH - tapped harmonic
SH - semi harmonic
PH - pitch harmonic
h - hammer on
p - pull off
b - bend
br - bendRelease
pb - preBend
pbr - preBendRelease
brb - bendReleaseBend
\n/ - tremolo bar dip
\n - tremolo bar dive
-/n - tremolo bar Release up
/n\ - tremolo bar inverted dip
/n - tremolo bar return
-\n - tremolo bar Release down
S - shift slide
s - legato slide
/ -  slide into from below or out of upwards
\ -  slide into from above or out of downwards
~ - vibrato
W - wide vibrato
tr - trill
TP - tremolo picking
T - tapping
S - slap
P - pop
< - fade in
^ - brush up
v - brush down
comments
We did not receive enough feedback on this tab! Please rate:
1 2 3 4 5
I want to post or [tab]
guest
You may want to rate the tab now too:
select rating
Please do not post tabs as comments. Select "correction" instead!