Oops, an error
Loading. Please wait.

La Volunte Si Long Temps Endormie Tab

36 views 1 this week
no commentswrite comment
1 2 3 4 5
please rate
Autoscroll
+/-
esc
set tempo
stop
Contributor
N-D
WARNING: You are trying to view
                                    content from Ultimate-Guitar.com
                                    in an unauthorized application,
                                    which is prohibited.

                                    Please use an official Ultimate
                                    Guitar Tabs application for iPhone,
                                    iPad or Android to access legitimate
                                    chords, guitar, bass, and drum tabs
                                    from Ultimate-Guitar.com database.

                                    Type "ultimate guitar tabs" in Apple
                                    App Store's or Android Market's
                                    search to find the application.
Tuning: E A D F# B E - Time Signature: 4/4 

 |       |       |       |        |       |       |       |        
|--------------------------------|0-------2-------3-------3-------|
|------------------------4-------|0---------------0-------2-------|
|------------------------5-------|1---------------1-------1-------|
|------------------------4-------|2---------------2---------------|
|------------------------2-------|--------------------------------|
|--------------------------------|--------------------------------|

 |       |       |       |        |       |       |       |        
|--------2---0---3---2---3-2-0-2-|3---------------3---------------|
|3---------------3---------------|----------------3---------------|
|3---------------3---------------|----------------5---------------|
|0---------------0---------------|------------------------5-------|
|--------------------------------|--------------------------------|
|--------------------------------|--------3-----------------------|

 |       |       |       |        |       |       |       |        
|3-------3---------------2-------|0-------------------------------|
|3-------3---------------3-------|0---------------4-------4-------|
|5-------5---------------3-------|1---------------5-------5-------|
|----------------0---------------|2---------------4---------------|
|--------------------------------|----------------2---------------|
|3-------------------------------|--------0-----------------------|

 |       |       |       |        |       |       |       |        
|0---------------3---------------|3-------5---3---2---0-----------|
|1-------0-------0---------------|0-----------------------4---2---|
|1-------0-----------------------|----------------4---------------|
|2-------0-------2-------0-------|2-------------------------------|
|----------------3-------2-------|3-------------------------------|
|--------------------------------|--------------------------------|

 |       |       |       |        |       |       |       |        
|--------------------------------|--------------------------------|
|4-------2---0-------------------|----------------4---------------|
|0---------------3---1---0-------|--------------------------------|
|----------------------------2---|0-------------------------------|
|2-------------------------------|----3---2---0---2---0-----------|
|--------------------------------|------------------------3---2---|

 |       |       |       |        |       |       |       |        
|0---------------0---------------|--------2-----------------------|
|----------------0-------2-------|--------3-----------------------|
|--------3-------1---------------|--------3-----------------------|
|----------------2---------------|0-------------------------------|
|--------------------------------|----------------4-------2-------|
|0-------------------------------|--------------------------------|

 |       |       |       |        |       |       |       |        
|----------------0---------------|0---------------0---------------|
|2-------------------------------|0---------------0-------2-------|
|----------------3---------------|1-------3-------1---------------|
|------------------------0-------|2---------------2---------------|
|0-------2-------4---------------|--------------------------------|
|--------------------------------|--------------------------------|

 |       |       |       |        |       |       |       |        
|2-------0-------2-------4-------|5-------3-------2-------0-------|
|3---------------3---------------|2-----------------------0-------|
|3-------------------------------|0-------1-------3---------------|
|0---------------0-------2-------|--------------------------------|
|----------------2---------------|0-------------------------------|
|--------------------------------|------------------------3-------|

 |       |       |       |        |       |       |       |        
|2-------0-------0---------------|--------5-----------------------|
|--------0-------0---------------|4-----------------4-5-4-5-4-2-4-|
|3-------1-------0---------------|5-------------------------------|
|------------------------2-------|4---------------4---------------|
|0-------2-------3---------------|2-------0-------2---------------|
|--------------------------------|--------------------------------|

 |       |       |       |        |       |       |       |        
|----------------0---------------|0-------------------------------|
|5---------------0---------------|0---------------4---0---2---4---|
|----------------1---------------|1---------------0---------------|
|------------------------2-------|2-------------------------------|
|--------------------------------|----------------2---------------|
|--------0-----------------------|0-------------------------------|

 |       |       |       |        |       |       |       |        
|0-------0---2---3---------------|----3---2---0---3---2---3-2-0-2-|
|0---4-----------0-------0---2---|3---------------3---------------|
|1---------------1---3-----------|3---------------3---------------|
|2---------------2---------------|0---------------0---------------|
|--------------------------------|--------------------------------|
|--------------------------------|--------------------------------|

 |       |       |       |        |       |       |       |        
|3---------------3---------------|3---------------2---------------|
|----------------3---------------|3-------------------------------|
|----------------5---------------|5-------3-------3---0---1---3---|
|------------------------5-------|------------5---0---------------|
|--------------------------------|--------------------------------|
|--------3-----------------------|3-------------------------------|

 |       |       |       |        |       |       |       |        
|0-------------------------------|0---------------3---------------|
|0-----------------------4-------|1-------0-------0---------------|
|1-----------------------0-------|1-------0-----------------------|
|--------2-----------------------|2-------0-------2-------0-------|
|----------------2---------------|----------------3-------2-------|
|--------------------------------|--------------------------------|

 |       |       |       |        |       |       |       |        
|3-------5---3---2---0-----------|--------------------0---2---3---|
|0-----------------------4---2---|4-------0---2---4---------------|
|----------------4---------------|0-------------------------------|
|2-------------------------------|--------------------------------|
|3-------------------------------|2-------------------------------|
|--------------------------------|--------------------------------|

 |       |       |       |        |       |       |       |        
|2---0---------------------------|0---------------0---------------|
|--------4---2---5---4---5-4-2-4-|0---------------0-------0---2---|
|--------------------------------|1---0---1---3---1---3-----------|
|----------------4---------------|2---------------2---------------|
|----------------2---------------|--------------------------------|
|--------------------------------|--------------------------------|

 |       |       |       |        |       |       |       |        
|2-------------------------------|----------------0---------------|
|3-------------------------------|--------------------------------|
|3-------------------------------|--------------------------------|
|0-------2---0---2---0-----------|----------------------------0---|
|------------------------4---2---|0-------0---2---4---2---4-------|
|--------------------------------|----4---------------------------|

 |       |       |       |        |       |       |       |        
|0---------------0---------------|2---0-------0---2---0---2---4---|
|0---------------0-------0---2---|3-------3-------3---------------|
|1---0---1---3---1---3-----------|3-------------------------------|
|2---------------2---------------|0-------------------------------|
|--------------------------------|----------------2---------------|
|--------------------------------|--------------------------------|

 |       |       |       |        |       |       |       |        
|5---7---8---7---8---7---5---3---|2---3---5---3---2---0-----------|
|--------------------------------|------------------------4---2---|
|--------------------------------|--------------------------------|
|--------------------------------|--------------------------------|
|0-------------------------------|0---------------0---------------|
|--------------------------------|--------------------------------|

 |       |       |       |        |       |       |       |        
|----0---------------------------|----------------0---------------|
|4-------2---4---5---4---5-4-2-4-|5---------------0---------------|
|0-------------------------------|----------------1---------------|
|----------------4---------------|------------------------2-------|
|2-------0-------2---------------|--------------------------------|
|--------------------------------|--------0-----------------------|

 |       |       |       |        |       |       |       |        
|0-------0-------2---------------|--------0-----------------------|
|0-------0-------3---------------|--------0-------4---------------|
|1-------1-------3---------------|--------1-------5---------------|
|------------------------0-------|2---------------4---------------|
|--------------------------------|------------------------2-------|
|0-------------------------------|--------------------------------|

 |       |       |       |        |       |       |       |        
|0-------2-------3-------0-------|2---0---2---3---2-------0-------|
|----------------3---------------|----------------2---------------|
|1---------------5---------------|3-----------------------1-------|
|2-------------------------------|0-------------------------------|
|3-------------------------------|----------------0---------------|
|----------------3---------------|--------------------------------|

 |       |       |       |        |       |       |       |        
|--------------------------------|--------------------------------|
|3-------2---0---2-------0---2---|--------0-------0---------------|
|5-------------------3-----------|--------1-------0---------------|
|4-------------------------------|--------2-------2---------------|
|2-------------------------------|--------------------------------|
|----------------2---------------|3---------------2-------0-------|

 |       |       |       |        |       |       |       |        
|--------------------------------|----------------0---------------|
|0---2---3---2---0---------------|0-------------------------------|
|0-------------------3---1---0---|1---------------1---------------|
|1-----------------------1-------|2-------------------------------|
|2-------2-----------------------|----------------3---------------|
|--------------------------------|--------0-----------------------|

 |       |       |       |        |       |       |       |        
|3-----------------------2-------|0---------------7---------------|
|1---------------1---------------|0---------------3---------------|
|1-------------------------------|1---------------0---------------|
|----------------2---------------|------------------------0-------|
|3---------------3---------------|--------------------------------|
|--------------------------------|3-------------------------------|

 |       |       |       |        |       |       |       |        
|5-------5-------5-------3-------|2---------------0---------------|
|2-------3-----------0---2-------|3-------2-------0---------------|
|--------------------------------|----------------1-------3-------|
|2-------0---------------2-------|0-------------------------------|
|0---------------0---------------|2-------------------------------|
|--------------------------------|----------------0---------------|

 |       |       |       |        |       |       |       |        
|------------------------0-------|2---------------3---------------|
|3-------2-------3---------------|3---------------0---------------|
|5---------------0-------1-------|3-------------------------------|
|4-------2-------0---------------|0-------------------------------|
|2-------------------------------|--------3-------2-------0-------|
|--------------------------------|--------------------------------|

 |       |       |       |        |       |       |       |        
|--------2-------2---------------|--------0-------2-------0-------|
|--------------------------------|0-------0---4-------------------|
|--------3-------1-------0-------|1-------------------------------|
|----------------0---------------|2-------------------------------|
|--------------------------------|--------------------------------|
|3-------------------------------|--------0---------------0-------|

 |       |       |       |        |       |       |       |        
|2-------0-----------------------|--------------------------------|
|0-----------3---2---0-----------|----------------4---------------|
|------------------------3-1-0---|--------------------------------|
|------------------------------2-|0-------------------------------|
|2-------------------------------|----3---2---0---2---0-----------|
|--------------------------------|------------------------3---2---|

 |       |       |       |        |       |       |       |        
|0-------0---2---3---------------|----3---2---0---3---2---3-2-0-2-|
|0---3-----------0-------0---2---|3---------------3---------------|
|1---------------1---3-----------|3---------------3---------------|
|----------------2---------------|0---------------0---------------|
|--------------------------------|--------------------------------|
|0-------------------------------|--------------------------------|

 |       |       |       |        |       |       |       |        
|3---------------3---------------|3-------3---------------2-------|
|----------------3---------------|3-------3---------------3-------|
|----------------5---------------|5-------5---------------3-------|
|------------------------5-------|----------------0---------------|
|--------------------------------|--------------------------------|
|--------3-----------------------|3-------------------------------|

 |       |       |       |        |       |       |       |        
|0-------------------------------|0---------------3---------------|
|0---------------4-------4-------|1-------0-------0---------------|
|1---------------5-------5-------|1-------0-----------------------|
|2---------------4---------------|2-------0-------2-------0-------|
|----------------2---------------|----------------3-------2-------|
|--------0-----------------------|--------------------------------|

 |       |       |       |        |       |       |       |        
|3-------5---3---2---0-----------|--------------------------------|
|0-----------------------4---2---|4-------2---0-------------------|
|----------------4---------------|0---------------3---1---0-------|
|2-------------------------------|----------------------------2---|
|3-------------------------------|2-------------------------------|
|--------------------------------|--------------------------------|

 |       |       |       |        |       |       |       |        
|--------------------------------|0---------------0---------------|
|----------------4---------------|----------------0-------2-------|
|--------------------------------|--------3-------1---------------|
|0-------------------------------|----------------2---------------|
|----3---2---0---2---0-----------|--------------------------------|
|------------------------3---2---|0-------------------------------|

 |       |       |       |        |       |       |       |        
|--------2-----------------------|----------------0---------------|
|--------3-----------------------|2-------------------------------|
|--------3-----------------------|----------------3---------------|
|0-------------------------------|------------------------0-------|
|----------------4-------2-------|0-------2-------4---------------|
|--------------------------------|--------------------------------|

 |       |       |       |        |       |       |       |        
|0---------------0---------------|2-------0-------2-------4-------|
|0-------3-------0-------2-------|3---------------3---------------|
|1---------------1---------------|3-------------------------------|
|2---------------2---------------|0---------------0-------2-------|
|--------------------------------|----------------2---------------|
|--------------------------------|--------------------------------|

 |       |       |       |        |       |       |       |        
|5-------3-------2-------0-------|2-------0-------0---------------|
|2-----------------------0-------|--------0-------0---------------|
|0-------1-------3---------------|3-------1-------0---------------|
|--------------------------------|------------------------2-------|
|0-------------------------------|0-------2-------3---------------|
|------------------------3-------|--------------------------------|

 |       |       |       |        |       |       |       |        
|0-------------------------------|----------------0---------------|
|4-------5---------4-5-4-5-4-2-4-|5---------------0---------------|
|5-------------------------------|----------------1---------------|
|4---------------4---------------|------------------------2-------|
|2-------0-------2---------------|--------------------------------|
|--------------------------------|--------0-----------------------|

 |       |       |       |        |       |       |       |        
|0-------------------------------|--------------------------------|
|0-------------------------------|--------------------------------|
|1-------------------------------|--------------------------------|
|--------------------------------|--------------------------------|
|--------------------------------|--------------------------------|
|0-------------------------------|--------------------------------|
comments
We did not receive enough feedback on this tab! Please rate:
print report bad tab
1 2 3 4 5
I want to post or [tab]
guest
You may want to rate the tab now too:
select rating
Please do not post tabs as comments. Select "correction" instead!