Oops, an error
Loading. Please wait.

Beautiful In Blue Tab

ver2
ver2

Intro

Whole song

Interactive

More versions @911Tabs.com
10,037 views 6 this week
4 commentsread comments
1 2 3 4 5
excellent!
x 7
Autoscroll
+/-
esc
set tempo
stop
Contributor
Tabbers playing skills
advanced +
Hey! There's an official Ultimate Guitar app which is ideal
for learning songs when you're away from computer. Get the app
WARNING: You are trying to view
                                    content from Ultimate-Guitar.com
                                    in an unauthorized application,
                                    which is prohibited.

                                    Please use an official Ultimate
                                    Guitar Tabs application for iPhone,
                                    iPad or Android to access legitimate
                                    chords, guitar, bass, and drum tabs
                                    from Ultimate-Guitar.com database.

                                    Type "ultimate guitar tabs" in Apple
                                    App Store's or Android Market's
                                    search to find the application.
by 09283150081
f_sario@yahoo.com

*=palm mute
/\=slide
~-let ring
Intro-
Verse-
1.
GtrI

|---------------------------------------------------------------------------|
|---------------------------------------------------------------------------|
|-777-7777777777777777-7777777777777777777-777777777777777777---------------|
|-999-9999999999999999-7777777777777777777-555555555555555555-7-7-7-7-7-7-7-|
|-------------------------------------------------------------7-7-7-7-7-7-7-|
|-------------------------------------------------------------7-7-7-7-7-7-7-|
  *** **************** ******************* *******************
GtrII

|---------------------------------------------------------------------------|
|---------------------------------------------------------------------------|
|---------------777777---------------777777-------------777777--------------|
|-999-------999--------777-------777-------555-------555------7-7-7-7-7-7-7-|
|-999-------999--------777-------777-------555-------555------7-7-7-7-7-7-7-|
|-999-------999--------777-------777-------555-------555------7-7-7-7-7-7-7-|

2.
GtrI

|----------|----------|--------|----------|-------------------|
|----------|----------|--------|----------|-------------------|
|-7-7-7-7--|-7-7-7-7--|-11~-9~-|-7-7-7-7--|-777-777-777-777-7-|
|-x-x-x-x--|-x-x-x-x--|-x---x--|-x-x-x-x--|-xxx-xxx-xxx-xxx-x-|
|-5-5-5-5--|-5-5-5-5--|-9~--7~-|-5-5-5-5--|-555-555-555-555-5-|
|----------|----------|--------|----------|-------------------|
GtrII

|----------|----------|--------|----------|-------------------|
|----------|----------|--------|----------|-------------------|
|----------|----------|--------|----------|-------------------|
|-9-9-9-9--|-7-7-7-7--|--------|-5-5-5-5--|-777-777-777-777-7-|
|-9-9-9-9--|-7-7-7-7--|--------|-5-5-5-5--|-777-777-777-777-7-|
|-9-9-9-9--|-7-7-7-7--|--------|-5-5-5-5--|-777-777-777-777-7-|
3.
GtrI


|-------------------------------------------------------------------------|
|-------------------------------------------------------------------------|
|-------------------------------------------------------------------------|
|-9-11-11-12-11-9---9-11-11-12-11-9---9-11-11-12-11-9---9-11-11-12-11-9---|
|-------------------------------------------------------------------------|
|-------------------------------------------------------------------------|
  * *  *  *  *  *   * *  *  *  *  *   * *  *  *  *  *   * *  *  *  *  *
GtrII

|-------------------------------------------------------------------------|
|-------------------------------------------------------------------------|
|-------------------------------------------------------------------------|
|-9-9--9--9--9-9----9-9--9--9--9-9---9-9--9--9--9-9-----9-9--9--9--9-9----|
|-9-9--9--9--9-9----9-9--9--9--9-9---9-9--9--9--9-9-----9-9--9--9--9-9----|
|-9-9--9--9--9-9----9-9--9--9--9-9---9-9--9--9--9-9-----9-9--9--9--9-9----|
  * *  *  *  * *    * *  *  *  * *   * *  *  *  * *     * *  *  *  * *
4.
GtrI
|-----------------------------------------------------|
|-----------------------------------------------------|
|-----------------------------------------------------|
|-------12-14-------11-12-------14-14--------14-14----|
|-12-12-------12-12-------12-12--------12-12----------|
|-----------------------------------------------------|
  * *   *  *  * *   *  *  *  *         *   * 
GtrII
|-----------------------------------------------------|
|-----------------------------------------------------|
|-----------------------------------------------------|
|-7-7---7--7--7-7---7--7--7-7----------7--7-----------|
|-7-7---7--7--7-7---7--7--7-7----------7--7-----------|
|-7-7---7--7--7-7---7--7--7-7----------7--7-----------|
  * *   *  *  * *   *  *  *  *         *  *
5.
GtrI
|----------------------------------------------------------------------------|
|----------------------------------------------------------------------------|
|----------------------------------------------------------------------------|
|-12-12-14-16-14-12--12-12-14-16-14-12--12-12-14-16-14-12--12-12-14-16-14-12-|
|----------------------------------------------------------------------------|
|----------------------------------------------------------------------------|
  *  *  *  *  *  *   *  *  *  *  *  *   *  *  *  *  *  *   *  *  *  *  *  *
GtrII
|-------------------------------------------------------------------------|
|-------------------------------------------------------------------------|
|-------------------------------------------------------------------------|
|-9-9--9--9--9-9----9-9--9--9--9-9---9-9--9--9--9-9-----9-9--9--9--9-9----|
|-9-9--9--9--9-9----9-9--9--9--9-9---9-9--9--9--9-9-----9-9--9--9--9-9----|
|-9-9--9--9--9-9----9-9--9--9--9-9---9-9--9--9--9-9-----9-9--9--9--9-9----|
  * *  *  *  * *    * *  *  *  * *   * *  *  *  * *     * *  *  *  * *
6.GtrI
|-----------------------------------------------------|
|-----------------------------------------------------|
|-----------------------------------------------------|
|-------12-14-------11-12-------14-14--------14-14----|
|-12-12-------12-12-------12-12--------12-12----------|
|-----------------------------------------------------|
  * *   *  *  * *   *  *  *  *         *   * 
GtrII
|-----------------------------------------------------|
|-----------------------------------------------------|
|-----------------------------------------------------|
|-7-7---7--7--7-7---7--7--7-7----------7--7-----------|
|-7-7---7--7--7-7---7--7--7-7----------7--7-----------|
|-7-7---7--7--7-7---7--7--7-7----------7--7-----------|
  * *   *  *  * *   *  *  *  *         *  *

Chorus-
GtrI
|-------------------------------------------|   ---------------|
|-------------------------------------------|   ---------------|
|-4-4-6-4-7-4--6-4-7-4--6-4-7-4--6-4-7-4----|2x -6~-6~-6~-6~---|
|-------------------------------------------|   -4~-4~-4~-4~---| 
|-------------------------------------------|   -4~-4~-4~-4~---| 
|-------------------------------------------|   -4~-4~-4~-4~---| 

GtrII
|-------------------------------------------|   ---------------|
|-------------------------------------------|   ---------------|
|-------------------------------------------|2x ---------------|
|-9-9-9-9-9-9--9-9-9-9--9-9-9-9--9-9-9-9----|   -4~-4~-4~-4~---| 
|-9-9-9-9-9-9--9-9-9-9--9-9-9-9--9-9-9-9----|   -4~-4~-4~-4~---| 
|-9-9-9-9-9-9--9-9-9-9--9-9-9-9--9-9-9-9----|   -4~-4~-4~-4~---| 

2.GtrI
|-------------------------------------------|   --------------------------|
|-------------------------------------------|   ------7-------------------|
|-4-4-6-4-7-4--6-4-7-4--6-4-7-4--6-4-7-4----|2x -7-6----7-9-9-9-9-9-9-9-9-|
|-------------------------------------------|   -----9------7-7-7-7-7-7-7-|
|-------------------------------------------|   ------------7-7-7-7-7-7-7-| 
|-------------------------------------------|   ------------7-7-7-7-7-7-7-|
GtrII

|-------------------------------------------|   --------------------------|
|-------------------------------------------|   --------------------------|
|-------------------------------------------|2x --------------------------|
|-5-5-5-5-5-5--5-5-5-5--5-5-5-5--5-5-5-5----|   ------------7-7-7-7-7-7-7-|
|-5-5-5-5-5-5--5-5-5-5--5-5-5-5--5-5-5-5----|   ------------7-7-7-7-7-7-7-| 
|-5-5-5-5-5-5--5-5-5-5--5-5-5-5--5-5-5-5----|   ------------7-7-7-7-7-7-7-|


3.
GtrI
|---------------------------------------|
|--------------------------------5-7----|
|----------------------7-9--------------|
|-99-9-11-99-11-12-77---------55--------|
|-99------99-------77---------55--------|
|-99------99-------77---------55--------|
  **      **       **         ** 
GtrII
|---------------------------------------|
|---------------------------------------|
|---------------------------------------|
|-99------99-------77---------55--------|
|-99------99-------77---------55--------|
|-99------99-------77---------55--------|
  **      **       **         ** 
Repeat Verse

then
1.
GtrI
|----------------------------------------------|-----------------------|
|----------------------------------------------|-----------------------|
|--7-7-7/6\7--7-7-7/6\7--7-7-7/6\7--7-7-7/6\7--|-7-7-7/6\7--7-7-7/6\7--|
|--x-x-x-x-x--x-x-x-x-x--x-x-x-x-x--x-x-x-x-x--|-x-x-x-x-x--x-x-x-x-x--|
|--5-5-5/4\5--5-5-5/4\5--5-5-5/4\5--5-5-5/4\5--|-5-5-5/4\5--5-5-5/4\5--|
|----------------------------------------------|-----------------------|

GtrII
|-----------------------------------------|------------------------------------|
|-----------------------------------------|------------------------------------|
|-----------------------------------------|-------1111-9/11\9------1111-9/11\9-|
|--9-99-----9-99------7-77-------7-77-----|--5-55-x-x--x-x--x-5-55-x-x--x-x--x-|
|--9-99-----9-99------7-77-------7-77-----|--5-55-9-9--7/9-\7-5-55-9-9-7/9-\7--|
|--9-99-----9-99------7-77-------7-77-----|--5-55-------------5-55-------------|

2.
GtrI


|------------------------------------|-----------------|
|-------7-----------7----------7-----|---------7^-7^---|
|-6-7-9--9-7--6-7-9--9-7--6-7-9--9-7-|---6-7-9------9~-|
|------------------------------------|-----------------|
|------------------------------------|-----------------|
|------------------------------------|-----------------|
GtrII
|------------------------------------|-----------------|
|------------------------------------|-----------------|
|------------------------------------|-----------------|
|-7-7-7-7-7-7-7-7-7-7-7-7--7-7-7-7-7-|---7-7-7-7--7-7--|
|-7-7-7-7-7-7-7-7-7-7-7-7--7-7-7-7-7-|---7-7-7-7--7-7--|
|-7-7-7-7-7-7-7-7-7-7-7-7--7-7-7-7-7-|---7-7-7-7--7-7--|

Do chorus
 GtrI
|---------------------------------------|
|---------------------------------------|
|----------------------7-9--------------|
|-99-9-11-99-11-12-77---------55--------|
|-99------99-------77---------55--------|
|-99------99-------77---------55--------|
  **      **       **         ** 
GtrII
|---------------------------------------|
|---------------------------------------|
|---------------------------------------|
|-99------99-------77---------55--------|
|-99------99-------77---------55--------|
|-99------99-------77---------55--------|
  **      **       **         ** 

pre solo-
GtrI
|-----------------------------------|
|-----------------------------------|
|-6-7-6-4-7-6-----6-7-6-4-7-6-------|
|-----------------------------------|
|-----------------------------------|
|-----------------------------------|
GtrII
|-----------------------------------|
|-----------------------------------|
|-----------------------------------|
|-22222--22222----222222--222222----|
|-22222--22222----222222--222222----|
|-22222--22222----222222--222222----|



solo-
GtrI
|----------------------------|--5----5------------------|
|----------------------------|----7----7--5--7---5------|
|-7~--9~--11~---12~\--7~--7~-|-----------------7--------|
|----------------------------|--------------------------|
|----------------------------|--------------------------|
|----------------------------|--------------------------|

|---5----5-----------------|-5----5--------------5---5--|
|-----7----7--5--7---------|---7----7--5--7---5----7--7-|
|-------------------7~--7~-|----------------7-----------|
|--------------------------|----------------------------|
|--------------------------|----------------------------|
|--------------------------|----------------------------|
GtrII
|------------------------------------------------------|
|------------------------------------------------------|
|-7-7-7-7-7-7------------------------------------------|
|-7-7-7-7-7-7--7-7-7-7-7-7--5-5-5-5-5-5-5--7-7-7-7-7-7-|
|-5-5-5-5-5-5--7-7-7-7-7-7--5-5-5-5-5-5-5--7-7-7-7-7-7-|
|--------------7-7-7-7-7-7--5-5-5-5-5-5-5--7-7-7-7-7-7-|

Bridge-    
GtrI                                                         DIST ON
|-5~--------5--------|-5--------5-------|-----------5--------5~----|
|---5~--7-8---7-5-7--|---5--7-8---7-5-7-|-5~-7~--7-8---5-7-5---5~--|
|--------------------|------------------|--------------------------|
|--------------------|------------------|--------------------------|
|--------------------|------------------|--------------------------|
|--------------------|------------------|--------------------------|

GtrI &GtrIi 
|---------------|---------------|---------------|----------------|
|---------------|---------------|---------------|----------------|
|-666-666-666-6-|-666-666-666-6-|-666-666-666-6-|-666-666-6~-----|
|-444-444-444-4-|-444-444-444-4-|-444-444-444-4-|-444-444-4~-----|
|-444-444-444-4-|-444-444-444-4-|-444-444-444-4-|-444-444-4~-----|
|-444-444-444-4-|-444-444-444-4-|-444-444-444-4-|-444-444-4~-----|


DO Chorus


GtrI 
|---------------------------------------|
|--------------------------------5-7----|
|----------------------7-9--------------|
|-99-9-11-99-11-12-77---------55--------|
|-99------99-------77---------55--------|
|-99------99-------77---------55--------|
  **      **       **         ** 
GtrII
|---------------------------------------|
|---------------------------------8-7---|
|---------------------------------------|
|-99------99-------77---------55--------|
|-99------99-------77---------55--------|
|-99------99-------77---------55--------|
  **      **       **         ** 

hoy Ian!!!
comments
print report bad tab
4 comments total. Showing first comments.
0 reply
supersario wrote on March 25 2008, 09:49 pm

cool!!!

0 reply
output24 wrote on May 31 2008, 06:07 am

Good Job!

0 reply
xXRickyXx wrote on July 30 2010, 01:04 pm

what tuning is this?

I want to post or [tab]
guest
You may want to rate the tab now too:
select rating
Please do not post tabs as comments. Select "correction" instead!