Oops, an error
Loading. Please wait.

Curse Of The Virgin Canvas Tab

ver1
ver1

Interactive

More versions @911Tabs.com
9,285 views 15 this week
1 commentread comment
1 2 3 4 5
not so good
x 3
add to favorites launch autoscroll
font size
0
reset
Autoscroll
+/-
esc
set tempo
stop
Contributor
Tuning
D A D G B E
WARNING: You are trying to view
                                    content from Ultimate-Guitar.com
                                    in an unauthorized application,
                                    which is prohibited.

                                    Please use an official Ultimate
                                    Guitar Tabs application for iPhone,
                                    iPad or Android to access legitimate
                                    chords, guitar, bass, and drum tabs
                                    from Ultimate-Guitar.com database.

                                    Type "ultimate guitar tabs" in Apple
                                    App Store's or Android Market's
                                    search to find the application.
Curse of the Virgin Canvas
by Alesana tabbed by me :D





Intro:
e|--------------------------------------------------------------------------|
B|--------------------------------------------------------------------------|
G|---10-9-7-10---10-9-7-----------------------------------------------------|
D|-7-----------7------------------------------------------------------------|    <x4>
A|--------------------------------------------------------------------------|
D|--------------------------------------------------------------------------|


e|--------------------------------------------------------------------------|
B|--------------------------------------------------------------------------|
G|----14-12-10-12----14-12-10-----------------------------------------------|
D|-12-------------12--------------------------------------------------------|    <x4>
A|--------------------------------------------------------------------------|
D|--------------------------------------------------------------------------|




Verse:
e|--------------------------------------------------------------------------|
B|--------------------------------------------------------------------------|
G|-7-7-7-7-7-7-7-7---------------------------9-7---9-10---------------------|
D|-X-x-x-x-x-x-x-x----3-3-3-3-3-3-3-3/7----7-----7--------------------------|    <x2>
A|-5-5-5-5-5-5-5-5----------------------------------------------------------|
D|--------------------------------------------------------------------------|




<Pre-Chorus> (Nothing is played)




Chorus:
e|--------------------------------------------------------------------------|
B|--------------------------------------------------------------------------|
G|-10-7-9-7-9-7-10-7-9-7-9-7-10-7-9-7-<x2>----------------------------------|
D|---------------------------------------------10----12---------------------|    <x2>
A|------------------------------------------------12----12---10/12-10-7-----|
D|--------------------------------------------------------------------------|




Verse:
e|--------------------------------------------------------------------------|
B|--------------------------------------------------------------------------|
G|-7-7-7-7-7-7-7-7---------------------------9-7---9-10---------------------|
D|-X-x-x-x-x-x-x-x----3-3-3-3-3-3-3-3/7----7-----7--------------------------|    <x2>
A|-5-5-5-5-5-5-5-5----------------------------------------------------------|
D|--------------------------------------------------------------------------|




<Pre-Chorus> (Nothing is played)




Chorus:
e|--------------------------------------------------------------------------|
B|--------------------------------------------------------------------------|
G|-10-7-9-7-9-7-10-7-9-7-9-7-10-7-9-7- <x2> --------------------------------|
D|-----------------------------------------------10----12-------------------|    <x2>
A|--------------------------------------------------12----12---10/12-10-7---|
D|--------------------------------------------------------------------------|




Outro:
e|--------------------------------------------------------------------------|
B|--------------------------------------------------------------------------|
G|-------------9-10---------------------------------------------------------|
D|-12----10-12--------------------------------------------------------------|    <x4>
A|----12--------------------------------------------------------------------|
D|--------------------------------------------------------------------------|




Bridge pt. 1:
e|--------------------------------------------------------------------------|
B|--------------------------------------------------------------------------|
G|--------------------------------------------------------------------------|
D|--------------------------------------------------------------------------|
A|--------------------------------------------------------------------------|
D|--------------------------------------------------------------------------|
I don't know this part, help me out guys (:





Bridge pt. 2
e|--------------------------------------------------------------------------|
B|---------------------------------8----------8-----------------------------|
G|-----------------------------------10-9-------10-9----10p9----------------|
D|-7h9-9-9-9h10-7h9-9-9-9- <x2> ----------10---------10---------------------|    <x3>
A|--------------------------------------------------------------------------|
D|--------------------------------------------------------------------------|




Chorus:
e|--------------------------------------------------------------------------|
B|--------------------------------------------------------------------------|
G|-10-7-9-7-9-7-10-7-9-7-9-7-10-7-9-7- <x2> --------------------------------|
D|-----------------------------------------------10----12-------------------|    <x2>
A|--------------------------------------------------12----12---10/12-10-7---|
D|--------------------------------------------------------------------------|




Outro:
e|--------------------------------------------------------------------------|
B|--------------------------------------------------------------------------|
G|-------------9-10---------------------------------------------------------|
D|-12----10-12--------------------------------------------------------------|    <x4>
A|----12--------------------------------------------------------------------|
D|--------------------------------------------------------------------------|
comments
We did not receive enough feedback on this tab! Please rate:
print report bad tab
1 2 3 4 5
1 comment total.
0 reply
dylan.mckinney. wrote on April 28 2013, 05:19 pm

For the intro I think it sounds closer played like this:
e|---------------------------------------------------------------------|
B|---------------------------------------------------------------------|
G|---10-9---9---10-9-7-------------------------------------------------|
D|-7------7---7--------------------------------------------------------|
A|---------------------------------------------------------------------|
D|---------------------------------------------------------------------|
If you listen to the beginning the timing should be pretty easy to hear out.

I want to post or [tab]
guest
You may want to rate the tab now too:
select rating
Please do not post tabs as comments. Select "correction" instead!