Oops, an error
Loading. Please wait.

On Frail Wings Of Vanity And Wax Tab

8,788 views 1 this week
4 commentsread comments
1 2 3 4 5
accurate
x 8
add to favorites launch autoscroll
font size
0
reset
Autoscroll
+/-
esc
set tempo
stop
Contributor
Difficulty
intermediate
WARNING: You are trying to view
                                    content from Ultimate-Guitar.com
                                    in an unauthorized application,
                                    which is prohibited.

                                    Please use an official Ultimate
                                    Guitar Tabs application for iPhone,
                                    iPad or Android to access legitimate
                                    chords, guitar, bass, and drum tabs
                                    from Ultimate-Guitar.com database.

                                    Type "ultimate guitar tabs" in Apple
                                    App Store's or Android Market's
                                    search to find the application.
Compilation of Alesana songs
Tabs from:Freakywi
          hariz05
          LEMAYZING57
          me

On Frail Wings of Vanity And Wax
1.Icarus
2.Ambrosia
3.Pathetic, Ordinary
4.Alchemy Sounded Good At the Time
5.Daggers Speak Louder Than Words
6. The Last Three Letters
7. Apology
8. Tilting The Hourglass
9. This Conversation Is Over
10. Congratulations, I Hate You
11. The Third Temptation Of Paris
12. A Siren's Soliloquy
13. Nero's Decay

Ambrosia(tabbed by: hariz05)
Drop D
[INTRO]
Guitar 1
e|----|
B|----|
G|----|
D|-0*-|
A|-0*-|
D|-0*-|

Guitar 2
e|-------------------|x4
B|-------------------|
G|-------------------|
D|-5-3-2h3p2-3-0-----|
A|---------------3p0-|
D|-------------------|

"A touch of poison, seals my fate!"
Continues...
Guitar 1
e|-----------|
B|-----------|
G|-----------|
D|-10-8-7-0*-|
A|-10-8-7-0*-|
D|-10-8-7-0*-|

e|----------|
B|----------|
G|----------|
D|-0-000000-|
A|-0-000000-|
D|-0-000000-|
PM   ......

Then...
Guitar 1
e|---------|
B|---------|
G|-------7-|
D|-5-7-8---|
A|---------|
D|---------|

Guitar 2
e|-------------|
B|----------15-|
G|-12-14-15----|
D|-------------|
A|-------------|
D|-------------|
[VERSE] x2

"Once king of roses..."
Guitar 1
e|---------------------------------------------------------|
B|---------------------------------------------------------|
G|---------------------------------------------------------|
D|-5-555555555555555-----------3-333333333333333-----------|
A|-5-555555555555555-----------3-333333333333333-----------|
D|-5-555555555555555-----------3-333333333333333-----------|
PM   ...............             ...............

Guitar 2 (I prefer Alternate picking than hammering)
e|---------------------------------------------------------|
B|---------------------------------------------------------|
G|---------------------------7---------------------------8-|
D|-5-7-9-5-7-9-5-7-9-5-7-9-5---5-7-9-5-7-9-5-7-9-5-7-9-5---|
A|---------------------------------------------------------|
D|---------------------------------------------------------|

"Blessed with the gift, a gilded touch..."
Guitar 1
e|-------------------------------------|    |--------------|
B|-------------------------------------|    |--------------|
G|-------------------------------------|    |-8-88---7-77--|
D|-1-111111111111111-0-000000000000000-| or |-8-88---7-77--|
A|-1-111111111111111-0-000000000000000-|    |-6-66...5-55..|
D|-1-111111111111111-0-000000000000000-|    |--------------|
PM   ...............   ...............

Guitar 2
e|-------------------------------------|
B|-------------------------------------|
G|---8-7-8-5-7-5h7p5---8-7-8-5-7-8h7p8-|
D|-5-----------------5-----------------|
A|-------------------------------------|
D|-------------------------------------|

Just before chorus:
Guitar 2
e|-----------------------------|
B|-----------------------------|
G|---------------------------7-|
D|-5-7-9-5-7-9-5-7-9-5-7-9-5---|
A|-----------------------------|
D|-----------------------------|

[CHORUS]
"I curse the day..."
Guitar 1
e|-------------------------------------------------------------------|
B|-------------------------------------------------------------------|
G|-------------------------------------------------------------------|
D|-555555555555555-3333333333333333-111111111111111-0000000000000000-|
A|-555555555555555-3333333333333333-111111111111111-0000000000000000-|
D|-555555555555555-3333333333333333-111111111111111-0000000000000000-|

Repeat [VERSE]x2 then [CHORUS]

[INTERLUDE]x2

"Have I not earned this..."
Guitar 1
e|-----------|
B|-----------|
G|-----------|
D|-8888-7777-|
A|-8888-7777-|
D|-8888-7777-|

(Alternate picking)
e|---------------------------|
B|---------------------------|
G|---------------------------|
D|-------------------------0-|
D|-------------------------0-|
A|-5-7-8-5-7-8-5-7-8-5-7-8-0-|

e|-----------|
B|-----------|
G|-----------|
D|-8888-7777-|
A|-8888-7777-|
D|-8888-7777-|

e|------------------|
B|------------------|
G|------------------|
D|----------------0-|
A|----------------0-|
D|-5555-8888-7777-0-|
PM .... .... ....

[BRIDGE]
After the bass solo:
"Oh yeah!..."
Guitar 1
e|----------------|x8                               |----|
B|----------------|                                 |----|
G|---5/7-5--------|                                 |----|
D|-0-5/7-5-5-53-0-|   on the 8th time end with this |-3*-|
A|-0-3/5-3-5-53-0-|                                 |-3*-|
D|-0-------5-53-0-|                                 |-3*-|

Guitar 2
e|-----------|------------------|x2
B|-----------|-8-6-8-6----------|
G|---5-7—----|---------7--------|
D|-7---------|------------------|
A|-----------|------------------|
D|-----------|------------------|

e|-----------|------------------|
B|-----------|------------------|
G|---5-7—----|-----5--------5-7-|
D|-7---------|-7-7---7--5-7-----|
A|-----------|------------------|
D|-----------|------------------|

e|-----------|--------------------|
B|-8-6-8-6---|--------------------|
G|---------7-|-----5--------7-7-5~|
D|-----------|-7-7---7--5-7-------|
A|-----------|--------------------|
D|-----------|--------------------|

"Now she's good as gold!"
Guitar 1
e|---------|
B|---------|
G|-------7-|
D|-5-7-8---|
A|---------|
D|---------|

Guitar 2
e|-------------|
B|----------15-|
G|-12-14-15----|
D|-------------|
A|-------------|
D|-------------|

Repeat [CHORUS]x2

End with this:
Guitar 1
e|-----------|
B|-----------|
G|-----------|
D|-8888-7777-|
A|-8888-7777-|
D|-8888-7777-|

e|------------------|
B|------------------|
G|------------------|
D|----------------0-|
A|----------------0-|
D|-5555-8888-7777-0-|
PM .... .... ....

Pathetic, Ordinary(tabbed by: Freakywi)
Drop D#
INTRO
|---------------------------------------------------------------------|
|--11---11-11---11-----------------11---11-11---11--------------------|
|-----8-------8----10-8-10-10-8-10----8-------8----10-8-10-10-8-10----|
|---------------------------------------------------------------------|
|---------------------------------------------------------------------|
|---------------------------------------------------------------------|

|------------------------------------------------------|
|--9-----9-----9-----8-----8----8----11---11-9---8-----|
|----8-----8-----8-----8-----8----8-----8------8-------|
|------10----10----10----10----8----8------------------|
|------------------------------------------------------|
|------------------------------------------------------|

|------------------------------------------------------|
|--9-----9-----9-----8-----8----8----9---9-11---11-----|
|----8-----8-----8-----8-----8----8----8------8--------|
|------10----10----10----10----8----8------------------|
|------------------------------------------------------|
|------------------------------------------------------|

|---------------------------------------------------------------------|
|--11---11-11---11-----------------11---11-11---11--------------------|
|-----8-------8----10-8-10-10-8-10----8-------8----10-8-10-10-8-10----|
|---------------------------------------------------------------------|
|---------------------------------------------------------------------|
|---------------------------------------------------------------------|

|------------------------------------------------------------|
|--9-----9-----9-----8-----8-9-8-8-8-8-8-9-9-9-9-11-11-11----|
|----8-----8-----8-----8-------------------------------------|
|------10----10----10----10----------------------------------|
|------------------------------------------------------------|
|------------------------------------------------------------|

VERSE
IN DREAMS
|-------------------------------6------6----|
|--9-0-8-0-6-0-9-0-8-0-6-0-9-0-8--9-0-8-----|
|-------------------------------------------|
|-------------------------------------------| [x4]
|-------------------------------------------|
|-------------------------------------------|

HER SOFT EYES SEE....
|------------------------------------11-0-9-0-8----|
|--9-0-8-0-6-0-9-0-8-0-6-0-8-0-9-0-11--------------|
|--------------------------------------------------|
|--------------------------------------------------| [x3]
|--------------------------------------------------|
|--------------------------------------------------|

|------------------------------------11-----------11-----|
|--9-0-8-0-6-0-9-0-8-0-6-0-8-0-9-0-11---8-0-9-0-11-------|
|--------------------------------------------------------|
|--------------------------------------------------------|
|--------------------------------------------------------|
|--------------------------------------------------------|

       AS HER SELFISH....
|---------------------------------|      |------------|
|------------------------------8--|      |--9-8-------|
|--5-5-8-5-5-7-5-5-8-5-5-7-5-5----|      |------8-----|
|---------------------------------| [x3] |--------6---|
|---------------------------------|      |------------|
|---------------------------------|      |------------|

CHORUS
FRIGID AIR LEAVES .....
|-------------------------------------------------------------------|
|-------------------------------------------------------------------|
|-------------------------------------------------------------------|
|--6-6-6-6-6-6-6-6-6-6--6-6--6-6--5-5-5-5-5-5-5-5-5-5-5--5-5--5-5---|
|--6-6-6-6-6-6-6-6-6-6--6-6--6-6--5-5-5-5-5-5-5-5-5-5-5--5-5--5-5---|
|--4-4-4-4-4-4-4-4-4-4--4-4--4-4--3-3-3-3-3-3-3-3-3-3-3--3-3--3-3---|

|-------------------------------------------------------------------------|
|-------------------------------------------------------------------------|
|--------------------------------------------10-10-10-10-10-10-10-10-10---|
|--10-10-10-10-10-10-10-10-10--10-10--10-10--10-10-10-10-10-10-10-10-10---|
|--10-10-10-10-10-10-10-10-10--10-10--10-10--8--8--8--8--8--8--8--8--8----|
|--8--8--8--8--8--8--8--8--8---8--8---8--8--------------------------------|

|--6-8---8-6--8-6-----------------6----|
|------9----------9-8-6--6--6--6--6----|
|------------------------8--8--8-------|
|--------------------------------------|
|--------------------------------------|
|--------------------------------------|

VERSE
I'M BROKEN BY HER.....
|--------------------------------8-----8-----8-----8-----|
|--6-8-9-6-8-9-8-9-11-8-9-11-8-11--8-11--8-11--8-11------|
|--------------------------------------------------------|
|--------------------------------------------------------| [x4]
|--------------------------------------------------------|
|--------------------------------------------------------|

MY WINGLESS...
|-------------------------------------------------------------------|
|-------------------------------------------------------------------|
|-------------------------------------------------------------------|
|--8-8-8-8--8-10-11--8-8-8-8--10-10-10-10--10-11-8--10-10-10-10-----|
|--8-8-8-8-----------8-8-8-8--10-10-10-10-----------10-10-10-10-----|
|--6-6-6-6-----------6-6-6-6--8--8--8--8------------8--8--8--8------|

|--------------------------------------------------------------------------|
|--------------------------------------------------------------------------|
|--8-8-8-8--8-10-6--8-8-8-8--10-10-10-10----------10-10-10-10-10-10-10-10--|
|--8-8-8-8----------8-8-8-8--10-10-10-10--8-10-11-10-10-10-10-10-10-10-10--|
|--6-6-6-6----------6-6-6-6--8--8--8--8-----------8--8--8--8--8--8--8--8---|
|--------------------------------------------------------------------------|
                                                  .  .  .  .  .  .  .  .

(GUITAR CLEAN)
|--6-----------------6----------------------------------------|
|--6-----6-----9-----6-----6-----8-9-8--------8-9-8---11------|
|--8-----5-----8-----8-----5-----------8------------8---------|
|--8-----3-----6-----8-----3-------------6--------------------|
|--6-----------------6----------------------------------------|
|-------------------------------------------------------------|

CHORUS
FRIGID AIR LEAVES .....
|-------------------------------------------------------------------|
|-------------------------------------------------------------------|
|-------------------------------------------------------------------|
|--6-6-6-6-6-6-6-6-6-6--6-6--6-6--5-5-5-5-5-5-5-5-5-5-5--5-5--5-5---|
|--6-6-6-6-6-6-6-6-6-6--6-6--6-6--5-5-5-5-5-5-5-5-5-5-5--5-5--5-5---|
|--4-4-4-4-4-4-4-4-4-4--4-4--4-4--3-3-3-3-3-3-3-3-3-3-3--3-3--3-3---|

|-------------------------------------------------------------------------|
|-------------------------------------------------------------------------|
|--------------------------------------------10-10-10-10-10-10-10-10-10---|
|--10-10-10-10-10-10-10-10-10--10-10--10-10--10-10-10-10-10-10-10-10-10---|
|--10-10-10-10-10-10-10-10-10--10-10--10-10--8--8--8--8--8--8--8--8--8----|
|--8--8--8--8--8--8--8--8--8---8--8---8--8--------------------------------|

|--8-6-----|
|------9---|
|----------|
|----------|
|----------|
|----------|

|-------------------------------------------------------------------|
|-------------------------------------------------------------------|
|-------------------------------------------------------------------|
|--6-6-6-6-6-6-6-6-6-6--6-6--6-6--5-5-5-5-5-5-5-5-5-5-5--5-5--5-5---|
|--6-6-6-6-6-6-6-6-6-6--6-6--6-6--5-5-5-5-5-5-5-5-5-5-5--5-5--5-5---|
|--4-4-4-4-4-4-4-4-4-4--4-4--4-4--3-3-3-3-3-3-3-3-3-3-3--3-3--3-3---|

|-------------------------------------------------------------------------|
|-------------------------------------------------------------------------|
|--------------------------------------------10-10-10-10-10-10-10-10-10---|
|--10-10-10-10-10-10-10-10-10--10-10--10-10--10-10-10-10-10-10-10-10-10---|
|--10-10-10-10-10-10-10-10-10--10-10--10-10--8--8--8--8--8--8--8--8--8----|
|--8--8--8--8--8--8--8--8--8---8--8---8--8--------------------------------|

|--6-8---8-6--8-6-----------------6----|
|------9----------9-8-6--6--6--6--6----|
|------------------------8--8--8-------|
|--------------------------------------|
|--------------------------------------|
|--------------------------------------|

|--------------------------------8-----8-----8-----8-----|
|--6-8-9-6-8-9-8-9-11-8-9-11-8-11--8-11--8-11--8-11------|
|--------------------------------------------------------|
|--------------------------------------------------------|
|--------------------------------------------------------|
|--------------------------------------------------------|

|---------------------------6-8-9-6-8-9-----8-----8------|
|--6-8-9-6-8-9-8-9-11-8-9-11------------8-11--8-11-------|
|--------------------------------------------------------|
|--------------------------------------------------------|
|--------------------------------------------------------|
|--------------------------------------------------------|

|---------------------------8-10-11-8-10-11-8-10-11-8-10-11----|
|--6-8-9-6-8-9-8-9-11-8-9-11-----------------------------------|
|--------------------------------------------------------------|
|--------------------------------------------------------------|
|--------------------------------------------------------------|
|--------------------------------------------------------------|

|--10-12-13-10-12-13-12-13-15-12-13-15--16-16-16-15-15-15------|
|--------------------------------------------------------------|
|--------------------------------------------------------------|
|--------------------------------------------------------------|
|--------------------------------------------------------------|
|--------------------------------------------------------------|

|------------------------------|
|--8-9-8-9-9-9--12-12--14-14---|
|------------------------------|
|------------------------------| [x3]
|------------------------------|
|------------------------------|

|-------------------------------11---|
|--------------------7-9--8-7-11-----|
|----------11-8--6-8-----------------|
|--9-8-6---11-8----------------------|
|--------6-9--6----------------------|
|------------------------------------|
   . . . .       . . . .  . .  . .

|------------------------------|
|--8-9-8-9-9-9--12-12--14-14---|
|------------------------------|
|------------------------------| [x3]
|------------------------------|
|------------------------------|

|-------------------------------11---|
|--------------------7-9--8-7-11-----|
|----------11-8--6-8-----------------|
|--9-8-6---11-8----------------------|
|--------6-9--6----------------------|
|------------------------------------|
   . . . .       . . . .  . .  . .

OUTRO
|-----------6-0-----8-0-6-0-------------6-0------8-0-6-0-----------6-0-----8|
|9-0-8-0-6-0---9-0-8--------9-0-8-0-6-0-----9-0-8-------9-0-8-0-6-0---9-0-8-|
|---------------------------------------------------------------------------|
|---------------------------------------------------------------------------|
|---------------------------------------------------------------------------|
|---------------------------------------------------------------------------|

Alchemy Sounded Good At The Time(tabbed by: me)
Drop D
INTRO:
guitar1:[tremolo picking]
|-------------------------------------------------------|
|-18-18-18-18-18-18-19-19-19-19-19-19-17-17-17-17-17-17-|
|-------------------------------------------------------|
|-------------------------------------------------------|
|-------------------------------------------------------|
|-------------------------------------------------------|

|-------------------------------------------------------|
|-18-18-18-18-18-18-19-19-19-19-19-19-17-17-17-17-17-17-|
|-------------------------------------------------------|
|-------------------------------------------------------|
|-------------------------------------------------------|
|-------------------------------------------------------|
|-------------------------------------------------------|
|-18-18-18-18-18-18-19-19-19-19-19-19-17-17-17-17-17-17-|
|-------------------------------------------------------|
|-------------------------------------------------------|
|-------------------------------------------------------|
|-------------------------------------------------------|
|-------------------------------------------------------|
|-18-18-18-18-18-18-19-19-19-19-19-19-17-17-17-17-17-17-|
|-------------------------------------------------------|
|-------------------------------------------------------|
|-------------------------------------------------------|
|-------------------------------------------------------|

|-------------|
|-------------|
|-------------|
|-13-13-13-13-|
|-13-13-13-13-|
|-13-13-13-13-|

then:
|-----------------------------------------------------------------|
|-----------------------------------------------------------------|
|-----------------------------------------------------------------|
|----3-4---1-3---3-4---1-3---1-3---3-4---1-3---3-4---1-3----3-4---|
|--0-----0-----0-----0-----0-----0-----0-----0-----0-----0--------|
|-----------------------------------------------------------------|

|------------------------------------------------------------------|
|------------------------------------------------------------------|
|------------------------------------------------------------------|
|----1-3-----1---1-3-----1-----1----1-3-----1---1-3-----1----3-4---|
|--0-----0-4---0-----0-4---0-4----0-----0-4---0-----0-4---0--------|
|------------------------------------------------------------------|

|-----------------------------------------------------------------|
|-----------------------------------------------------------------|
|-----------------------------------------------------------------|
|----3-4---1-3---3-4---1-3---1-3---3-4---1-3---3-4---1-3----3-4---|
|--0-----0-----0-----0-----0-----0-----0-----0-----0-----0--------|
|-----------------------------------------------------------------|

|------------------------------------------------------------------|
|------------------------------------------------------------------|
|------------------------------------------------------------------|
|----1-3-----1---1-3-----1-----1----1-3-----1---1-3-----1----3-4---|
|--0-----0-4---0-----0-4---0-4----0-----0-4---0-----0-4---0--------|
|------------------------------------------------------------------|

then verse:

|-----------------------------------------------------------------|
|-----------------------------------------------------------------|
|-----------------------------------------------------------------|
|----3-4---1-3---3-4---1-3---1-3---3-4---1-3---3-4---1-3----3-4---|
|--0-----0-----0-----0-----0-----0-----0-----0-----0-----0--------|
|-----------------------------------------------------------------|

|------------------------------------------------------------------|
|------------------------------------------------------------------|
|------------------------------------------------------------------|
|----1-3-----1---1-3-----1-----1----1-3-----1---1-3-----1----3-4---|
|--0-----0-4---0-----0-4---0-4----0-----0-4---0-----0-4---0--------|
|------------------------------------------------------------------|

|-----------------------------------------------------|
|-----------------------------------------------------|
|-----------------------------------------------------|
|----3-4---1-3---3-4---1-3---1-3-----3-4---1-3---3-4--|
|--0-----0-----0-----0-----0-------0-----0-----0------|
|-----------------------------------------------------|

then:
|--6----9--6------6-----9---6----------------------|
|----4--------4------4-----------------------------|
|--------------------------------------------------|
|---------------------------------13131313131313---|
|---------------------------------13131313131313---|
|---------------------------------13131313131313---|
                                  . . . . . . .

|--6----9--6------6-----9---6----------------------|
|----4--------4------4-----------------------------|
|--------------------------------------------------|
|---------------------------------13131313131313---|
|---------------------------------13131313131313---|
|---------------------------------13131313131313---|
                                  . . . . . . .

chorus:
guitar2:
|----------------------------|
|----------------------------|
|----------------------------|
|-131313131313-151515151515--| x2
|-131313131313-151515151515--|
|-131313131313-151515151515--|

guitar1:[plays a while after guitar2...]
|-1-2-1-------1-----4-2-1--|
|-------4-2-----4-2--------|
|-----------3--------------|
|--------------------------|
|--------------------------|
|--------------------------|

post-chorus riff:
|-------------------------------------------------------------|
|-------14-------14----------9-------14-------14--------------|
|-10-11----10-11----11-10-11---10-11----10-11----14-14-12-11--|
|-------------------------------------------------------------|
|-------------------------------------------------------------|
|-------------------------------------------------------------|

intro again...
guitar1:[tremolo]
|-------------------------------------------------------|
|-18-18-18-18-18-18-19-19-19-19-19-19-17-17-17-17-17-17-|
|-------------------------------------------------------|
|-------------------------------------------------------|
|-------------------------------------------------------|
|-------------------------------------------------------|

|-------------------------------------------------------|
|-18-18-18-18-18-18-19-19-19-19-19-19-17-17-17-17-17-17-|
|-------------------------------------------------------|
|-------------------------------------------------------|
|-------------------------------------------------------|
|-------------------------------------------------------|
|-------------------------------------------------------|
|-18-18-18-18-18-18-19-19-19-19-19-19-17-17-17-17-17-17-|
|-------------------------------------------------------|
|-------------------------------------------------------|
|-------------------------------------------------------|
|-------------------------------------------------------|
|-------------------------------------------------------|
|-18-18-18-18-18-18-19-19-19-19-19-19-17-17-17-17-17-17-|
|-------------------------------------------------------|
|-------------------------------------------------------|
|-------------------------------------------------------|
|-------------------------------------------------------|

guitar2:
|-------------|
|-------------|
|-------------|
|-13-13-13-13-|
|-13-13-13-13-|
|-13-13-13-13-|

pre-verse:
|-----------------------------------|
|-----------------------------------|
|-----------------------------------|
|----3-4---1-3---3-4---1-3---1-3----|
|--0-----0-----0-----0-----0--------|
|-----------------------------------|

verse:
|------------------------------------------------------------------|
|------------------------------------------------------------------|
|------------------------------------------------------------------|
|----1-3-----1---1-3-----1-----1----1-3-----1---1-3-----1----3-4---|
|--0-----0-4---0-----0-4---0-4----0-----0-4---0-----0-4---0--------|
|------------------------------------------------------------------|

|-----------------------------------------------------------------|
|-----------------------------------------------------------------|
|-----------------------------------------------------------------|
|----3-4---1-3---3-4---1-3---1-3---3-4---1-3---3-4---1-3----3-4---|
|--0-----0-----0-----0-----0-----0-----0-----0-----0-----0--------|
|-----------------------------------------------------------------|

|------------------------------------------------------------------|
|------------------------------------------------------------------|
|------------------------------------------------------------------|
|----1-3-----1---1-3-----1-----1----1-3-----1---1-3-----1----3-4---|
|--0-----0-4---0-----0-4---0-4----0-----0-4---0-----0-4---0--------|
|------------------------------------------------------------------|
then:
|----------------------------------------------------------|
|----------------------------------------------------------|
|----------------------------------------------------------|
|----3-4---1-3---3-4---1-3---1-3-----3-4---1-3---3-4-------|
|--0-----0-----0-----0-----0-------0-----0-----0-----------|
|----------------------------------------------------------|

then:
|---------------------------------6-----13--6-5--3-5-3-6---|
|--4---4---7-4---4--4---4---7-4-5--------------------------|
|----4---4-----4------4---4--------------------------------|
|----------------------------------------------------------|
|----------------------------------------------------------|
|----------------------------------------------------------|
   . . . .   . . .  . . . .   . .
|---------------------------------6-----13--6-5--3-5-3-6---|
|--4---4---7-4---4--4---4---7-4-5--------------------------|
|----4---4-----4------4---4--------------------------------|
|----------------------------------------------------------|
|----------------------------------------------------------|
|----------------------------------------------------------|
   . . . .   . . .  . . . .   . .

chorus again...

bridge:
|-------------------------|
|-------------------------|
|-------------------------|
|-13~--13~--13~---13--13--|
|-13~--13~--13~---13--13--|
|-13~--13~--13~---13--13--|

guitar1:
|--4-6-7-6-------------7-6-7-6-7-6-7---------------|
|--------------------------------------------------|
|--------------------------------------------------|
|----------|         |---------------|          |--|
|----------| guitar2 |---------------| guitar2  |--|
|----------|         |---------------|          |--|

guitar2:[plays after guitar1 alternately...]
|--------------------------------------------------|
|--------------------------------------------------|
|--------------------------------------------------|
|-----------13131313-------------------13131313----|
|-----------13131313-------------------13131313----|
|-----------13131313-------------------13131313----|
then:
guitar1:
|-4-6-7-6-9-7-6-7------------7-6-7-6-7-6-7---------------|
|--------------------------------------------------------|
|--------------------------------------------------------|
|----------------|         |---------------|          |--|
|----------------| guitar2 |---------------| guitar2  |--|
|----------------|         |---------------|          |--|

guitar2:
|--------------------------------------------------|
|--------------------------------------------------|
|--------------------------------------------------|
|-----------13131313-------------------13131313----|
|-----------13131313-------------------13131313----|
|-----------13131313-------------------13131313----|
then:
guitar1:
|--4-6-7-6-------------7-6-7-6-7-6-7---------------|
|--------------------------------------------------|
|--------------------------------------------------|
|----------|         |---------------|          |--|
|----------| guitar2 |---------------| guitar2  |--|
|----------|         |---------------|          |--|

guitar2:
|--------------------------------------------------|
|--------------------------------------------------|
|--------------------------------------------------|
|-----------13131313-------------------13131313----|
|-----------13131313-------------------13131313----|
|-----------13131313-------------------13131313----|

then:
|-4-6-7-6-9-7-6-7------------|
|----------------------------|
|----------------------------|
|------------------13~--13~--|
|------------------13~--13~--|
|------------------13~--13~--|

chorus:
guitar2:
|----------------------------|
|----------------------------|
|----------------------------|
|-131313131313-151515151515--| x2
|-131313131313-151515151515--|
|-131313131313-151515151515--|

guitar1:
|-1-2-1-------1-----4-2-1--|
|-------4-2-----4-2--------|
|-----------3--------------|
|--------------------------|
|--------------------------|
|--------------------------|

end on:
|-------|
|-------|
|-------|
|--13~--|
|--13~--|
|--13~--|

Daggers Speak Louder Than Words(tabbed By:freakywi)
drop D#
INTRO - VERSE
EYES OPEN TO.....
|--------------------------------------13-11-10-| /
|--10-11-10---10-11-10-11-10---10-11-13---------| /
|-----------12---------------12-----------------| /
|-----------------------------------------------| /
|-----------------------------------------------| /
|-----------------------------------------------| /
                                                  /
|-----------------------------------10-11-10----| /
|--10-11-10---10-11-10-11-10---10-11---------13-| /
|-----------12---------------12-----------------| /
|-----------------------------------------------| /
|-----------------------------------------------| /
|-----------------------------------------------| /
                                                  /  [x2]
|--------------------------------------13-11-10-| /
|--10-11-10---10-11-10-11-10---10-11-13---------| /
|-----------12---------------12-----------------| /
|-----------------------------------------------| /
|-----------------------------------------------| /
|-----------------------------------------------| /
                                                  /
|---------------------10-11-10------------------| /  |--13---15--|
|--10-11-10---10-11-13---------13-11------------| /  |-----------|
|-----------12----------------------------------| /  |-----------|
|-----------------------------------------------| /  |-----------|
|-----------------------------------------------| /  |-----------|
|-----------------------------------------------| /  |-----------|

VERSE
FOR GOOD....
|-----------------------------------------------------------------|
|-----------------------------------------------------------------|
|-----------------------------------------------------------------|
|--10---8----------10------------10-----------10------------10----|
|--10---8---10-8-6---10---10-8-6---10--10-8-6---10---10-8-6--10---|
|--8----6---------------------------------------------------------|
             . . .    .    . . .    .   . . .    .    . . .   .

|------------------------------------------------------------------------|
|----------------------------------------------------------------8-9-11--|
|----------------------------------------------------------7-9-10--------|
|-------------------------------------6-8-10-6-8-10-6-8-10---------------|
|--6-8-10-6-8-10-6-8-10-6-8-10-6-8-10------------------------------------|
|------------------------------------------------------------------------|

|--------------------------------------------------------|
|--------------------------------------------------------|
|--------------------------------------------------------|
|---------10------------10-----------10------------10----|
|--10-8-6---10---10-8-6---10--10-8-6---10---10-8-6--10---|
|--------------------------------------------------------|
    . . .    .    . . .    .   . . .    .    . . .   .

PRE CHORUS
|--------------------------------------------------------|
|--------9--11--13--11--9--11------9--11--13--11--9------|
|--------------------------------------------------------|
|--6-----------------------------------------------------|
|--6-----------------------------------------------------|
|--4-----------------------------------------------------|
         .   .   .   .  .  .       .  .    .   .  .

CHORUS
YOU KNOW  "I WOULD" ...
|------13------13------11------11------11---|                   /
|--9-11----9-11----9-11----9-11----9-11-----|                   /
|-------------------------------------------|                   /
|-------------------------------------------| [x2]              /
|-------------------------------------------|                   /
|-------------------------------------------|                   /
                                                                /  [x2]
|-------------------------------------------------------------| /
|-------------------------------------------------------------| /
|-------------------------------------------------------------| /
|--6-6-6--6-6-6--6-6-6--6-6-6--8-8-8--8-8-8----5-5-5---5---5--| /
|--6-6-6--6-6-6--6-6-6--6-6-6--8-8-8--8-8-8----5-5-5---5---5--| /
|--4-4-4--4-4-4--4-4-4--4-4-4--6-6-6--6-6-6----3-3-3---3---3--| /
                                               . . .            /

VERSE
ALOOONE,  YOU STOOD....
|-----------------------------------------------------------------|
|-----------------------------------------------------------------|
|-----------------------------------------------------------------|
|--6----8----------10------------10-----------10------------10----|
|--6----8---10-8-6---10---10-8-6---10--10-8-6---10---10-8-6--10---|
|--4----6---------------------------------------------------------|
             . . .    .    . . .    .   . . .    .    . . .   .

PRE CHORUS

CHORUS
YOU KNOW  "I WOULD" ...

|-----------------------------------------------------------------------------|
|-----------------------------------------------------------------------------|
|-----------------------------------------------------------------------------|
|10-10-10-10-10-10-10--10-10-10--10-10-6--6-6-6--6-6--8--8-8--5--5-5-5---5--5-|
|10-10-10-10-10-10-10--10-10-10--10-10-6--6-6-6--6-6--8--8-8--5--5-5-5---5--5-|
|8--8--8--8--8--8--8---8--8--8---8--8--4--4-4-4--4-4--6--6-6--3--3-3-3---3--3-|
                                                                   . . .

VERSE
MY REVENGE IS MADE...
|--------------------------------------13-11-10-| /
|--10-11-10---10-11-10-11-10---10-11-13---------| /
|-----------12---------------12-----------------| /
|-----------------------------------------------| /
|-----------------------------------------------| /
|-----------------------------------------------| /
                                                  /
|-----------------------------------10-11-10----| /
|--10-11-10---10-11-10-11-10---10-11---------13-| /
|-----------12---------------12-----------------| /
|-----------------------------------------------| /
|-----------------------------------------------| /
|-----------------------------------------------| /
                                                  /  [x2]
|--------------------------------------13-11-10-| /
|--10-11-10---10-11-10-11-10---10-11-13---------| /
|-----------12---------------12-----------------| /
|-----------------------------------------------| /
|-----------------------------------------------| /
|-----------------------------------------------| /
                                                  /
|---------------------10-11-10------------------| /  |--15---13--|
|--10-11-10---10-11-13---------13-11------------| /  |-----------|
|-----------12----------------------------------| /  |-----------|
|-----------------------------------------------| /  |-----------|
|-----------------------------------------------| /  |-----------|
|-----------------------------------------------| /  |-----------|

VERSE - BRIDGE (I DNONT KNOW  JUST PLAY IT) GUITAR CLEAN
REMEMBERING TIMES ...
|--6-6-6-6-6-6--4-4-4-4-4-4--6-6-6-6-6-6--4-4-4-4-4-4----4---4---4---4--|
|--6-6-6-6-6-6--4-4-4-4-4-4--6-6-6-6-6-6--4-4-4-4-4-4----4---4---4---4--|
|--7-7-7-7-7-7--5-5-5-5-5-5--8-8-8-8-8-8--5-5-5-5-5-5----5---5---5---5--|
|--8-8-8-8-8-8--6-6-6-6-6-6--8-8-8-8-8-8--6-6-6-6-6-6----6---6---6---6--|x2
|--8-8-8-8-8-8--6-6-6-6-6-6--6-6-6-6-6-6--6-6-6-6-6-6----6---6---6---6--|
|--6-6-6-6-6-6--4-4-4-4-4-4---------------4-4-4-4-4-4----4---4---4---4--|


PRE CHORUS

CHORUS
YOU KNOW  "I WOULD" ...

OUTRO
"YOU'RE DEAD TO MEE"
|-------------------10----|
|--10-11-10---10-11---11--|
|-----------12------------|
|-------------------------|
|-------------------------|
|-------------------------|

The Last Three Letters(tabbed by:Freakywi)
Drop D#
INTRO
|--------9--------9--------9--------9---------------------------------------|
|--7--9-----7--9-----7--9-----7--9-----9--6--7--9--7--6--9--6--7--9--7--6---|
|-6--6--6--6--6--6--6--6--6--6--6--6--6--6--6--6--6--6--6--6--6--6--6--6----|
|---------------------------------------------------------------------------|
|---------------------------------------------------------------------------|
|---------------------------------------------------------------------------|
x2

EVERY SINGLE WORDS....
|-----------------------------------------------------------------------|
|-----------------------------------------------------------------------|
|-------------------------------------8-8-8-8-8-8-8-8-8-8-8-8-8-8-8-8---|
|--9-9-9-9-9-9-9-11-11-11-11-11-11-11-8-8-8-8-8-8-8-8-8-8-8-8-8-8-8-8---| x2
|--9-9-9-9-9-9-9-11-11-11-11-11-11-11-6-6-6-6-6-6-6-6-6-6-6-6-6-6-6-6---|
|--7-7-7-7-7-7-7-9--9--9--9--9--9--9------------------------------------|
   . . . . . . . .  .  .  .  .  .  .  . . . . . . . . . . . . . . . .

"EYES" FORFEIT...
|---------------------------------------------------------------------|
|---------------------------------------------------------------------|
|--8-8-8---------8-8-8----------8-8-8---------------------------------|
|--8-8-8--9-9-9--8-8-8--11-9-8--8-8-8--9-9-9--------------------------|
|--6-6-6--9-9-9--6-6-6--11-9-8--6-6-6--9-9-9--------------------------|
|---------7-7-7---------9--7-6---------7-7-7--6-6-7-7-9-9-9-9-7-7-6---|
                                              . . . . . . . . . . .

|---------------------------------------------------------------------|
|---------------------------------------------------------------------|
|--8-8-8---------8-8-8----------8-8-8---------------------------------|
|--8-8-8--9-9-9--8-8-8--11-9-8--8-8-8--9-9-9---9-9-9----11------------|
|--6-6-6--9-9-9--6-6-6--11-9-8--6-6-6--9-9-9---9-9-9----11------------|
|---------7-7-7---------9--7-6---------7-7-7---7-7-7----9-------------|

CHORUS
WERE THE LAST WORDS....
|--11-9---------13-14-13-11-9-11-11-9---------13-14-13-11-9-11---| /
|-------11-9-11-----------------------11-9-11--------------------| /
|----------------------------------------------------------------| /
|----------------------------------------------------------------| /
|----------------------------------------------------------------| /
|----------------------------------------------------------------| /
                                                                   /  [x2]
|--11-9---13-11---------11-9---14-13-----------------------------| /
|----------------11/12----------------11/9-----------------------| /
|-----------------X/X------------------X/X-----------------------| /
|-----------------8/9------------------8/6-----------------------| /
|----------------------------------------------------------------| /
|----------------------------------------------------------------| /

ITS ME AGAIIN.....
|--------------------------6-6--------|
|--7-7-7-7-7-7-7-7-6-6-6-6-----9-9----|
|---6-6-6-6-6-6-6-6-6-6-6-6-6-6-6-6---|
|-------------------------------------|
|-------------------------------------|
|-------------------------------------|

|------------------------------------------------------------------|
|------------------------------------------------------------------|
|--8-X-X-X-X-X-8-8-8--8-8---------8-X-X-X-X-X-8-8-8--8-8-----------|
|--8-X-X-X-X-X-8-8-8--8-8--9--11--8-X-X-X-X-X-8-8-8--8-8--9--11----|
|--6-X-X-X-X-X-6-6-6--6-6--9--11--6-X-X-X-X-X-6-6-6--6-6--9--11----|
|--------------------------7--9---------------------------7--9-----|

TO BE CONCERNED.....
|--------------------------6-6--------|
|--7-7-7-7-7-7-7-7-6-6-6-6-----9-9----|
|---6-6-6-6-6-6-6-6-6-6-6-6-6-6-6-6---|
|-------------------------------------|
|-------------------------------------|
|-------------------------------------|

|------------------------------------------------------------------|
|------------------------------------------------------------------|
|--8-X-X-X-X-X-8-8-8--8-8---------8-X-X-X-X-X-8-8-8--8-8--15--13---|
|--8-X-X-X-X-X-8-8-8--8-8--9--11--8-X-X-X-X-X-8-8-8--8-8--15--13---|
|--6-X-X-X-X-X-6-6-6--6-6--9--11--6-X-X-X-X-X-6-6-6--6-6--13--11---|
|--------------------------7--9------------------------------------|

WAS THIS ALL A LIE? WHYYYYYYY?
|----------------------------------------------|
|-------------7--------------------------------|
|--8----10----8--------------------------------|
|--9----11----8----8-8-8-8-6-6-6-6-4-4-4-4-3---|
|--9----11----6--------------------------------|
|--7----9--------------------------------------|
                   . . . . . . . . . . . . .

CHORUS
WERE THE LAST WORDS....
|--11-9---------13-14-13-11-9-11-11-9---------13-14-13-11-9-11---| /
|-------11-9-11-----------------------11-9-11--------------------| /
|----------------------------------------------------------------| /
|----------------------------------------------------------------| /
|----------------------------------------------------------------| /
|----------------------------------------------------------------| /
                                                                   /  [x2]
|--11-9---13-11---------11-9---14-13-----------------------------| /
|----------------11/12----------------11/9-----------------------| /
|-----------------X/X------------------X/X-----------------------| /
|-----------------8/9------------------8/6-----------------------| /
|----------------------------------------------------------------| /
|----------------------------------------------------------------| /

MAKE IT STOP, MAKE.....
|------------------------------------------------------------| /
|---0-9-0-7-0-0-9-0-7-0-6-7-0-9-0-7-0-0-9-0-7-0-0-9-0-7------| /
|--6---------6-------------6---------6---------6-------------| /
|------------------------------------------------------------| /
|------------------------------------------------------------| /
|------------------------------------------------------------| /
                                                               / [X2]
|------------------------------------------------------------| /
|---0-9-0-7-0-0-9-0-7-0-6-7-0-9-0-7-0-0-9-0-7-0-6-0-7-0-6----| /
|--6---------6-------------6---------6-----------------------| /
|------------------------------------------------------------| /
|------------------------------------------------------------| /
|------------------------------------------------------------| /

IF MY WORDS EVER REACH...
|------------------------------------------------|
|------------------------------7-9-11---7--------|
|--8-8-8-8-8--8/-------------8--------8---10-----|
|--8-8-8-8-8--8/--9-9-9-9-9----------------------|
|--6-6-6-6-6--6/--9-9-9-9-9----------------------|
|-----------------7-7-7-7-7----------------------|

|------------------------------------------------------------|
|------------------------------7-9-11---7------7-9-11--------|
|--8-8-8-8-8--8/-------------8--------8---10-8--------10-8---|
|--8-8-8-8-8--8/--9-9-9-9-9----------------------------------|
|--6-6-6-6-6--6/--9-9-9-9-9----------------------------------|
|-----------------7-7-7-7-7----------------------------------|

|----------------------------------------------------|
|----------------------------------7-9-11---7--------|
|--8-8-8-8-8-8-8-11-11-11-11-11--8--------8---10-----|
|--8-8-8-8-8-8-8-9--9--9--9--9-----------------------|
|----------------------------------------------------|
|----------------------------------------------------|

|----------------------------------------------------------------|
|----------------------------------7-9-11---7------7-9-11--------|
|--8-8-8-8-8-8-8-11-11-11-11-11--8--------8---10-8--------10-8---|
|--8-8-8-8-8-8-8-9--9--9--9--9-----------------------------------|
|----------------------------------------------------------------|
|----------------------------------------------------------------|

CHORUS
WERE THE LAST WORDS....
|--11-9---------13-14-13-11-9-11-11-9---------13-14-13-11-9-11---| /
|-------11-9-11-----------------------11-9-11--------------------| /
|----------------------------------------------------------------| /
|----------------------------------------------------------------| /
|----------------------------------------------------------------| /
|----------------------------------------------------------------| /
                                                                   /  [x2]
|--11-9---13-11---------11-9---14-13-----------------------------| /
|----------------11/12----------------11/9-----------------------| /
|-----------------X/X------------------X/X-----------------------| /
|-----------------8/9------------------8/6-----------------------| /
|----------------------------------------------------------------| /
|----------------------------------------------------------------| /

OUTHRO
COLD SCALPEL'S.....
|---------------------------------------------------------------------|
|---------------------------------------------------------------------|
|--8-8-8---------8-8-8----------8-8-8---------------------------------|
|--8-8-8--9-9-9--8-8-8--11-9-8--8-8-8--9-9-9--------------------------|
|--6-6-6--9-9-9--6-6-6--11-9-8--6-6-6--9-9-9--------------------------|
|---------7-7-7---------9--7-6---------7-7-7--6-6-7-7-9-9-9-9-7-7-6---|
                                              . . . . . . . . . . .

Apology(tabbed by: LEMAYZING57)
drop D
Intro: Guitar 1 (Clean)
|-------5---|
|7--5-------|
|--0--0-----|          x about 29 times
|-----------|
|-----------|
|-----------|

Intro: Guitar 2 (Clean)
|------------|
|------------|
|------------|         x 4 times
|5~--7~--9~--|
|5~--7~--9~--|
|5~--7~--9~--|

*Note: This next part was hard to figure out, so it may be wrong but it sounds ok to the song...

Verse: Guitar 1 (Distortion)
|-----------|
|--------7p0|
|9p0-7p0----|      x6 then
|-----------|
|-----------|
|-----------|

|-----------|
|----7--7---|
|9-7-----9-7|
|-----------|
|-----------|
|-----------|

Verse: Guitar 2 (Distortion)
|----------------------------------|
|----------------------------------|
|----------------------------------|
|5555555--7777777--9999999--9999999|   x 3 then
|5555555--7777777--9999999--9999999|
|5555555--7777777--9999999--9999999|

|----------------|
|----------------|
|----------------|
|5555555--7777777|
|5555555--7777777|
|5555555--7777777|

Just Strum up and down these chords.
|--------------------------------------------------|
|--------------------------------------------------|
|--------------------------------------------------|
|999999999999999999999999-555555555555-777777777777| x2
|999999999999999999999999-555555555555-777777777777|
|999999999999999999999999-555555555555-777777777777|

In The Chorus. Guitar 1 does something fancy after he plays the main lick twice, 
just decided
to play the same lick throughout the whole chorus.

Chorus: Guitar 1 (Distortion)
|----5------|
|--5---8-7-5|
|7----------|
|-----------|   x 10 times
|-----------|
|-----------|

Chorus: Guitar 2 (Distortion)
|-------------------------------------------------------|
|-------------------------------------------------------|
|-------------------------------------------------------|
|999999-999999-777777-777777-444444-444444-555555-555555| x1 time then rest
|999999-999999-777777-777777-444444-444444-555555-555555|    2 measures
|999999-999999-777777-777777-444444-444444-555555-555555|

Verse: Guitar 1 (Distortion)
|-----------|
|--------7p0|
|9p0-7p0----|      x6 then
|-----------|
|-----------|
|-----------|

|-----------|
|----7--7---|
|9-7-----9-7|
|-----------|
|-----------|
|-----------|

Verse: Guitar 2 (Distortion)
|----------------------------------|
|----------------------------------|
|----------------------------------|
|5555555--7777777--9999999--9999999|   x 3 then
|5555555--7777777--9999999--9999999|
|5555555--7777777--9999999--9999999|

|----------------|
|----------------|
|----------------|
|5555555--7777777|
|5555555--7777777|
|5555555--7777777|

Guitars 1 and 2 (Distortion)
|-----|
|-----|
|-----|
|4~~~-|
|4~~~-|
|4~~~-|

Chorus: Guitar 1 (Distortion)
|----5------|
|--5---8-7-5|
|7----------|
|-----------|   x 16 times
|-----------|
|-----------|

Chorus: Guitar 2 (Distortion)
|-------------------------------------------------------|
|-------------------------------------------------------|
|-------------------------------------------------------|
|999999-999999-777777-777777-444444-444444-555555-555555| x 2 times
|999999-999999-777777-777777-444444-444444-555555-555555|
|999999-999999-777777-777777-444444-444444-555555-555555|

Both Guitars Rest

Interlude: Guitar 1 (Clean)
|-------5---|
|7--5-------|
|--0--0-----|          x 12 times
|-----------|
|-----------|
|-----------|

Interlude: Guitar 2 (Distortion)
|------------|
|------------|
|------------|       x 1 time then
|5~--7~--9~--|
|5~--7~--9~--|
|5~--7~--9~--|

|--------|
|--------|
|--------|
|5~--7~--|
|5~--7~--|
|5~--7~--|

Verse: Guitar 1 (Distortion)
|-----------|
|--------7p0|
|9p0-7p0----|      x2 then
|-----------|
|-----------|
|-----------|

|-----------|
|----7--7---|
|9-7-----9-7|
|-----------|
|-----------|
|-----------|

Then:
|-----------|
|--------7p0|
|9p0-7p0----|      x 12 times
|-----------|
|-----------|
|-----------|

Verse: Guitar 2 (Distortion)
|----------------------------------|
|----------------------------------|
|----------------------------------|
|9999999--9999999--5555555--7777777| x1
|9999999--9999999--5555555--7777777|
|9999999--9999999--5555555--7777777|

Strumming:
|--------------------------------------------------|
|--------------------------------------------------|
|--------------------------------------------------|
|999999999999999999999999-555555555555-777777777777| x1
|999999999999999999999999-555555555555-777777777777|
|999999999999999999999999-555555555555-777777777777|

Bridge: Guitar 1 (rest for 4 measures)

Bridge: Guitar 2 (Distortion)
|------------------------|
|------------------------|
|------------------------|
|999-9--999-9--999-9--999|
|999-9--999-9--999-9--999|
|999-9--999-9--999-9--999|

*Note: In the bridge, Guitar 1 strums each note 4 times

Bridge: Guitar 1 (Distortion)
|---------------------------------|
|---------------------------------|
|---------------------------------|
|11/12/14\12--9/11/12\11--8/8/9/11|
|---------------------------------|
|---------------------------------|

Bridge: Guitar 2 (Distortion)
|--------------------------------------------------------------------------|
|--------------------------------------------------------------------------|
|--------------------------------------------------------------------------|
|999-9--999-9--999-9--999--777-7--777-7--777-7--777--444-4--444-4--444-4--4|
|999-9--999-9--999-9--999--777-7--777-7--777-7--777--444-4--444-4--444-4--4|
|999-9--999-9--999-9--999--777-7--777-7--777-7--777--444-4--444-4--444-4--4|

Bridge Guitar 1 (Distortion)
|---------------------------------------------|
|---------------------------------------------|
|---------------------------------------------|
|11/12/14\12--9/11/12/14--11/12/14\12--8/8/9--|
|---------------------------------------------|
|---------------------------------------------|

Bridge: Guitar 2 (Distortion)
|--------------------------------------------------|
|--------------------------------------------------|
|--------------------------------------------------|
|999-9--999-9--999-9--999--555-5--555-5--555-5--555|
|999-9--999-9--999-9--999--555-5--555-5--555-5--555|
|999-9--999-9--999-9--999--555-5--555-5--555-5--555|

|-------------------------------------------------|
|-------------------------------------------------|
|-------------------------------------------------|
|777-7--777-7--777-7--777--444-4--444-4--444-4--4~|
|777-7--777-7--777-7--777--444-4--444-4--444-4--4~|
|777-7--777-7--777-7--777--444-4--444-4--444-4--4~|

Chorus: Guitar 1 (Distortion)
|----5------|
|--5---8-7-5|
|7----------|
|-----------|   x 16 times
|-----------|
|-----------|

Chorus: Guitar 2 (Distortion)
|-------------------------------------------------------|
|-------------------------------------------------------|
|-------------------------------------------------------|
|999999-999999-777777-777777-444444-444444-555555-555555| x 2 times
|999999-999999-777777-777777-444444-444444-555555-555555|
|999999-999999-777777-777777-444444-444444-555555-555555|

Outro: Guitar 1 (Distortion)
|----5------|
|--5---8-7-5|
|7----------|
|-----------|   x 7 times
|-----------|
|-----------|

|--------------------------------------------|
|--------------------------------------------|
|-----------------------(5)------------------|
|999---999---555---555-(5)-777---777---444---|
|999---999---555---555(5)--777---777---444---|
|999---999---555---555-----777---777---444---|

Outro: Both Guitars
|-------------------|
|-------------------|
|-------------------|
|4-4444--4-4444--9~~|
|4-4444--4-4444--9~~|
|4-4444--4-4444--9~~|
   ....    ....
    PM      PM

Tilting The Hourglass(tabbed by: freakywi)
drop D#
INTRO
|-----------------------------------------------|
|-----------------------------------------------|
|-------10-10-10-10-10-10------10-10-8-8-8-8----|
|--8-8--X--X--X--X--X--X--8-8--X--X--X-X-X-X----|
|--8-8--8--8--8--8--8--8--8-8--8--8--6-6-6-6----|
|--6-6--------------------6-6-------------------|
   . .                    . .
|-----------------------------------------------|
|-----------------------------------------------|
|-------13-13-13-13-13-13-------5-5-6-6-5-5-----| [x2]
|--4-4--X--X--X--X--X--X---3-3--X-X-X-X-X-X-----|
|--4-4--11-11-11-11-11-11--3-3--3-3-4-4-3-3-----|
|--2-2---------------------1-1------------------|
   . .                     . .

|-----------------------------------------------|
|-----------------------------------------------|
|-----------------------------------------------|
|--8-10-11-10-8-10-11-13-11-10------------------|
|-----------------------------------------------|
|-----------------------------------------------|

VERSE
YOU TAKE MY BREATH AWAY....
|---------------------------------------------------[7]----|
|---------------------------------------------------[7]----|
|---------------------------------------------------[7]----|
|--8-8-8--8-8-8--8-8-8--6-6-6--8-8-8--8-8-8--8-8-8---------|
|--8-8-8--8-8-8--8-8-8--6-6-6--8-8-8--8-8-8--8-8-8---------|
|--6-6-6--6-6-6--6-6-6--4-4-4--6-6-6--6-6-6--6-6-6---------|

|----------------------------------------------------------|
|----------------------------------------------------------|
|----------------------------------------------------------|
|--3-3-3--3-3-3--3-3-3--3-3-3--4-4-4--4-4-4--3-3-3--3-3-3--|
|--3-3-3--3-3-3--3-3-3--3-3-3--4-4-4--4-4-4--3-3-3--3-3-3--|
|--1-1-1--1-1-1--1-1-1--1-1-1--2-2-2--2-2-2--1-1-1--1-1-1--|
                                             . .    . .

|---------------------------------------------------[7]----|
|---------------------------------------------------[7]----|
|---------------------------------------------------[7]----|
|--8-8-8--8-8-8--8-8-8--6-6-6--8-8-8--8-8-8--8-8-8---------|
|--8-8-8--8-8-8--8-8-8--6-6-6--8-8-8--8-8-8--8-8-8---------|
|--6-6-6--6-6-6--6-6-6--4-4-4--6-6-6--6-6-6--6-6-6---------|

|----------------------------------------------------------|
|----------------------------------------------------------|
|----------------------------------------------------------|
|--3-3-3--3-3-3--3-3-3--3-3-3--4-4-4--4-4-4---4---3--------|
|--3-3-3--3-3-3--3-3-3--3-3-3--4-4-4--4-4-4---4---3--------|
|--1-1-1--1-1-1--1-1-1--1-1-1--2-2-2--2-2-2---2---1--------|

PRE CHORUS
EMPTINESS HAS DARKED....
|------------9----|
|-------8---------|
|--8-10---10------|
|-----------------| [x4]
|-----------------|
|-----------------|

CHORUS
MY IRON EYES ...
|----------------------------------------------------------------|
|----------------------------------------------------------------|
|----------------------------------------------------------------|
|--8-8-8-8-8-8-10-10-10-10-11-11-11--6-6-6-6-6-6-4-4-4-4-6-6-6---|
|--8-8-8-8-8-8-10-10-10-10-11-11-11--6-6-6-6-6-6-4-4-4-4-6-6-6---|
|--6-6-6-6-6-6-8--8--8--8--9--9--9---4-4-4-4-4-4-2-2-2-2-4-4-4---|

|----------------------------------------------------------------|
|----------------------------------------------------------------|
|-------4-/-6-------4-/-6-------6-/-8--------8--/-10-------------|
|--8-8--6-/-8--8-8--6-/-8--8-8--8-/-10--8-8--10-/-11-------------|
|--8-8---------8-8---------8-8----------8-8----------------------|
|--6-6---------6-6---------6-6----------6-6----------------------|

|----------------------------------------------------------------|
|----------------------------------------------------------------|
|----------------------------------------------------------------|
|--8-8-8-8-8-8-6-6-6-6-6-6-4-4-4-4-4-4--6-6-6--------------------|
|--8-8-8-8-8-8-6-6-6-6-6-6-4-4-4-4-4-4--6-6-6--------------------|
|--6-6-6-6-6-6-4-4-4-4-4-4-2-2-2-2-2-2--4-4-4--------------------|
                                        . . .

VERSE 2
I SEE THE FEAR ...
|---------------------------------------------------------------------------|
|--------11-11-11-11--------------------------------------------------------|
|--------10-10-10-10---------10-10-10-10---------11-11-11-11---------8-8-8-8|
|8-8-8-8-------------8-8-8-8-8--8--8--8--8-8-8-8-10-10-10-10-8-8-8-8-6-6-6-6|
|8-8-8-8-------------8-8-8-8-------------8-8-8-8-------------8-8-8-8--------|
|6-6-6-6-------------6-6-6-6-------------6-6-6-6-------------6-6-6-6--------|

|---------------------------------------------------------------------------|
|--------11-11-11-11--------------------------------------------------------|
|--------10-10-10-10---------10-10-10-10---------11-11-11-11---------8-8-8-8|
|6-6-6-6-------------6-6-6-6-8--8--8--8--6-6-6-6-10-10-10-10-6-6-6-6-6-6-6-6|
|6-6-6-6-------------6-6-6-6-------------6-6-6-6-------------6-6-6-6--------|
|4-4-4-4-------------4-4-4-4-------------4-4-4-4-------------4-4-4-4--------|

|----------9-9-9-9--------9-9-9-9--------9-9-9-9-------9-9-9-9----|
|----------9-9-9-9--------9-9-9-9--------9-9-9-9-------9-9-9-9----|
|-----------------------------------------------------------------|
|--3-3-3-3---------3-3-3-3--------3-3-3-3-------3-3-3-3-----------|
|--3-3-3-3---------3-3-3-3--------3-3-3-3-------3-3-3-3-----------|
|--1-1-1-1---------1-1-1-1--------1-1-1-1-------1-1-1-1-----------|

|---------------------------------------------------------------------------|
|--------11-11-11-11--------------------------------------------------------|
|--------10-10-10-10---------10-10-10-10---------11-11-11-11---------8-8-8-8|
|4-4-4-4-------------4-4-4-4-8--8--8--8--4-4-4-4-10-10-10-10-4-4-4-4-6-6-6-6|
|4-4-4-4-------------4-4-4-4-------------4-4-4-4-------------4-4-4-4--------|
|2-2-2-2-------------2-2-2-2-------------2-2-2-2-------------2-2-2-2--------|

AND WHEN IM GONE....
|---------------------------------------|
|----11-13-11--11--11-13-11--11--11-13--|
|--10--------10--10--------10--10-------|
|---------------------------------------| [x4]
|---------------------------------------|
|---------------------------------------|

|---------------------------------------|
|----11--11-13-11--11--11--11-13-11-----|
|--10--10--------10--10--10-------------|
|---------------------------------------| [x4]
|---------------------------------------|
|---------------------------------------|

PRE CHORUS
EMPTINESS HAS DARKED.....

CHORUS
MY IRON EYES...

BRIDGE
|------------------------------------------------------------------------|
|--------------------------1-----1--------------------1------1-----------|
|------0-------------------------------------------------------------0---|
|--8---0---3-3-3-3---3-3-3----3-3-----3-3-3-3---3-3-3----3-3-----8---0---|
|--8-------3-3-3-3---3-3-3----3-3-----3-3-3-3---3-3-3----3-3-----8-------|
|--6-------1-1-1-1---1-1-1----1-1-----1-1-1-1---1-1-1----1-1-----6-------|
           . . . .   . . .    . .     . . . .   . . .    . .

|-----------------------------------------------------------------------|
|-----------------------------------------------------------------------|
|-----------------------------------------------------------------------|
|--3-3-3--3-3-3--3-3-3--4-4-4---4-4-4--4-4-4--8-8-8--8--8---8-8-8--8-8--| [x2]
|--3-3-3--3-3-3--3-3-3--4-4-4---4-4-4--4-4-4--8-8-8--8--8---8-8-8--8-8--|
|--1-1-1--1-1-1--1-1-1--2-2-2---2-2-2--2-2-2--6-6-6--6--6---6-6-6--6-6--|
   . . .  . . .  . . .  . . .   . . .  . . .  . . .         . . .

I WILL ...

|---------------|
|---------------|
|---------------|
|--6-7-8-/-/----|  [x4]
|--6-7-8-/-/----|
|--4-5-6-/-/----|

CHORUS
MY IRON EYES..   [x2]

OUTRO
I SEE THE FEAR GROWING    "IN THEIR"
|------------------------------------------------------|
|----------11-11-11-11---------------------------------|
|----------10-10-10-10---------10-10-10-10-------------|
|--8-8-8-8-------------8-8-8-8-8--8--8--8--8-8-8-8-----|
|--8-8-8-8-------------8-8-8-8-------------8-8-8-8-----|
|--6-6-6-6-------------6-6-6-6-------------6-6-6-6-----|
                                           . . . .
This Conversation IS Over(tabbed by:freakywi)
drop D#
INTRO
TAKE EVERYTHING AWAY...
|--------------------------------------------------------------------|
|--------------------------------------------------------------------|
|-7-7-7-7-7-7-7-7-------------------------------------------10-------|
|-7-7-7-7-7-7-7-7-8-8-8-8-8-8-8-8-10-10-10-10-10-10-10-10---10-------|
|-5-5-5-5-5-5-5-5-8-8-8-8-8-8-8-8-10-10-10-10-10-10-10-10---8--------|
|-----------------6-6-6-6-6-6-6-6-8--8--8--8--8--8--8--8-------------|
  . . . . . . . . . . . . . . . . .  .  .  .  .  .  .  .

|-------------------------------------------------------------------------|
|-------------------------------------------------------------------------|
|--10-0-9-0-10-0-9-0-10-0-9-0-10-0-9-10-0-12-0-10-12-0-10-0-12-0-10-0-12--|
|-------------------------------------------------------------------------|
|-------------------------------------------------------------------------|
|-------------------------------------------------------------------------|

|--------------------------------------------8----------------------------|
|------------------------------------10-8-10---10--10-8-------------------|
|--10-0-9-0-10-0-9-0-10-0-9-0-10-0-9--------------------10-9-10-----------|
|-------------------------------------------------------------------------|
|-------------------------------------------------------------------------|
|-------------------------------------------------------------------------|

VERSE
APHATY CRIES OUT FROM....
|------------------------------------------------------------| /
|------------------------------------------------------------| /
|--------9-10-12-10-9-10-9------------12-10-9-10-12-10-------| /
|--8-8-8---------------------10-10-10------------------------| /
|--8-8-8---------------------10-10-10------------------------| /
|--6-6-6---------------------8--8--8-------------------------| /
                                      .   . .  .  .  .         /
                                                               /   [x2]
|------------------------------------------------------------| /
|------------------------------------------------------------| /
|--7-7--7---7-7--7------------7-7--7---7-7--7----------------| /
|--7-7--7---7-7--7---10-------7-7--7---7-7--7---7------------| /
|--5-5--5---5-5--5---10-------5-5--5---5-5--5---7------------| /
|--------------------8--------------------------5------------| /
   . .      . .               . .      . .                     /

CHORUS
TAKE EVERYTHING AWAY .....
|-------------------------------------------------------------------------|
|-------------------------------------------------------------------------|
|--10-0-9-0-10-0-9-0-10-0-9-0-10-0-9-10-0-12-0-10-12-0-10-0-12-0-10-0-12--|
|-------------------------------------------------------------------------|
|-------------------------------------------------------------------------|
|-------------------------------------------------------------------------|

|--------------------------------------------8----------------------------|
|------------------------------------10-8-10---10--10-8-------------------|
|--10-0-9-0-10-0-9-0-10-0-9-0-10-0-9--------------------10-9-10-----------|
|-------------------------------------------------------------------------|
|-------------------------------------------------------------------------|
|-------------------------------------------------------------------------|

|-------------------------------------------------------------------------|
|-------------------------------------------------------------------------|
|--10-0-9-0-10-0-9-0-10-0-9-0-10-0-9-10-0-12-0-10-12-0-10-0-12-0-10-0-12--|
|-------------------------------------------------------------------------|
|-------------------------------------------------------------------------|
|-------------------------------------------------------------------------|

|--------------------------------------------8----------------------------|
|------------------------------------10-8-10---10--10-8-------------------|
|--10-0-9-0-10-0-9-0-10-0-9-0-10-0-9--------------------10-9--------------|
|-------------------------------------------------------------------------|
|-------------------------------------------------------------------------|
|-------------------------------------------------------------------------|

VERSE 2
THE AIR "REEKS NOW"  WHIT THE.....
|------10-----------------------------------------------------------------|
|--------10-----10-8--------------------10-8------8------10-8-10-11-10-8--|
|--7-7------7-7---------------------------------10------------------------|
|--7-7------7-7------7---7-7-7--7----8-8-----8-8----10-10-----------------| [x2]
|--5-5------5-5------7---7-7-7--7----8-8-----8-8----10-10-----------------|
|--------------------5---5-5-5--5----6-6-----6-6----8--8------------------|
                         . .

VERSE
PLEASE TRY TO SAY MORE.....
|------------------------------------------------------------| /
|------------------------------------------------------------| /
|--------9-10-12-10-9-10-9------------12-10-9-10-12-10-------| /
|--8-8-8---------------------10-10-10------------------------| /
|--8-8-8---------------------10-10-10------------------------| /
|--6-6-6---------------------8--8--8-------------------------| /
                                      .   . .  .  .  .         /
                                                               /   [x2]
|------------------------------------------------------------| /
|------------------------------------------------------------| /
|--7-7--7---7-7--7------------7-7--7---7-7--7----------------| /
|--7-7--7---7-7--7---10-------7-7--7---7-7--7---7------------| /
|--5-5--5---5-5--5---10-------5-5--5---5-5--5---7------------| /
|--------------------8--------------------------5------------| /
   . .      . .               . .      . .                     /

THIS CONVERSATION IS OVER!!!
|---------------------------------------------------------|
|---------------------------------------------------------|
|-----------------7-7-7-7-7-7-5-5-----7-7-7-7-7-7---------|
|--8------10------7-7-7-7-7-7-5-5-----7-7-7-7-7-7-8-8-----|
|--8------10------5-5-5-5-5-5-3-3-----5-5-5-5-5-5-8-8-----|
|--6------8---------------------------------------6-6-----|

CHORUS
TAKE EVERYTHING AWAY..

BRIDGE
|--------------------------------------------------------------------| /
|--11--11--11--11--10--10--10--10--11--11--11--11--10--10--10--10----| /
|----10--10--10--10--10--10--10--10--10--10--10--10--10--10--10--10--| /
|--------------------------------------------------------------------| /
|--------------------------------------------------------------------| /
|--------------------------------------------------------------------| /
                                                                       /[x2]
|--------------------------------------------------------------------| /
|--13--11--10--13--11--10--11-----13--11--10--13--11--10--11---------| /
|----10--10--10--10--10--10--10-12--10--10--10--10--10--10--10-12----| /
|--------------------------------------------------------------------| /
|--------------------------------------------------------------------| /
|--------------------------------------------------------------------| /

|---------------------------------------------------------------------------|
|---------------------------------------------------------------------------|
|---------------------------------------------------------------------------|
|--8-8--8-8-8--8-8-8--8-8-8--10-10-10-10-10-10-10-10-10-7-7-7--7-7-7--7-7-7-|
|--8-8--8-8-8--8-8-8--8-8-8--10-10-10-10-10-10-10-10-10-7-7-7--7-7-7--7-7-7-|
|--6-6--6-6-6--6-6-6--6-6-6--8--8--8--8--8--8--8--8--8--5-5-5--5-5-5--5-5-5-|
   . .  . . .  . . .  . . .  .  .  .  .  .  .  .  .  .  . . .  . . .  . . .

|---------------------------------------------------------------------------|
|---------------------------------------------------------------------------|
|-------------------------------------------------------7-7-7-7-7-7-7-7-7-7-|
|--8-8--8-8-8--8-8-8--8-8-8--10-10-10-10-10-10-10-10-10-7-7-7-7-7-7-7-7-7-7-|
|--8-8--8-8-8--8-8-8--8-8-8--10-10-10-10-10-10-10-10-10-5-5-5-5-5-5-5-5-5-5-|
|--6-6--6-6-6--6-6-6--6-6-6--8--8--8--8--8--8--8--8--8----------------------|
   . .  . . .  . . .  . . .  .  .  .  .  .  .  .  .  .  . . . . . . . . . .


CHORUS
TAKE EVERYTHING AWAY FROM MEEEEEEE .......
end......

Congratulations I Hate You(tabbed by: freakywi)
drop D#
INTRO
|-----------------------------------------------|
|-----------------------------7----------6------|
|------6---------6----------6----------6--------|
|-----------------------------------------------|
|--9---------8----------9----------8------------|
|----9---------8----------9----------8----------|

|--------------------------------------|
|------------------7-----------6-------|
|--------------------------------------|
|--9-----8------9----------8-----------|
|--9-----8------9----------8-----------|
|--7-----6------7----------6-----------|

NO ONE EVER SAID...
|------------------------------------------------------------|
|--9-7---7-9-7---9-7---7-9-7---9-7---7-9-7---9-7---7-9-7-----|
|--------------6-------------6-------------6-------------6---|
|------9-------------9-------------8-------------8-----------|
|------------------------------------------------------------|
|------------------------------------------------------------|
                                               "I HATE YOUR PITY"
|------------------------------------------------|
|--9-7---7-9-7---9-7---7-9-7---9-7---7-9-7---9---|
|--------------6-------------6-------------6-----|
|------9-------------9-------------8-------------|
|------------------------------------------------|
|------------------------------------------------|

VERSE
TASTE YOUR VANITY ...
|------------------------------------------------------------------------------------------------|
|------------------------------------------------------------------------------------------------|
|------------------------------------------------------------------------------------------------|
|9-9-9-9--9-9-9-9--9-9-9--9-9-9-9--9-9-9-9--9-9-9--8-8-8-8--8-8-8-8--8-8-8--8-8-8-88-8-8-88-8-8-8|
|9-9-9-99-9-9-9--9-9-9--9-9-9-9--9-9-9-9--9-9-9--8-8-8-8--8-8-8-8--8-8-8--8-8-8-88-8-8-88-8-8-8|
|7-7-7-7--7-7-7-7--7-7-7--7-7-7-7--7-7-7-7--7-7-7--6-6-6-6--6-6-6-6--6-6-6--6-6-6-66-6-6-66-6-6-6|
   . .      . .      . .    . .      . .      .      . .      . .      .       . .      . .

I WATCH YO STEAL....
|--------------------------------------------------------------------|
|--7-9-7---9-7---7-9-7---9-7---7-9-7---9-7---7-9-7---9-7---7-9-7-----|
|--------6-------------6-------------6-------------6-------------6---|
|--------------9-------------9-------------8-------------8-----------|
|--------------------------------------------------------------------|
|--------------------------------------------------------------------|

|-------------------------------------|
|--7-------7-------7-------7----------|
|----10------10------10------10-------|
|-------8-------8-------8-------8-----|
|-------------------------------------|
|-------------------------------------|

AS YOU BUILD YOUR .... (GUITAR CLEAN)                                       SWALLOW YOUR PRIDE!
|-----------------------------------------------------------------------------------------|
|--------------------------------------------------6-7-9-6-7-9-6-7-9-6-7-9-6-7-9-7-6-7-9--|
|-----------------------------------------------------------------------------------------|
|--9-9-9-9-9-9-9-9-8-8-8-8-8-8-8-8-3-3-3-3-3-3-3-3----------------------------------------|
|--9-9-9-9-9-9-9-9-8-8-8-8-8-8-8-8-3-3-3-3-3-3-3-3----------------------------------------|
|--7-7-7-7-7-7-7-7-6-6-6-6-6-6-6-6--------------------------------------------------------|
                                                                            . . . . . . .

CHORUS
BEG MEEEEEE.....
|---------------------------------------------9------|
|--7-9-7-6-7--7-9-7-6-6-7--7-9-7-6-7--7-9-7-6---7----|
|----------------------------------------------------|
|----------------------------------------------------|
|----------------------------------------------------|
|----------------------------------------------------|

|----------------------------------------------------|
|--7-9-7-6-7--7-9-7-6-6-7--7-9-7-6-7--6-7-9-7-6-7-9--|
|----------------------------------------------------|
|----------------------------------------------------|
|----------------------------------------------------|
|----------------------------------------------------|
                                      . . . . . . .

SUFFER ALONE .....
|----------------------------------------------------|
|----------------------------------------------------|
|--8----------------------------8-8-8-8---6-6-6-6----|
|--8--------9-9-9-9---8-8-8-8---8-8-8-8---6-6-6-6----|
|--6--------9-9-9-9---8-8-8-8---6-6-6-6---4-4-4-4----|
|-----------7-7-7-7---6-6-6-6------------------------|
            . . . .   . . . .   . . . .   . . . .

|----0-14-0-13-0-11-0---|       |-----------------|
|--9--------------------|       |--6-7-9-7-6-7-9--|
|-----------------------|       |-----------------|
|-----------------------| [x7]  |-----------------|
|-----------------------|       |-----------------|
|-----------------------|       |-----------------|
                                   . . . . . . .

CHORUS
BEG MEEEEE...
|---------------------------------------------9------|
|--7-9-7-6-7--7-9-7-6-6-7--7-9-7-6-7--7-9-7-6---7----|
|----------------------------------------------------|
|----------------------------------------------------| [x2]
|----------------------------------------------------|
|----------------------------------------------------|

|----0-14-0-13-0-11-0---|       |-----------------|
|--9--------------------|       |--6-7-9-7-6-7-9--|
|-----------------------|       |-----------------|
|-----------------------| [x7]  |-----------------|
|-----------------------|       |-----------------|
|-----------------------|       |-----------------|
                                   . . . . . . .
BRIDGE
          "MY"
|-----------------|
|-----------------|
|--8---------8----|
|--8---------8----|
|--6---------6----|
|-----------------|

|-------------------------------------------------------------|      |-----------|
|-------------------------------------------------------------|      |-----------|
|--6-4-4-3----8-8-8-8---8-8-8-8-8-8--8-8-8-8-8-8--8-8-8--8----|      |--6-4-4-3--|
|--6-4-4-3----8-8-8-8---8-8-8-8-8-8--8-8-8-8-8-8--8-8-8--8----| [x4] |--6-4-4-3--|
|--4-2-2-1----6-6-6-6---6-6-6-6-6-6--6-6-6-6-6-6--6-6-6--6----|      |--4-2-2-1--|
|-------------------------------------------------------------|      |-----------|
              . . .     . . . . .    . . . . .    . . .

AS YOU BUILD YOUR .... (GUITAR CLEAN)                                       SWALLOW YOUR PRIDE!
|-----------------------------------------------------------------------------------------|
|--------------------------------------------------6-7-9-6-7-9-6-7-9-6-7-9-6-7-9-7-6-7-9--|
|-----------------------------------------------------------------------------------------|
|--9-9-9-9-9-9-9-9-8-8-8-8-8-8-8-8-3-3-3-3-3-3-3-3----------------------------------------|
|--9-9-9-9-9-9-9-9-8-8-8-8-8-8-8-8-3-3-3-3-3-3-3-3----------------------------------------|
|--7-7-7-7-7-7-7-7-6-6-6-6-6-6-6-6--------------------------------------------------------|
                                                                            . . . . . . .

CHORUS
BEG MEEEEE...
|---------------------------------------------9------|
|--7-9-7-6-7--7-9-7-6-6-7--7-9-7-6-7--7-9-7-6---7----|
|----------------------------------------------------|
|----------------------------------------------------| [x2]
|----------------------------------------------------|
|----------------------------------------------------|

                                  "EYES"
|----0-14-0-13-0-11-0---|       |--------|
|--9--------------------|       |--------|
|-----------------------|       |---8----|
|-----------------------| [x8]  |---8----|
|-----------------------|       |---6----|
|-----------------------|       |--------|

The 3rd Temptation of Paris
[piano stuff]

A Siren's Soliluquy(tabbed by: freakywi)
drop D#
INTRO
|--------------------------------------------------|
|--------------------------------------------------|
|--5-5-5-5-5--8-8-8-8-8----------------------------|
|--5-5-5-5-5--8-8-8-8-8--6-6-6-6-6--5-5-5--5-5-5---|
|--3-3-3-3-3--6-6-6-6-6--6-6-6-6-6--5-5-5--5-5-5---|
|------------------------4-4-4-4-4--3-3-3--3-3-3---|

|--------------------------------------------|
|--------------------------------------------|
|--5-5-5-5-5--8-8-8-8-8----------------------|
|--5-5-5-5-5--8-8-8-8-8--6-6-6-6-6--6-5------|
|--3-3-3-3-3--6-6-6-6-6--6-6-6-6-6--6-5------|
|------------------------4-4-4-4-4--4-3------|

VERSE
PARALYZED BY THE BEAUTY.....
|---------------------------------------------------------| /
|---------------------------------------------------------| /
|--5-5-5-5-5-5-5-5-5-5-5-5--------------------------------| /
|--5-5-5-5-5-5-5-5-5-5-5-5--8-8-6-6-5-5-6-6-8-8-6-6-5-6---| /
|--3-3-3-3-3-3-3-3-3-3-3-3--------------------------------| /
|---------------------------------------------------------| /
                            . . . . . . . . . . . . . .     /
                                                            /  [x2]
|---------------------------------------------------------| /
|---------------------------------------------------------| /
|---------------------------------------------------------| /
|--6-6-6-6-6-6-6-6-6-6-6-6---5-5-5-5-5----5-5-5---5-------| /
|--6-6-6-6-6-6-6-6-6-6-6-6---5-5-5-5-5----5-5-5---5-------| /
|--4-4-4-4-4-4-4-4-4-4-4-4---3-3-3-3-3----3-3-3---3-------| /

LEFT BEHIND TO FIGHT....
|-------------------------------------------------------------|
|-------------------------------------------------------------|
|-------------------------------------------------------------|
|--3-3-3-3-3--5-5-5-5-5--6-6-6-6-6--8-8-8-8--8--8-8-8-8--8----|
|--3-3-3-3-3--5-5-5-5-5--6-6-6-6-6--8-8-8-8--8--8-8-8-8--8----|
|--1-1-1-1-1--3-3-3-3-3--4-4-4-4-4--6-6-6-6--6--6-6-6-6--6----|
   . . . . .  . . . . .  . . . . .  . . . .     . . . .

|-------------------------------------------------------------|
|-------------------------------------------------------------|
|-------------------------------------------------------------|
|--3-3-3-3-3--5-5-5-5-5--6-6-6-6-6---8------------------------|
|--3-3-3-3-3--5-5-5-5-5--6-6-6-6-6---8----[5]-[5]-[5]-[5]-----|
|--1-1-1-1-1--3-3-3-3-3--4-4-4-4-4---6------------------------|
   . . . . .  . . . . .  . . .

CHORUS
SUFFERING UNSEEN.....
|-----------|      |----------------------------------|
|--6-8-6----|      |---6-8-9-8-----6-8-9-8------------|
|--------8--|      |--8-------8---8-----------5-------|
|-----------| [x6] |------------------------8----8----|
|-----------|      |----------------------------------|
|-----------|      |----------------------------------|

SO LONG FORGOTTEN...
|-----------|      |----------------------------------|
|--6-8-6----|      |---6-8-9-8-----6-8-9-8----9--8----|
|--------8--|      |--8-------8---8-------------------|
|-----------| [x6] |------------------------8---------|
|-----------|      |----------------------------------|
|-----------|      |----------------------------------|

|--------------------------------------------|
|--------------------------------------------|
|--5-5----5----------------------------------|
|--5-5----5-8-8----8-6-6-6-6-6-6-6-6-6-6-----|
|--3-3----3-8-8----8-6-6-6-6-6-6-6-6-6-6-----|
|-----------6-6----6-4-4-4-4-4-4-4-4-4-4-----|

|----------------------------------------------|
|----------------------------------------------|
|--5-5-5-5-5--8-8-8-8-8------------------------|
|--5-5-5-5-5--8-8-8-8-8--6-6-6-6-6--6-5--6-5---|
|--3-3-3-3-3--6-6-6-6-6--6-6-6-6-6--6-5--6-5---|
|------------------------4-4-4-4-4--4-3--4-3---|

VERSE
BEAUTIFUL WISPERS....
|---------------------------------------------------------| /
|---------------------------------------------------------| /
|--5-5-5-5-5-5-5-5-5-5-5-5--------------------------------| /
|--5-5-5-5-5-5-5-5-5-5-5-5--8-8-6-6-5-5-6-6-8-8-6-6-5-6---| /
|--3-3-3-3-3-3-3-3-3-3-3-3--------------------------------| /
|---------------------------------------------------------| /
                            . . . . . . . . . . . . . .     /
                                                            /  [x2]
|---------------------------------------------------------| /
|---------------------------------------------------------| /
|---------------------------------------------------------| /
|--6-6-6-6-6-6-6-6-6-6-6-6---5-5-5-5-5----5-5-5---5-------| /
|--6-6-6-6-6-6-6-6-6-6-6-6---5-5-5-5-5----5-5-5---5-------| /
|--4-4-4-4-4-4-4-4-4-4-4-4---3-3-3-3-3----3-3-3---3-------| /

CHORUS
SUFFERING UNSEEN.....
|-----------|      |----------------------------------|
|--6-8-6----|      |---6-8-9-8-----6-8-9-8------------|
|--------8--|      |--8-------8---8-----------5-------|
|-----------| [x6] |------------------------8----8----|
|-----------|      |----------------------------------|
|-----------|      |----------------------------------|

SO LONG FORGOTTEN...
|-----------|      |----------------------------------|
|--6-8-6----|      |---6-8-9-8-----6-8-9-8----9--8----|
|--------8--|      |--8-------8---8-------------------|
|-----------| [x6] |------------------------8---------|
|-----------|      |----------------------------------|
|-----------|      |----------------------------------|

|--------------------------------------------|
|--------------------------------------------|
|--5-5----5----------------------------------|
|--5-5----5-8-8----8-6-6-6-6-6-6-6-6-6-6-----|
|--3-3----3-8-8----8-6-6-6-6-6-6-6-6-6-6-----|
|-----------6-6----6-4-4-4-4-4-4-4-4-4-4-----|


SET LOOSE SO LONG...                              (THIS PART VERY FAST)
|---------------------------------------------------------------------|
|---------------------------------------------------------------------|
|--5-5-5-5-7-7-7-7-8-8-8-8-10-8-7-5-----------------------------------|
|--5-5-5-5-7-7-7-7-8-8-8-8-10-8-7-5-8-8-8-8-8-8-8---------8------10---| [x2]
|--3-3-3-3-5-5-5-5-6-6-6-6-8--6-5-3-8-8-8-8-8-8-8---778810-108877-----|
|-----------------------------------4-4-4-4-4-4-4---------------------|

|---------------------------------------------------------------|
|---------------------------------------------------------------|
|--5------------5-5-----------5------------5-5-5----------------|
|--5--------10--5-5--------8--5--------10--5-5-5---8-------10---|
|--3--10-8-7----3-3--7-8-10---3--10-8-7----3-3-3--7--10-8-7-----|
|---------------------------------------------------------------|

|---------------------------------------------------------------|
|---------------------------------------------------------------|
|---------------------------------------------------------------|
|--6--------10--6-6--------8--6--------10--6-6-6---8-------10---|
|--6--10-8-7----6-6--7-8-10---6--10-8-7----6-6-6--7--10-8-7-----|
|--4------------4-4-----------4------------4-4-4----------------|

|-------------------------------------------------------|
|-------------------------------------------------------|
|--5------------5-5-----------5------------5-5-5--------|
|--5--------10--5-5--------8--5--------10--5-5-5--------|
|--3--10-8-7----3-3--7-8-10---3--10-8-7----3-3-3--------|
|-------------------------------------------------------|

|-------------------------------------------------------|
|-------------------------------------------------------|
|-------------------------------------------------------|
|--6--------10--6-6--------8--6--------10--6-6-6----8---|
|--6--10-8-7----6-6--7-8-10---6--10-8-7----6-6-6----8---|
|--4------------4-4-----------4------------4-4-4----6---|

LEFT BEHIND TO FIGHT....
|-------------------------------------------------------------|
|-------------------------------------------------------------|
|-------------------------------------------------------------|
|--3-3-3-3-3--5-5-5-5-5--6-6-6-6-6--8-8-8-8--8--8-8-8-8--8----|
|--3-3-3-3-3--5-5-5-5-5--6-6-6-6-6--8-8-8-8--8--8-8-8-8--8----|
|--1-1-1-1-1--3-3-3-3-3--4-4-4-4-4--6-6-6-6--6--6-6-6-6--6----|
   . . . . .  . . . . .  . . . . .  . . . .     . . . .

|-------------------------------------------------------------|
|-------------------------------------------------------------|
|-------------------------------------------------------------|
|--3-3-3-3-3--5-5-5-5-5--6-6-6-6-6---8------------------------|
|--3-3-3-3-3--5-5-5-5-5--6-6-6-6-6---8----[5]-[5]-[5]-[5]-----|
|--1-1-1-1-1--3-3-3-3-3--4-4-4-4-4---6------------------------|
   . . . . .  . . . . .  . . .

CHORUS
SUFFERING UNSEEN.....
|-----------|      |----------------------------------|
|--6-8-6----|      |---6-8-9-8-----6-8-9-8------------|
|--------8--|      |--8-------8---8-----------5-------|
|-----------| [x6] |------------------------8----8----|
|-----------|      |----------------------------------|
|-----------|      |----------------------------------|

SO LONG FORGOTTEN...
|-----------|      |----------------------------------|
|--6-8-6----|      |---6-8-9-8-----6-8-9-8----9--8----|
|--------8--|      |--8-------8---8-------------------|
|-----------| [x6] |------------------------8---------|
|-----------|      |----------------------------------|
|-----------|      |----------------------------------|

|--------------------------------------------|
|--------------------------------------------|
|--5-5----5----------------------------------|
|--5-5----5-8-8----8-6-6-6-6-6-6-6-6-6-6-----|
|--3-3----3-8-8----8-6-6-6-6-6-6-6-6-6-6-----|
|-----------6-6----6-4-4-4-4-4-4-4-4-4-4-----|

|----------------------------------------------|
|----------------------------------------------|
|--5-5-5-5-5--8-8-8-8-8------------------------|
|--5-5-5-5-5--8-8-8-8-8--6-6-6-6-6--6-5--6-5---| [x2]
|--3-3-3-3-3--6-6-6-6-6--6-6-6-6-6--6-5--6-5---|
|------------------------4-4-4-4-4--4-3--4-3---|
 end...

Neros' Decay(tabbed by:freakywi)
drop D#
INTRO
|-----------------|
|--------6--------|
|----6-------6----|
|--8---8---8------| [ EHMM ALOT OF TIMES JE]
|-----------------|
|-----------------|


           OR

|--13----11---11-13-14-13-11-13----11----13-9----11---|
|-----------------------------------------------------|
|-----------------------------------------------------|
|-----------------------------------------------------|
|-----------------------------------------------------|
|-----------------------------------------------------|

|------------------------------------------------------------13--11---11/13--9--11---|
|----14-----16-----14-----13-----14-----16-----14-----13-----------------------------|
|--13--13-13--13-13--13-13--13-13--13-13--13-13--13-13--13-13------------------------|
|------------------------------------------------------------------------------------|
|------------------------------------------------------------------------------------|
|------------------------------------------------------------------------------------|

|------------------------------------------------------------13--11---11/13--9--11--13--|
|----14-----16-----14-----13-----14-----16-----14-----13--------------------------------|
|--13--13-13--13-13--13-13--13-13--13-13--13-13--13-13--13-13---------------------------|
|---------------------------------------------------------------------------------------|
|---------------------------------------------------------------------------------------|
|---------------------------------------------------------------------------------------|

VERSE
|---------------------------|
|---------------------------|
|----6-----8----6-----8-8---|
|--8---8-6----8---8-6-------| [x10]
|---------------------------|
|---------------------------|

TONIGHT IS OVER...
|----------------------------------------------------|
|------------------------------------------11--------|
|--10--8--5--8/10-----13--10---10-10-10-10-10--------|
|--8---6--3--6/8---8--11--8----8--8--8--8--8---------|
|------------------6---------------------------------|
|----------------------------------------------------|
                               .  .  .  .

CHORUS
MY FLESH IS BURNING .....
|---------------------------------------------------------------------|
|---------------------------------------------------------------------|
|--10-10-10-10-10-10-11-11-11-11-11-11-8-8-8-8-8-8--11--11--10--10----|
|--10-10-10-10-10-10-11-11-11-11-11-11-8-8-8-8-8-8--11--11--10--10----|
|--8--8--8--8--8--8--9--9--9--9--9--9--6-6-6-6-6-6--9---9---8---8-----|
|---------------------------------------------------------------------|

|---------------------------------------------------------------------|
|---------------------------------------------------------------------|
|--10-10-10-10-10-10-11-11-11-11-11-11-8-8-8-8-8-8--13--13--11--11----|
|--10-10-10-10-10-10-11-11-11-11-11-11-8-8-8-8-8-8--13--13--11--11----|
|--8--8--8--8--8--8--9--9--9--9--9--9--6-6-6-6-6-6--11--11--9---9-----|
|---------------------------------------------------------------------|

|---------------------------------------------------------------|
|---------------------------------------------------------------|
|--10-10-10-10-10-10-8-8-8-8-8-8-5-5-5-5-5-5-5--10-10--8--8-----|
|--10-10-10-10-10-10-8-8-8-8-8-8-5-5-5-5-5-5-5--10-10--8--8-----|
|--8--8--8--8--8--8--6-6-6-6-6-6-3-3-3-3-3-3-3--8--8---6--6-----|
|---------------------------------------------------------------|

|------------------------------------------------------------------------|
|------------------------------------------------------------------------|
|-6--6-6-6----8--8-8-8---6--6-6-6---8--8-8-8---10-10-10-10-10-10-10-10---|
|-6--6-6-6----8--8-8-8---6--6-6-6---8--8-8-8---10-10-10-10-10-10-10-10---|
|-4--4-4-4----6--6-6-6---4--4-4-4---6--6-6-6-----------------------------|
|------------------------------------------------------------------------|

|--------------------------------------------------------------------------------------|
|--------------------------------------------------------------------------------------|
|--10-10-10-10-10---10-10-10-10-10--10-10-10-10--10-10-10-10--10-10-10-10-10-10--------|
|--10-10-10-10-10---10-10-10-10-10--10-10-10-10--10-10-10-10--10-10-10-10-10-10--------|
|--8--8--8--8--8----8--8--8--8--8---8--8--8--8---8--8--8--8---8--8--8--8--8-8--8-------|
|--------------------------------------------------------------------------------------|
                                                              .  .  .  .  . .  .

|------------------------------------------------------------------------|
|------------------------------------------------------------------------|
|--10-10-10-10-10-10---10---10-10101010-10-11---10-1010101010--10-10-11--|
|--10-10-10-10-10-10---10---10-10101010-10-11---10-1010101010--10-10-11--|
|--8--8--8--8--8--8----8----8--8-8-8-8--8--9----8--8-8-8-8-8---8--8--9---|
|------------------------------------------------------------------------|
                               . . . .             . . . . .

|--------------------------------------------------------------------------------------|
|--------------------------------------------------------------------------------------|
|--10-10-10-10-10---10-10-10-10-10--10-10-10-10--10-10-10-10--10-10-10-10-10-10--------|
|--10-10-10-10-10---10-10-10-10-10--10-10-10-10--10-10-10-10--10-10-10-10-10-10--------|
|--8--8--8--8--8----8--8--8--8--8---8--8--8--8---8--8--8--8---8--8--8--8--8-8--8-------|
|--------------------------------------------------------------------------------------|
                                                              .  .  .  .  . .  .

|-------------------------------------------------------------------|
|-------------------------------------------------------------------|
|--10-10-10-10-10-10---10---10-10101010-10-11---10-1010101010--10---|
|--10-10-10-10-10-10---10---10-10101010-10-11---10-1010101010--10---|
|--8--8--8--8--8--8----8----8--8-8-8-8--8--9----8--8-8-8-8-8---8----|
|-------------------------------------------------------------------|
                               . . . .             . . . . .

TONIGHT IS OVER...
|----------------------------------------------------|
|------------------------------------------11--------|
|--10--8--5--8/10-----13--10---10-10-10-10-10--------|
|--8---6--3--6/8---8--11--8----8--8--8--8--8---------|
|------------------6---------------------------------|
|----------------------------------------------------|
                               .  .  .  .

CHORUS
MY FLESH IS BURNING .....
|---------------------------------------------------------------------|
|---------------------------------------------------------------------|
|--10-10-10-10-10-10-11-11-11-11-11-11-8-8-8-8-8-8--11--11--10--10----|
|--10-10-10-10-10-10-11-11-11-11-11-11-8-8-8-8-8-8--11--11--10--10----|
|--8--8--8--8--8--8--9--9--9--9--9--9--6-6-6-6-6-6--9---9---8---8-----|
|---------------------------------------------------------------------|

|---------------------------------------------------------------------|
|---------------------------------------------------------------------|
|--10-10-10-10-10-10-11-11-11-11-11-11-8-8-8-8-8-8--13--13--11--11----|
|--10-10-10-10-10-10-11-11-11-11-11-11-8-8-8-8-8-8--13--13--11--11----|
|--8--8--8--8--8--8--9--9--9--9--9--9--6-6-6-6-6-6--11--11--9---9-----|
|---------------------------------------------------------------------|

|---------------------------------------------------------------|
|---------------------------------------------------------------|
|--10-10-10-10-10-10-8-8-8-8-8-8-5-5-5-5-5-5-5--10-10--8--8-----|
|--10-10-10-10-10-10-8-8-8-8-8-8-5-5-5-5-5-5-5--10-10--8--8-----|
|--8--8--8--8--8--8--6-6-6-6-6-6-3-3-3-3-3-3-3--8--8---6--6-----|
|---------------------------------------------------------------|

|------------------------------------------------------------------------|
|------------------------------------------------------------------------|
|-6--6-6-6----8--8-8-8---6--6-6-6---8--8-8-8---10-10-10-10-10-10-10-10---|
|-6--6-6-6----8--8-8-8---6--6-6-6---8--8-8-8---10-10-10-10-10-10-10-10---|
|-4--4-4-4----6--6-6-6---4--4-4-4---6--6-6-6-----------------------------|
|------------------------------------------------------------------------|

|------------------------------------------------------------13--11---11/13--9--11---|
|----14-----16-----14-----13-----14-----16-----14-----13-----------------------------|
|--13--13-13--13-13--13-13--13-13--13-13--13-13--13-13--13-13------------------------|
|------------------------------------------------------------------------------------|
|------------------------------------------------------------------------------------|
|------------------------------------------------------------------------------------|

|------------------------------------------------------------13--11---11/13--9-11--|
|----14-----16-----14-----13-----14-----16-----14-----13---------------------------|
|--13--13-13--13-13--13-13--13-13--13-13--13-13--13-13--13-13----------------------|
|----------------------------------------------------------------------------------|
|----------------------------------------------------------------------------------|
|----------------------------------------------------------------------------------|

BEEEEEEEEEGG  THE FLAMES...
|---------------------------------------------------------------------------|
|---------------------------------------------------------------------------|
|6-6-6-6-6-6-3-3-3-5-5-5-5-5-5-3-3-3-6-6-6-6-6-6-3-3-3--6--6--6--6--5--5-5-5|
|6-6-6-6-6-6-3-3-3-5-5-5-5-5-5-3-3-3-6-6-6-6-6-6-3-3-3--6--6--6--6--5--5-5-5|
|4-4-4-4-4-4-1-1-1-3-3-3-3-3-3-1-1-1-4-4-4-4-4-4-1-1-1--4--4--4--4--3--3-3-3|
|---------------------------------------------------------------------------|

AT LONG LAST WE WIL FALL
|-----------------|      |--------|
|--------6--------|      |--------|
|----6-------6----|      |--------|
|--8---8---8------| [x8] |----8---|
|-----------------|      |----8---|
|-----------------|      |----6---|

whew...
comments
print report bad tab
4 comments total. Showing first comments.
0 reply
fallenskater488 wrote on May 4 2008, 07:44 pm

all are d not d# you dumbass

0 reply
blake1221 wrote on June 15 2008, 06:14 pm

that was freaky wi's fault
idk why he hasn't discovered you don't frickin need the guitar tuned half step down all you need is drop d.
what a fool.

0 reply
JSFS wrote on August 4 2008, 03:41 am

Christ. SOOO many errors.
Ya, and seriously, freaky wi's stupid crap with half-step down.
Dayum annoying when its not needed, when most can be played in E-Standard Dropped D.
Pisses the hell out of me.. 5* my @$$..

I want to post or [tab]
guest
You may want to rate the tab now too:
select rating
Please do not post tabs as comments. Select "correction" instead!