Oops, an error
Loading. Please wait.

The Temptress Tab

ver2
ver2

Whole song

Interactive

More versions @911Tabs.com
1,263 views 18 this week
no commentswrite comment
1 2 3 4 5
excellent!
x 3
Autoscroll
+/-
esc
set tempo
stop
Contributor
Difficulty
Tuning
intermediate
D A D G B E
Hey! There's an official Ultimate Guitar app which is ideal
for learning songs when you're away from computer. Get the app
WARNING: You are trying to view
                                    content from Ultimate-Guitar.com
                                    in an unauthorized application,
                                    which is prohibited.

                                    Please use an official Ultimate
                                    Guitar Tabs application for iPhone,
                                    iPad or Android to access legitimate
                                    chords, guitar, bass, and drum tabs
                                    from Ultimate-Guitar.com database.

                                    Type "ultimate guitar tabs" in Apple
                                    App Store's or Android Market's
                                    search to find the application.
-----------------------------------------------------------------------------
                             THE TEMPTRESS - Alesana
-----------------------------------------------------------------------------

Tabbed by: Zacky Klassen
e-mail: xxzackyxx@hotmail.com
Facebook: Zacky Klassen

Hola a todos!
Hey every
Well, this is the text version of my GuitarPro tab of this song.
Not everybody gots GuitarPro, and that's why i exported this tab.
Are only the guitars!
I hope you like it!

PLZ RATE & COMMENT!!!
COMENTA Y CALIFICA!!!

Patrick's Guitar:

VERSE:

   Q    E  E   Q     E    E   
E||----------------------------|
B||----------------------------|
G||-------------10b----7--7g9--|
D||----------8-----------------|
A||----------------------------|
D||----------------------------|

  E  H         Q.        E   S   S  E   S   Q.      E.   
----------------------|---------------------------------|
----------------------|---------------------------------|
--L--7~---------------|------------10-------------------|
----------------------|-----10h-12-----12p-10~----------|
----------------------|---------------------------------|
----------------------|---------------------------------|


  E   S   S  E   Q     S   S  E   E      Q    E   S  S  E   S E   E   S   
--------------------------------------|----------------------------------|
--------------------------------------|----------------------------------|
------------12--10-----------14--10~--|--L--------------------9----------|
-----10h-12-----------10h-12----------|----------(7)-7-10p--7----10--10s-|
--------------------------------------|----------------------------------|
--------------------------------------|----------------------------------|


   Q      S    S    Q      Q      E      Q    E   S  S  E   S E   E   S   
--------------------------------------|----------------------------------|
--------------------------------------|----------------------------------|
---------(3)s-(5)s-(3)----(2)----(3)--|-----------------------9----------|
--12~-----5s---7s---5------3------5---|--3-------(7)-7-10p--7----10--10s-|
--------------------------------------|--5-------------------------------|
--------------------------------------|----------------------------------|

       
                                       
   Q      S    S    Q      Q      E       
--------------------------------------|
--------------------------------------|
---------(3)s-(5)s-(3)----(2)----(3)--|
--12~-----5s---7s---5------3------5---|
--------------------------------------|
--------------------------------------|


PRE-CHORUS:

   H         Q    E   E    
|-------------------------|
|-------------------------|
|-------------------------|
|--3~-------------2h--3s--|
|--5----------------------|
|-------------------------|

  H         H            Q    Q    Q    E   E      H            H          
----------------------|-------------------------|-------------------------|
----------------------|-------------------------|------------<>10~--------|
----------------------|-------------------------|-------------------------|
--7~--------5~--------|-----------------3h--5s--|--8~---------------------|
----------------------|-------------------------|-------------------------|
----------------------|-------------------------|-------------------------|


  Q    Q    Q    E   E      H           H           H.            E   E    
-------------------------|-----------------------|------------------------|
-------------------------|-----------------------|------------------------|
-------------------------|-----------------------|------------------------|
-----------------2h--3s--|--7~--------3g5--------|--2~------------3p--2s--|
-------------------------|-----------------------|------------------------|
-------------------------|-----------------------|------------------------|


                       
  H.            Q         
----------------------|
----------------------|
----------------------|
--3~------------L\----|
----------------------|
----------------------|

CHORUS:

   E   E   E   E   E   E   E   E 
----------------------------------|
----------------------------------|
--14--14--14--14--14--14--14--14--|
---x---x---x---x---x---x---x---x--|
--12--12--12--12--12--12--12--12--|
----------------------------------|

   E   E   E   E   E   E   E   E       E   E   E   E   E   E    E   E    
-----------------------------------|------------------------------------|
-----------------------------------|------------------------------------|
--15--15--15--15--15--15--15--15S--|--10--10--10--10--10--10S--14--14S--|
---x---x---x---x---x---x---x---x---|---x---x---x---x---x---x----x---x---|
--13--13--13--13--13--13--13--13S--|---8---8---8---8---8---8S--12--12S--|
-----------------------------------|------------------------------------|


   E   E   E   E   E   E   E   E      E   E   E   E   E   E   E   E   
----------------------------------|----------------------------------|
----------------------------------|----------------------------------|
--12--12--12--12--12--12--12--12--|--14--14--14--14--14--14--14--14--|
---x---x---x---x---x---x---x---x--|---x---x---x---x---x---x---x---x--|
--10--10--10--10--10--10--10--10--|--12--12--12--12--12--12--12--12--|
----------------------------------|----------------------------------|


   E   E   E   E   E   E   E   E       E   E   E   E   E   E    E   E    
-----------------------------------|------------------------------------|
-----------------------------------|------------------------------------|
--15--15--15--15--15--15--15--15S--|--10--10--10--10--10--10S--14--14S--|
---x---x---x---x---x---x---x---x---|---x---x---x---x---x---x----x---x---|
--13--13--13--13--13--13--13--13S--|---8---8---8---8---8---8S--12--12S--|
-----------------------------------|------------------------------------|
                                

                                INTER
   E   E   E   E   E  E  E  E     W                   W                 
-------------------------------|-------------------|-------------------|
-------------------------------|-------------------|-------------------|
--12--12--12--12S--9--9--9--9--|--7----------------|--L----------------|
---x---x---x---x---x--x--x--x--|--x----------------|-------------------|
--10--10--10--10S--7--7--7--7--|--5----------------|--L----------------|
-------------------------------|-------------------|-------------------|


*Repeat Verse
*Repeat Pre-chorus


CHORUS 2:

   E   E   E   E   E   E   E   E      E   E   E   E   E   E   E   E    
----------------------------------|-----------------------------------|
----------------------------------|-----------------------------------|
--14--14--14--14--14--14--14--14--|--15--15--15--15--15--15--15--15S--|
---x---x---x---x---x---x---x---x--|---x---x---x---x---x---x---x---x---|
--12--12--12--12--12--12--12--12--|--13--13--13--13--13--13--13--13S--|
----------------------------------|-----------------------------------|


   E   E   E   E   E   E    E   E       E   E   E   E   E   E   E   E   
------------------------------------|----------------------------------|
------------------------------------|----------------------------------|
--10--10--10--10--10--10S--14--14S--|--12--12--12--12--12--12--12--12--|
---x---x---x---x---x---x----x---x---|---x---x---x---x---x---x---x---x--|
---8---8---8---8---8---8S--12--12S--|--10--10--10--10--10--10--10--10--|
------------------------------------|----------------------------------|


   E   E   E   E   E   E   E   E      E   E   E   E   E   E   E   E    
----------------------------------|-----------------------------------|
----------------------------------|-----------------------------------|
--14--14--14--14--14--14--14--14--|--15--15--15--15--15--15--15--15S--|
---x---x---x---x---x---x---x---x--|---x---x---x---x---x---x---x---x---|
--12--12--12--12--12--12--12--12--|--13--13--13--13--13--13--13--13S--|
----------------------------------|-----------------------------------|


   E   E   E   E   E   E    E   E       E   E   E   E  E  E  E  E   
------------------------------------|------------------------------|
------------------------------------|------------------------------|
--10--10--10--10--10--10S--14--14S--|--12--12--12--12--x--x--x--x--|
---x---x---x---x---x---x----x---x---|---x---x---x---x--x--x--x--x--|
---8---8---8---8---8---8S--12--12S--|--10--10--10--10--x--x--x--x--|
------------------------------------|------------------x--x--x--x--|


I cant't belive...

   E   E   E   E   E   E   E   E      E   E   E   E   E   E   E   E    
----------------------------------|-----------------------------------|
----------------------------------|-----------------------------------|
--14--14--14--14--14--14--14--14--|--15--15--15--15--15--15--15--15S--|
---x---x---x---x---x---x---x---x--|---x---x---x---x---x---x---x---x---|
--12--12--12--12--12--12--12--12--|--13--13--13--13--13--13--13--13S--|
----------------------------------|-----------------------------------|


   E   E   E   E   E   E    E   E       E   E   E   E   E   E   E   E   
------------------------------------|----------------------------------|
------------------------------------|----------------------------------|
--10--10--10--10--10--10S--14--14S--|--12--12--12--12--12--12--12--12--|
---x---x---x---x---x---x----x---x---|---x---x---x---x---x---x---x---x--|
---8---8---8---8---8---8S--12--12S--|--10--10--10--10--10--10--10--10--|
------------------------------------|----------------------------------|


   E   E   E   E   E   E   E   E      E   E   E   E   E   E   E   E    
----------------------------------|-----------------------------------|
----------------------------------|-----------------------------------|
--14--14--14--14--14--14--14--14--|--15--15--15--15--15--15--15--15S--|
---x---x---x---x---x---x---x---x--|---x---x---x---x---x---x---x---x---|
--12--12--12--12--12--12--12--12--|--13--13--13--13--13--13--13--13S--|
----------------------------------|-----------------------------------|


   E   E   E   E   E   E    E   E       E   E   E   E   E  E  E  E         
------------------------------------|-------------------------------|
------------------------------------|-------------------------------|
--10--10--10--10--10--10S--14--14S--|--12--12--12--12S--9--9--9--9--|
---x---x---x---x---x---x----x---x---|---x---x---x---x---x--x--x--x--|
---8---8---8---8---8---8S--12--12S--|--10--10--10--10S--7--7--7--7--|
------------------------------------|-------------------------------|


BREAKDOWN:


-----|-----|-----|
-----|-----|-----|
-----|-----|-----|
-----|-----|-----|
-----|-----|-----|
-----|-----|-----|


  Q    Q    Q    Q       S  S  E  Q    Q    Q     
----------------------|--------------------------|
----------------------|--------------------------|
------------2---------|--2h-3p-2-------2---------|
-------3---------3----|-----------3---------3----|
--5-------------------|--------------------------|
----------------------|--------------------------|

  W                   W                   Q    Q    Q    Q     
-------------------|-------------------|----------------------|
-------------------|-------------------|----------------------|
-------------------|-------------------|----------------------|
-------------------|-------------------|-------0----3----2----|
--5----------------|--L----------------|--3-------------------|
-------------------|-------------------|----------------------|


  Q    E  E  E  Q.        H.           S  S  E     W                 
-----------------------|------------------------|-------------------|
-----------------------|------------------------|-------------------|
-----------------------|------------------------|-------------------|
--L----2--3--2--0------|--0------------2h-3p-0--|-------------------|
-----------------------|------------------------|--4----------------|
-----------------------|------------------------|-------------------|


  Q    Q    Q    Q       S  S  E  Q    Q    Q       W                 
----------------------|--------------------------|-------------------|
----------------------|--------------------------|-------------------|
------------2---------|--2h-3p-2-------2---------|--3----------------|
-------3---------3----|-----------3---------3----|-------------------|
--5-------------------|--------------------------|-------------------|
----------------------|--------------------------|-------------------|


  W                   Q    Q    Q    Q       Q    E  E  E  Q.      
-------------------|----------------------|-----------------------|
-------------------|----------------------|-----------------------|
--L----------------|----------------------|-----------------------|
-------------------|-------0----3----2----|--L----2--3--2--0------|
-------------------|--3-------------------|-----------------------|
-------------------|----------------------|-----------------------|


  H.           S  S  E     W                 
------------------------|-------------------|
------------------------|-------------------|
------------------------|-------------------|
--0------------2h-3p-0--|-------------------|
------------------------|--4----------------|
------------------------|-------------------|


BUID UP:


  Ok, this is the hardest part of the song :S                                
  H                                           H           H.           Q     
-------------------------------------------------------|--------------------|
----------------------------------------------6--------|---------------6----|
--7----------------------------------------------------|--7-----------------|
-------------------------------------------------------|--------------------|
-------------------------------------------------------|--------------------|
-------------------------------------------------------|--------------------|

                                 
  H        E                                 E  E   E     H        E  E  Q     
-------------------------------------------------------|----------------------|
------------------------------------------------5h--6--|--5--------L--3--6----|
--3--------L---------------------------------3---------|----------------------|
-------------------------------------------------------|----------------------|
-------------------------------------------------------|----------------------|
-------------------------------------------------------|----------------------|


  H.            Q       H.           E  E     H        E  E  Q     
---------------------|---------------------|----------------------|
--3S------------5----|---------------5--6--|--5--------L--3--5----|
---------------------|--5------------------|----------------------|
---------------------|---------------------|----------------------|
---------------------|---------------------|----------------------|
---------------------|---------------------|----------------------|


  Q    Q    Q    Q       H        H           Q    Q    Q    Q     
----------------------|--------------------|----------------------|
-------5---------5----|-----------6--------|-------5---------5----|
--6---------6---------|--7-----------------|--7---------7---------|
----------------------|--------------------|----------------------|
----------------------|--------------------|----------------------|
----------------------|--------------------|----------------------|


  H        E  E  E   E     H        E  E  E  E     Q    Q    Q    Q     
------------------------|-----------------------|----------------------|
-----------------5h--6--|--5-----------5-----5--|-------5---------5----|
--3--------L--3---------|-----------7-----7-----|--5---------5---------|
------------------------|-----------------------|----------------------|
------------------------|-----------------------|----------------------|
------------------------|-----------------------|----------------------|


  H        E  E  E   E     Q    Q    Q    Q       Q    Q    Q    Q     
------------------------|----------------------|----------------------|
-----------------5h--6--|-------5---------5----|-------5--------------|
--5--------L--5---------|--6---------6---------|--6---------6---------|
------------------------|----------------------|----------------------|
------------------------|----------------------|----------------------|
------------------------|----------------------|----------------------|


HEAVY BREAK!:


  Q    Q    Q    Q       Q    Q    Q    Q       H        H         
----------------------|----------------------|--------------------|
----------------------|----------------------|-----------1--------|
----------------------|----------------------|--3-----------------|
--0----0----0----0----|--0----0----0----0----|--------------------|
--0----0----0----0----|--0----0----0----0----|--------------------|
--0----0----0----0----|--0----0----0----0----|--------------------|


  H        Q    Q       Q    Q    Q    Q       Q    Q    Q    Q     
--0--------1---------|----------------------|----------------------|
----------------1----|----------------------|----------------------|
---------------------|--5----5----5----5----|--5----5----5----5----|
---------------------|--5----5----5----5----|--5----5----5----5----|
---------------------|--3----3----3----3----|--3----3----3----3----|
---------------------|----------------------|----------------------|


   E   E   E   E   E   E   E   E      E   E   E   E   E   E   E   E   
----------------------------------|----------------------------------|
--11--10------------------13--11--|--10------------------11--13--11--|
----------12--10------------------|------12--10------10--------------|
------------------14--12----------|--------------14------------------|
----------------------------------|----------------------------------|
----------------------------------|----------------------------------|


   Q     Q    Q    Q       Q    Q    Q    Q       H        H         
--10~-------------------|----------------------|--------------------|
------------------------|----------------------|-----------1--------|
------------------------|----------------------|--3-----------------|
---0-----0----0----0----|--0----0----0----0----|--------------------|
---0-----0----0----0----|--0----0----0----0----|--------------------|
---0-----0----0----0----|--0----0----0----0----|--------------------|


  H        Q    Q       Q    Q    Q    Q       Q    Q    Q    Q     
--0--------1---------|----------------------|----------------------|
----------------1----|----------------------|----------------------|
---------------------|--5----5----5----5----|--5----5----5----5----|
---------------------|--5----5----5----5----|--5----5----5----5----|
---------------------|--3----3----3----3----|--3----3----3----3----|
---------------------|----------------------|----------------------|


   E   E   E   E   E   E   E   E      E   E   E   E   E   E   E   E   
----------------------------------|----------------------------------|
--11--10------------------13--11--|--10------------------11--13--11--|
----------12--10------------------|------12--10------10--------------|
------------------14--12----------|--------------14------------------|
----------------------------------|----------------------------------|
----------------------------------|----------------------------------|

INTER:

   S  S  S  S  S  S  S  S  S  S  S  S  S  S  S  S  
--------------------------------------------------|
--15-15-10-10-15-15-10-10-15-15-10-10-15-15-10-10-|
--------------------------------------------------|
--------------------------------------------------|
--------------------------------------------------|
--------------------------------------------------|


   S  S  S  S  S  S  S  S  S  S  S  S  S   S  S  S  
---------------------------------------------------|
--15-15-10-10-15-15-10-10-15-15-10-10-15--15-10-10-|
---------------------------------------------------|
---------------------------------------------------|
--------------------------------------12\----------|
--------------------------------------12\----------|
                                      ^this is played by another guitar

   S  S  S  S  S  S  S  S  S  S  S  S  S  S  S  S  
--------------------------------------------------|
--15-15-10-10-15-15-10-10-15-15-10-10-15-15-10-10-|
--------------------------------------------------|
--------------------------------------------------|
--------------------------------------------------|
--------------------------------------------------|

                                                  
   S  S  S  S  S  S  S  S  S  S  S  S  S  S  S  S                 
--------------------------------------------------|
--15-15-10-10-15-15-10-10-15-15-10-10-15-15-10-10-|
--------------------------------------------------|
--------------------------------------------------|
--------------------------------------------------|
--------------------------------------------------|

BRIDGE:
So it seems...
                 Q    Q    E  E  E  E     
----|----|----|------------------------|
----|----|----|------------------------|
----|----|----|------------x--x--x--x--|
----|----|----|------------x--x--x--x--|
----|----|----|------------x--x--x--x--|
----|----|----|------------x--x--x--x--|


LAST CHORUS:
Repeat Chorus 2, but play this at the end:


   E   E   E   E   E  E  E  E      
--------------------------------|
--------------------------------|
--12--12--12--12S--9--9--9--9S--|
---x---x---x---x---x--x--x--x---|
--10--10--10--10S--7--7--7--7S--|
--------------------------------|


END:

  W                            
-------------------|
-------------------|
--7----------------|
--x----------------|
--5----------------|
-------------------|





Alex's Guitar:


INTRO:
                              Q      Q      Q      Q      
E||-------|-------|-------|------------------------------|
B||-------|-------|-------|--(6)----(6)----(6)----(6)----|
G||-------|-------|-------|--(5)----(5)----(5)----(5)----|
D||-------|-------|-------|---7------7------7------7-----|
A||-------|-------|-------|---5------5------5------5-----|
D||-------|-------|-------|---0------0------0------0-----|


   Q      Q      Q     Q     
----------------------------|
--(6)----(6)----(6)---------|
--(5)----(5)----(5)---------|
---7------7------7----------|
---5------5------5----------|
---0------0------0----------|

VERSE:

    Q       Q       Q       Q      
----------------------------------|
----------------------------------|
--(10)----(10)----(10)----(10)----|
---10------10------10------10-----|
----8-------8-------8-------8-----|
----8-------8-------8-------8-----|

    Q       Q       E.     E.     E       Q      Q      Q      Q      
--------------------------------------|------------------------------|
--------------------------------------|--(6)----(6)----(6)----(6)----|
--(10)----(10)----(10)---(10)---(10)--|--(5)----(5)----(5)----(5)----|
---10------10------10-----10-----10---|---7------7------7------7-----|
----8-------8-------8------8------8---|---5------5------5------5-----|
----8-------8-------8------8------8---|---0------0------0------0-----|


   Q      Q      E.    E.    E        Q       Q       Q       Q      
---------------------------------|----------------------------------|
--(6)----(6)----(6)---(6)---(6)--|----------------------------------|
--(5)----(5)----(5)---(5)---(5)--|--(10)----(10)----(10)----(10)----|
---7------7------7-----7-----7---|---10------10------10------10-----|
---5------5------5-----5-----5---|----8-------8-------8-------8-----|
---0------0------0-----0-----0---|----8-------8-------8-------8-----|


    Q       Q       E.     E.     E       Q      Q      Q      Q      
--------------------------------------|------------------------------|
--------------------------------------|--(6)----(6)----(6)----(6)----|
--(10)----(10)----(10)---(10)---(10)--|--(5)----(5)----(5)----(5)----|
---10------10------10-----10-----10---|---7------7------7------7-----|
----8-------8-------8------8------8---|---5------5------5------5-----|
----8-------8-------8------8------8---|---0------0------0------0-----|


   Q      Q      E.    E.    E    
---------------------------------|
--(6)----(6)----(6)---(6)---(6)--|
--(5)----(5)----(5)---(5)---(5)--|
---7------7------7-----7-----7---|
---5------5------5-----5-----5---|
---0------0------0-----0-----0---|


PRE-CHORUS:
I'm at your feet..

  Q    Q    Q    E   E    
-------------------------|
-------------------------|
-------------------------|
-------------------------|
-----------------3h--5s--|
-------------------------|


  H         H            Q    Q    Q    E   E       H            H          
----------------------|-------------------------|--------------------------|
----------------------|-------------------------|--------------------------|
----------------------|-------------------------|-------------<>10~--------|
----------------------|-------------------------|--------------------------|
--8~--------7~--------|-----------------5h--8s--|--10~---------------------|
----------------------|-------------------------|--------------------------|


  Q    Q    Q    E   E      H          H           H.            E   E    
-------------------------|----------------------|------------------------|
-------------------------|----------------------|------------------------|
-------------------------|----------------------|------------------------|
-------------------------|----------------------|--5~------------7p--5s--|
-----------------7s--5s--|--8--------5g7--------|------------------------|
-------------------------|----------------------|------------------------|


  H.            Q      
----------------------|
----------------------|
----------------------|
--7~------------L\----|
----------------------|
----------------------|

CHORUS:

   E   E   E   E   E   E    E   E   
-----------------------------------|
-----------------------------------|
--14--14--14--14--14--14S--17--17--|
---x---x---x---x---x---x----x---x--|
--12--12--12--12--12--12S--15--15--|
-----------------------------------|

   E   E   E   E   E   E   E   E       E   E   E   E   E   E    E   E    
-----------------------------------|------------------------------------|
-----------------------------------|------------------------------------|
--15--15--15--15--15--14--14--14S--|--10--10--10--10--10--10S--14--14S--|
---x---x---x---x---x---x---x---x---|---x---x---x---x---x---x----x---x---|
--13--13--13--13--13--12--12--12S--|---8---8---8---8---8---8S--12--12S--|
-----------------------------------|------------------------------------|


   E   E   E   E   E   E   E   E      E   E   E   E   E   E    E   E   
----------------------------------|-----------------------------------|
----------------------------------|-----------------------------------|
--12--12--12--12--12--12--12--12--|--14--14--14--14--14--14S--17--17--|
---x---x---x---x---x---x---x---x--|---x---x---x---x---x---x----x---x--|
--10--10--10--10--10--10--10--10--|--12--12--12--12--12--12S--15--15--|
----------------------------------|-----------------------------------|


   E   E   E   E   E   E   E   E       E   E   E   E   E   E    E   E    
-----------------------------------|------------------------------------|
-----------------------------------|------------------------------------|
--15--15--15--15--15--14--14--14S--|--10--10--10--10--10--10S--14--14S--|
---x---x---x---x---x---x---x---x---|---x---x---x---x---x---x----x---x---|
--13--13--13--13--13--12--12--12S--|---8---8---8---8---8---8S--12--12S--|
-----------------------------------|------------------------------------|
                               
                               INTER:
   E   E   E   E  E  E  E  E      W                   W                 
------------------------------|--------------------|-------------------|
------------------------------|--------------------|-------------------|
--12--12--12--12--9--9--9--9--|--10----------------|--L----------------|
---x---x---x---x--x--x--x--x--|---x----------------|-------------------|
--10--10--10--10--7--7--7--7--|---8----------------|--L----------------|
------------------------------|--------------------|-------------------|


*Repeat Verse
*Repeat Pre-Chorus


CHORUS 2:


   E   E   E   E   E   E    E   E      E   E   E   E   E   E   E   E    
-----------------------------------|-----------------------------------|
-----------------------------------|-----------------------------------|
--14--14--14--14--14--14S--17--17--|--15--15--15--15--15--14--14--14S--|
---x---x---x---x---x---x----x---x--|---x---x---x---x---x---x---x---x---|
--12--12--12--12--12--12S--15--15--|--13--13--13--13--13--12--12--12S--|
-----------------------------------|-----------------------------------|


   E   E   E   E   E   E    E   E       E   E   E   E   E   E   E   E   
------------------------------------|----------------------------------|
------------------------------------|----------------------------------|
--10--10--10--10--10--10S--14--14S--|--12--12--12--12--12--12--12--12--|
---x---x---x---x---x---x----x---x---|---x---x---x---x---x---x---x---x--|
---8---8---8---8---8---8S--12--12S--|--10--10--10--10--10--10--10--10--|
------------------------------------|----------------------------------|


   E   E   E   E   E   E    E   E      E   E   E   E   E   E   E   E    
-----------------------------------|-----------------------------------|
-----------------------------------|-----------------------------------|
--14--14--14--14--14--14S--17--17--|--15--15--15--15--15--14--14--14S--|
---x---x---x---x---x---x----x---x--|---x---x---x---x---x---x---x---x---|
--12--12--12--12--12--12S--15--15--|--13--13--13--13--13--12--12--12S--|
-----------------------------------|-----------------------------------|


   E   E   E   E   E   E    E   E       E   E   E   E  E  E  E  E   
------------------------------------|------------------------------|
------------------------------------|------------------------------|
--10--10--10--10--10--10S--14--14S--|--12--12--12--12--x--x--x--x--|
---x---x---x---x---x---x----x---x---|---x---x---x---x--x--x--x--x--|
---8---8---8---8---8---8S--12--12S--|--10--10--10--10--x--x--x--x--|
------------------------------------|------------------x--x--x--x--|


   E   E   E   E   E   E    E   E      E   E   E   E   E   E   E   E    
-----------------------------------|-----------------------------------|
-----------------------------------|-----------------------------------|
--14--14--14--14--14--14S--17--17--|--15--15--15--15--15--14--14--14S--|
---x---x---x---x---x---x----x---x--|---x---x---x---x---x---x---x---x---|
--12--12--12--12--12--12S--15--15--|--13--13--13--13--13--12--12--12S--|
-----------------------------------|-----------------------------------|


   E   E   E   E   E   E    E   E       E   E   E   E   E   E   E   E   
------------------------------------|----------------------------------|
------------------------------------|----------------------------------|
--10--10--10--10--10--10S--14--14S--|--12--12--12--12--12--12--12--12--|
---x---x---x---x---x---x----x---x---|---x---x---x---x---x---x---x---x--|
---8---8---8---8---8---8S--12--12S--|--10--10--10--10--10--10--10--10--|
------------------------------------|----------------------------------|


   E   E   E   E   E   E    E   E      E   E   E   E   E   E   E   E    
-----------------------------------|-----------------------------------|
-----------------------------------|-----------------------------------|
--14--14--14--14--14--14S--17--17--|--15--15--15--15--15--14--14--14S--|
---x---x---x---x---x---x----x---x--|---x---x---x---x---x---x---x---x---|
--12--12--12--12--12--12S--15--15--|--13--13--13--13--13--12--12--12S--|
-----------------------------------|-----------------------------------|


   E   E   E   E   E   E    E   E       E   E   E   E  E  E  E  E               
------------------------------------|------------------------------|
------------------------------------|------------------------------|
--10--10--10--10--10--10S--14--14S--|--12--12--12--12--9--9--9--9--|
---x---x---x---x---x---x----x---x---|---x---x---x---x--x--x--x--x--|
---8---8---8---8---8---8S--12--12S--|--10--10--10--10--7--7--7--7--|
------------------------------------|------------------------------|


BUILD UP:

      H                           E  E  Q     
|-----------------------------------------|
|------------------------------------6----|
|---------------------------------7-------|
|-----------------------------------------|
|-----------------------------------------|
|-----------------------------------------|
                  
  H        E  E  Q       Q                             E  S  S E  E  E  E   
----------------------|----------------------------------------------------|
--------------5--6----|--------------------------------6--6p-5-------5--6--|
--7--------L----------|----------------------------------------7--7--------|
----------------------|--8-------------------------------------------------|
----------------------|----------------------------------------------------|
----------------------|----------------------------------------------------|


  H.           E  E     H        E  E  Q       Q    E  E  Q    E  E   
---------------------|----------------------|------------------------|
--5------------5--6--|-----------------6----|-------5--6-------5--6--|
---------------------|--7--------L--7-------|--7----------7----------|
---------------------|----------------------|------------------------|
---------------------|----------------------|------------------------|
---------------------|----------------------|------------------------|


  H.           Q       Q     Q    Q     Q       H        H         
--------------------|------------------------|--------------------|
---------------5----|------------------------|-----------6--------|
--7-----------------|--6S----9----6S----9----|--7-----------------|
--------------------|------------------------|--------------------|
--------------------|------------------------|--------------------|
--------------------|------------------------|--------------------|


  H        E  E  Q       Q    Q.     E  E  E     H        E  E  Q     
----------------------|-----------------------|----------------------|
-----------------6----|-------5---------5--6--|--5-----------5--6----|
--7--------L--L-------|--7-----------7--------|-----------7----------|
----------------------|-----------------------|----------------------|
----------------------|-----------------------|----------------------|
----------------------|-----------------------|----------------------|


  Q    E  E  Q      Q       Q    Q    Q    Q       Q    Q    Q    Q     
-------------------------|----------------------|----------------------|
-------5--6-------3g5----|--3----5----3----5----|-------5---------5----|
--7----------7-----------|----------------------|--6---------6---------|
-------------------------|----------------------|----------------------|
-------------------------|----------------------|----------------------|
-------------------------|----------------------|----------------------|


  Q    Q    Q    Q     
----------------------|
-------5--------------|
--6---------6---------|
----------------------|
----------------------|
----------------------|

HEAVY BREAK!:


  Q       Q     Q     Q      
----------------------------|
----------------------------|
----------------------------|
--0~----3g5~----3~----5~----|
----------------------------|
----------------------------|

    Q     Q     Q     Q        H         H            H         H          
----------------------------|----------------------|----------------------|
----------------------------|----------------------|--1~--------3~--------|
----------------------------|----------------------|----------------------|
--5g7~----5~----3~----2~----|--3~--------5~--------|----------------------|
----------------------------|----------------------|----------------------|
----------------------------|----------------------|----------------------|


      Q      Q     Q     Q          Q     Q     Q     Q     
-------------------------------|---------------------------|
-------------------------------|---------------------------|
-------------------------------|---------------------------|
--10g12~----10~----8~----7~----|--3g5~----3~----2~----0----|
-------------------------------|---------------------------|
-------------------------------|---------------------------|


   E   E   E   E   E   E   E   E      E   E   E   E   E   E   E   E   
--10----------------------12--10--|----------------------------------|
------13--11--10------------------|--14--11--10--------------13------|
------------------12--10----------|--------------12--10--12------12--|
----------------------------------|----------------------------------|
----------------------------------|----------------------------------|
----------------------------------|----------------------------------|


  Q       Q     Q     Q          Q     Q     Q     Q      
----------------------------|----------------------------|
----------------------------|----------------------------|
----------------------------|----------------------------|
--0~----3g5~----3~----5~----|--5g7~----5~----3~----2~----|
----------------------------|----------------------------|
----------------------------|----------------------------|


  H         H            H         H                Q      Q     Q     Q      
----------------------|----------------------|-------------------------------|
----------------------|--1~--------3~--------|-------------------------------|
----------------------|----------------------|-------------------------------|
--3~--------5~--------|----------------------|--10g12~----10~----8~----7~----|
----------------------|----------------------|-------------------------------|
----------------------|----------------------|-------------------------------|


    Q     Q     Q     Q        E   E   E   E   E   E   E   E   
---------------------------|--10----------------------12--10--|
---------------------------|------13--11--10------------------|
---------------------------|------------------12--10----------|
--3g5~----3~----2~----0----|----------------------------------|
---------------------------|----------------------------------|
---------------------------|----------------------------------|


   E   E   E   E   E   E   E   E         
----------------------------------|
--14--11--10--------------13------|
--------------12--10--12------12--|
----------------------------------|
----------------------------------|
----------------------------------|

INTER:

         S  S  S  S  S  S  S  S  S   S  S  S  S  S  S  S  
-----|---------------------------------------------------|
-----|--22-22-15-15-22-22-15-15-22--22-15-15-22-22-15-15-|
-----|---------------------------------------------------|
-----|---------------------------------------------------|
-----|---------------------------5/-----------L----------|
-----|---------------------------5/-----------L----------|
                                 ^this is played by another guitar

   S  S  S  S  S  S  S  S  S  S  S  S  S  S  S  S  
--------------------------------------------------|
--22-22-15-15-22-22-15-15-22-22-15-15-22-22-15-15-|
--------------------------------------------------|
--------------------------------------------------|
--------------------------------------------------|
--------------------------------------------------|


   S  S  S  S  S  S  S  S  S  S  S  S  S  S  S  S                 
--------------------------------------------------|
--22-22-15-15-22-22-15-15-22-22-15-15-22-22-15-15-|
--------------------------------------------------|
--------------------------------------------------|
--------------------------------------------------|
--------------------------------------------------|


BRIDGE:
So it seems...
                 Q    Q    E  E  E  E     
----|----|----|------------------------|
----|----|----|------------------------|
----|----|----|------------x--x--x--x--|
----|----|----|------------x--x--x--x--|
----|----|----|------------x--x--x--x--|
----|----|----|------------x--x--x--x--|


LAST CHORUS:
Repeat Chorus 2, but play this at the end:


   E   E   E   E   E  E  E  E      
--------------------------------|
--------------------------------|
--12--12--12--12S--9--9--9--9S--|
---x---x---x---x---x--x--x--x---|
--10--10--10--10S--7--7--7--7S--|
--------------------------------|


END:

   W                                
--------------------|
--------------------|
--10----------------|
---x----------------|
---8----------------|
--------------------|




Shawn's Guitar:


INTRO:

       Q       Q       Q       Q      
E||----------------------------------|
B||----------------------------------|
G||--(10)----(10)----(10)----(10)----|
D||---10------10------10------10-----|
A||----8-------8-------8-------8-----|
D||----8-------8-------8-------8-----|


    Q       Q       E.     E.     E              
--------------------------------------|----|----|
--------------------------------------|----|----|
--(10)----(10)----(10)---(10)---(10)--|----|----|
---10------10------10-----10-----10---|----|----|
----8-------8-------8------8------8---|----|----|
----8-------8-------8------8------8---|----|----|



VERSE:


    Q       Q       Q       Q          Q       Q       E.     E.     E    
----------------------------------|--------------------------------------|
----------------------------------|--------------------------------------|
--(10)----(10)----(10)----(10)----|--(10)----(10)----(10)---(10)---(10)--|
---10------10------10------10-----|---10------10------10-----10-----10---|
----8-------8-------8-------8-----|----8-------8-------8------8------8---|
----8-------8-------8-------8-----|----8-------8-------8------8------8---|


   Q      Q      Q      Q         Q      Q      E.    E.    E    
------------------------------|---------------------------------|
--(6)----(6)----(6)----(6)----|--(6)----(6)----(6)---(6)---(6)--|
--(5)----(5)----(5)----(5)----|--(5)----(5)----(5)---(5)---(5)--|
---7------7------7------7-----|---7------7------7-----7-----7---|
---5------5------5------5-----|---5------5------5-----5-----5---|
---0------0------0------0-----|---0------0------0-----0-----0---|


    Q       Q       Q       Q          Q       Q       E.     E.     E    
----------------------------------|--------------------------------------|
----------------------------------|--------------------------------------|
--(10)----(10)----(10)----(10)----|--(10)----(10)----(10)---(10)---(10)--|
---10------10------10------10-----|---10------10------10-----10-----10---|
----8-------8-------8-------8-----|----8-------8-------8------8------8---|
----8-------8-------8-------8-----|----8-------8-------8------8------8---|


   Q      Q      Q      Q         Q      Q      E.    E.    E    
------------------------------|---------------------------------|
--(6)----(6)----(6)----(6)----|--(6)----(6)----(6)---(6)---(6)--|
--(5)----(5)----(5)----(5)----|--(5)----(5)----(5)---(5)---(5)--|
---7------7------7------7-----|---7------7------7-----7-----7---|
---5------5------5------5-----|---5------5------5-----5-----5---|
---0------0------0------0-----|---0------0------0-----0-----0---|



PRE-CHORUS:


  W                   W                   Q    H.            
-------------------|-------------------|--------------------|
-------------------|-------------------|--------------------|
--2----------------|--L----------------|--5----L------------|
--0----------------|--L----------------|--5----L------------|
--0----------------|--L----------------|--3----L------------|
--0----------------|--L----------------|--------------------|


  H        H            Q    H.              W                 
---------------------|--------------------|-------------------|
---------------------|--------------------|-------------------|
--L--------3~--------|--------------------|-------------------|
--L--------L---------|--3----L------------|--L----------------|
--L--------L---------|--3----L------------|--L----------------|
---------------------|--3----L------------|--L----------------|


  Q    H.              H        E  E  E  E   
--------------------|-----------------------|
--------------------|-----------------------|
--------------------|-----------------------|
--8----L------------|--L--------x--x--x--x--|
--8----L------------|--L--------x--x--x--x--|
--8----L------------|--L--------x--x--x--x--|


CHORUS:
Are you happy now...

  E  E  E  E  E  E  E  E   
--------------------------|
--------------------------|
--------------------------|
--7--7--7--7--7--7--7--7--|
--7--7--7--7--7--7--7--7--|
--7--7--7--7--7--7--7--7--|

  E  E  E  E  E  E  E  E      E  E  E  E  E  E  E  E   
---------------------------|--------------------------|
---------------------------|--------------------------|
---------------------------|--------------------------|
--8--8--8--8--8--8--8--8S--|--3--3--3--3--3--3--3--3--|
--8--8--8--8--8--8--8--8S--|--3--3--3--3--3--3--3--3--|
--8--8--8--8--8--8--8--8S--|--3--3--3--3--3--3--3--3--|


  E  E  E  E  E  E  E  E     E  E  E  E  E  E  E  E   
--------------------------|--------------------------|
--------------------------|--------------------------|
--------------------------|--------------------------|
--2--2--2--2--2--2--2--2--|--7--7--7--7--7--7--7--7--|
--3--3--3--3--3--3--3--3--|--7--7--7--7--7--7--7--7--|
--2--2--2--2--2--2--2--2--|--7--7--7--7--7--7--7--7--|


  E  E  E  E  E  E  E  E      E  E  E  E  E  E  E  E   
---------------------------|--------------------------|
---------------------------|--------------------------|
---------------------------|--------------------------|
--8--8--8--8--8--8--8--8S--|--3--3--3--3--3--3--3--3--|
--8--8--8--8--8--8--8--8S--|--3--3--3--3--3--3--3--3--|
--8--8--8--8--8--8--8--8S--|--3--3--3--3--3--3--3--3--|


  E  E  E  E  E  E  E  E       
--------------------------|
--------------------------|
--------------------------|
--2--2--2--2--2--2--2--2--|
--3--3--3--3--3--3--3--3--|
--2--2--2--2--2--2--2--2--|


INTER:

    Q       Q       Q       Q          Q       Q       Q       Q      
----------------------------------|----------------------------------|
----------------------------------|----------------------------------|
--(10)----(10)----(10)----(10)----|--(10)----(10)----(10)----(10)----|
---10------10------10------10-----|---10------10------10------10-----|
----8-------8-------8-------8-----|----8-------8-------8-------8-----|
----8-------8-------8-------8-----|----8-------8-------8-------8-----|


*Repeat Verse
*Repeat Pre-Chorus


CHORUS 2:


  E  E  E  E  E  E  E  E     E  E  E  E  E  E  E  E    
--------------------------|---------------------------|
--------------------------|---------------------------|
--------------------------|---------------------------|
--7--7--7--7--7--7--7--7--|--8--8--8--8--8--8--8--8S--|
--7--7--7--7--7--7--7--7--|--8--8--8--8--8--8--8--8S--|
--7--7--7--7--7--7--7--7--|--8--8--8--8--8--8--8--8S--|


  E  E  E  E  E  E  E  E     E  E  E  E  E  E  E  E   
--------------------------|--------------------------|
--------------------------|--------------------------|
--------------------------|--------------------------|
--3--3--3--3--3--3--3--3--|--2--2--2--2--2--2--2--2--|
--3--3--3--3--3--3--3--3--|--3--3--3--3--3--3--3--3--|
--3--3--3--3--3--3--3--3--|--2--2--2--2--2--2--2--2--|


  E  E  E  E  E  E  E  E     E  E  E  E  E  E  E  E    
--------------------------|---------------------------|
--------------------------|---------------------------|
--------------------------|---------------------------|
--7--7--7--7--7--7--7--7--|--8--8--8--8--8--8--8--8S--|
--7--7--7--7--7--7--7--7--|--8--8--8--8--8--8--8--8S--|
--7--7--7--7--7--7--7--7--|--8--8--8--8--8--8--8--8S--|


  E  E  E  E  E  E  E  E     E  E  E  E  E  E  E  E   
--------------------------|--------------------------|
--------------------------|--------------------------|
--------------------------|--------------x--x--x--x--|
--3--3--3--3--3--3--3--3--|--2--2--2--2--x--x--x--x--|
--3--3--3--3--3--3--3--3--|--3--3--3--3--x--x--x--x--|
--3--3--3--3--3--3--3--3--|--2--2--2--2--x--x--x--x--|


  E  E  E  E  E  E  E  E     E  E  E  E  E  E  E  E    
--------------------------|---------------------------|
--------------------------|---------------------------|
--------------------------|---------------------------|
--7--7--7--7--7--7--7--7--|--8--8--8--8--8--8--8--8S--|
--7--7--7--7--7--7--7--7--|--8--8--8--8--8--8--8--8S--|
--7--7--7--7--7--7--7--7--|--8--8--8--8--8--8--8--8S--|


  E  E  E  E  E  E  E  E     E  E  E  E  E  E  E  E   
--------------------------|--------------------------|
--------------------------|--------------------------|
--------------------------|--------------------------|
--3--3--3--3--3--3--3--3--|--2--2--2--2--2--2--2--2--|
--3--3--3--3--3--3--3--3--|--3--3--3--3--3--3--3--3--|
--3--3--3--3--3--3--3--3--|--2--2--2--2--2--2--2--2--|


  E  E  E  E  E  E  E  E     E  E  E  E  E  E  E  E    
--------------------------|---------------------------|
--------------------------|---------------------------|
--------------------------|---------------------------|
--7--7--7--7--7--7--7--7--|--8--8--8--8--8--8--8--8S--|
--7--7--7--7--7--7--7--7--|--8--8--8--8--8--8--8--8S--|
--7--7--7--7--7--7--7--7--|--8--8--8--8--8--8--8--8S--|


                                                        ^                 
  E  E  E  E  E  E  E  E     E  E  E  E  E  E  E  E     W                 
--------------------------|--------------------------|--1----------------|
--------------------------|--------------------------|--3----------------|
--------------------------|--------------------------|--2----------------|
--3--3--3--3--3--3--3--3--|--2--2--2--2--2--2--2--2--|--0----------------|
--3--3--3--3--3--3--3--3--|--3--3--3--3--3--3--3--3--|--0----------------|
--3--3--3--3--3--3--3--3--|--2--2--2--2--2--2--2--2--|--0----------------|



BUILD UP:


  E  E  E  E  E  E  E  E   
--------------------------|
--------------------------|
--------------------------|
--------------------------|
--0--0--0--0--0--0--0--0--|
--0--0--0--0--0--0--0--0--|


  E  E  E  E  E  E  E  E     E  E  E  E  E  E  E  E   
--------------------------|--------------------------|
--------------------------|--------------------------|
--------------------------|--------------------------|
--------------------------|--3--3--3--3--3--3--3--3--|
--0--0--0--0--0--0--0--0--|--1--1--1--1--1--1--1--1--|
--0--0--0--0--0--0--0--0--|--------------------------|


  E  E  E  E  E  E  E  E     E  E  E  E  E  E  E  E   
--------------------------|--------------------------|
--------------------------|--------------------------|
--------------------------|--------------------------|
--3--3--3--3--3--3--3--3--|--5--5--5--5--5--5--5--5--|
--1--1--1--1--1--1--1--1--|--3--3--3--3--3--3--3--3--|
--------------------------|--------------------------|


  E  E  E  E  E  E  E  E     E  E  E  E  E  E  E  E   
--------------------------|--------------------------|
--------------------------|--------------------------|
--------------------------|--------------------------|
--5--5--5--5--5--5--5--5--|--2--2--2--2--2--2--2--2--|
--3--3--3--3--3--3--3--3--|--0--0--0--0--0--0--0--0--|
--------------------------|--------------------------|


  E  E  E  E  E  E  E  E     E  E  E  E  E  E  E  E   
--------------------------|--------------------------|
--------------------------|--------------------------|
--------------------------|--------------------------|
--7--7--7--7--7--7--7--7--|--------------------------|
--4--4--4--4--4--4--4--4--|--0--0--0--0--0--0--0--0--|
--------------------------|--0--0--0--0--0--0--0--0--|


  E  E  E  E  E  E  E  E     E  E  E  E  E  E  E  E   
--------------------------|--------------------------|
--------------------------|--------------------------|
--------------------------|--------------------------|
--------------------------|--3--3--3--3--3--3--3--3--|
--0--0--0--0--0--0--0--0--|--1--1--1--1--1--1--1--1--|
--0--0--0--0--0--0--0--0--|--------------------------|


  E  E  E  E  E  E  E  E     E  E  E  E  E  E  E  E   
--------------------------|--------------------------|
--------------------------|--------------------------|
--------------------------|--------------------------|
--3--3--3--3--3--3--3--3--|--5--5--5--5--5--5--5--5--|
--1--1--1--1--1--1--1--1--|--3--3--3--3--3--3--3--3--|
--------------------------|--------------------------|


  E  E  E  E  E  E  E  E     E  E  E  E  E  E  E  E     E  E  E  E  E  Q.      
--------------------------|--------------------------|------------------------|
--------------------------|--------------------------|------------------------|
--------------------------|--------------------------|--6--6--6--6--6---------|
--5--5--5--5--5--5--5--5--|--2--2--2--2--2--2--2--2--|--7--7--7--7--7---------|
--3--3--3--3--3--3--3--3--|--0--0--0--0--0--0--0--0--|--4--4--4--4--4---------|
--------------------------|--------------------------|------------------------|


HEAVY BREAK:

  Q    Q    Q    Q       Q    Q    Q    Q       E  E  E  E  E  E  E  E   
----------------------|----------------------|--------------------------|
----------------------|----------------------|--------------------------|
----------------------|----------------------|--x--3--x--3--3--3--3--3--|
--0----0----0----0----|--0----0----0----0----|--x--3--x--3--3--3--3--3--|
--0----0----0----0----|--0----0----0----0----|--x--1--x--1--1--1--1--1--|
--0----0----0----0----|--0----0----0----0----|--------------------------|


  E  E  E  E  E  E  E  E     Q    Q    Q    Q       Q    Q    Q    Q     
--------------------------|----------------------|----------------------|
--------------------------|----------------------|----------------------|
--x--3--x--3--3--3--3--3--|--5----5----5----5----|--5----5----5----5----|
--x--3--x--3--3--3--3--3--|--5----5----5----5----|--5----5----5----5----|
--x--1--x--1--1--1--1--1--|--3----3----3----3----|--3----3----3----3----|
--------------------------|----------------------|----------------------|


  E  E  E  E  E  E  E  E     E  E  E  E  E  E  E  E     Q    Q    Q    Q     
--------------------------|--------------------------|----------------------|
--------------------------|--------------------------|----------------------|
--x--2--x--2--2--2--2--2--|--x--2--x--6--6--6--6--6--|----------------------|
--x--2--x--2--2--2--2--2--|--x--2--x--7--7--7--7--7--|--0----0----0----0----|
--x--0--x--0--0--0--0--0--|--x--0--x--4--4--4--4--4--|--0----0----0----0----|
--------------------------|--------------------------|--0----0----0----0----|


  Q    Q    Q    Q       E  E  E  E  E  E  E  E     E  E  E  E  E  E  E  E   
----------------------|--------------------------|--------------------------|
----------------------|--------------------------|--------------------------|
----------------------|--x--3--x--3--3--3--3--3--|--x--3--x--3--3--3--3--3--|
--0----0----0----0----|--x--3--x--3--3--3--3--3--|--x--3--x--3--3--3--3--3--|
--0----0----0----0----|--x--1--x--1--1--1--1--1--|--x--1--x--1--1--1--1--1--|
--0----0----0----0----|--------------------------|--------------------------|


  Q    Q    Q    Q       Q    Q    Q    Q       E  E  E  E  E  E  E  E   
----------------------|----------------------|--------------------------|
----------------------|----------------------|--------------------------|
--5----5----5----5----|--5----5----5----5----|--x--2--x--2--2--2--2--2--|
--5----5----5----5----|--5----5----5----5----|--x--2--x--2--2--2--2--2--|
--3----3----3----3----|--3----3----3----3----|--x--0--x--0--0--0--0--0--|
----------------------|----------------------|--------------------------|


  E  E  E  E  E  E  E  E               
--------------------------|
--------------------------|
--x--2--x--6--6--6--6--6--|
--x--2--x--7--7--7--7--7--|
--x--0--x--4--4--4--4--4--|
--------------------------|


INTER:

              PM PM PM PM PM PM PM PM PM PM PM PM PM PM PM PM  
              S  S  S  S  S  S  S  S  S  S  S  S  S  S  S  S   
-----|-----|--------------------------------------------------|
-----|-----|--------------------------------------------------|
-----|-----|--------------------------------------------------|
-----|-----|--------------------------------------------------|
-----|-----|--0--0--0--0--0--0--0--0--0--0--0--0--0--0--0--0--|
-----|-----|--0--0--0--0--0--0--0--0--0--0--0--0--0--0--0--0--|


  PM PM PM PM PM PM PM PM PM PM PM PM          
  S  S  S  S  S  S  S  S  S  S  S  S  S S S S  
----------------------------------------------|
----------------------------------------------|
----------------------------------------------|
----------------------------------------------|
--0--0--0--0--0--0--0--0--0--0--0--0--0-0-0-0-|
--0--0--0--0--0--0--0--0--0--0--0--0--0-0-0-0-|


BRIDGE:
So it seems...

  ^  ^  ^  ^  ^  ^  ^  ^ v  
  E  E  E  E  E  E  E  S S  
---------------------------|
---------------------------|
--9-----9-----9-----9------|
--7-----7-----7-----7------|
--7--7--7--7--7--7--7--7-0-|
--7--7--7--7--7--7--7--7-0-|

   ^  ^   ^  ^   ^  ^   ^  ^     ^  ^  ^  ^  ^  ^  ^  ^ v  
   E  E   E  E   E  E   E  E     E  E  E  E  E  E  E  S S  
------------------------------|---------------------------|
------------------------------|---------------------------|
--10-----10-----10-----10-----|--5-----5--5--------5------|
---8------8------8--8---8--7--|--3--3--3--3--3--3--3--3-3-|
---8--8---8--8---8--8---8--7--|--3--3--3--3--3--3--3--3-3-|
---8--8---8--8---8--8---8--7--|--3--3--3--3--3--3--3--3-3-|


  ^                                                                            
  H        E  E  E  E   
-----------------------|
-----------------------|
--5--------x--x--x--x--|
--2--------x--x--x--x--|
--3--------x--x--x--x--|
--2--------x--x--x--x--|



LAST CHORUS:
Repeat Chorus 2, but play this at the end:


  E  E  E  E  E  E  E  E                
--------------------------|
--------------------------|
--------------------------|
--2--2--2--2--2--2--2--2--|
--3--3--3--3--3--3--3--3--|
--2--2--2--2--2--2--2--2--|


OK, that's all, hope you like it!!
Wanna check how it sounds?
Check my cover on YouTube:
http://www.youtube.com/watch?v=F4kOZrcqePE


Cheers! 
Zacky Klassen


***************************************************

Duration Legend
---------------
W - whole
H - half
Q - quarter
E - 8th
S - 16th
T - 32nd
X - 64th
. - note dotted
|-n-|  - n-tuplets


Tablature Legend
----------------
L - tied note
x - dead note
g - grace note
(n) - ghost note
> - accentuded note
NH - natural harmonic
AH - artificial harmonic
TH - tapped harmonic
SH - semi harmonic
PH - pitch harmonic
h - hammer on
p - pull off
b - bend
br - bendRelease
pb - preBend
pbr - preBendRelease
brb - bendReleaseBend
\n/ - tremolo bar dip
\n - tremolo bar dive
-/n - tremolo bar Release up
/n\ - tremolo bar inverted dip
/n - tremolo bar return
-\n - tremolo bar Release down
S - shift slide
s - legato slide
/ -  slide into from below or out of upwards
\ -  slide into from above or out of downwards
~ - vibrato
W - wide vibrato
tr - trill
TP - tremolo picking
T - tapping
S - slap
P - pop
< - fade in
^ - brush up
v - brush down

***************************************************
comments
We did not receive enough feedback on this tab! Please rate:
print report bad tab
1 2 3 4 5
I want to post or [tab]
guest
You may want to rate the tab now too:
select rating
Please do not post tabs as comments. Select "correction" instead!