Oops, an error
Loading. Please wait.

Where Myth Fades To Legend Bass Tab

5,056 views 1 this week
6 commentsread comments
1 2 3 4 5
excellent!
x 9
add to favorites launch autoscroll
font size
0
reset
Autoscroll
+/-
esc
set tempo
stop
Contributor
WARNING: You are trying to view
                                    content from Ultimate-Guitar.com
                                    in an unauthorized application,
                                    which is prohibited.

                                    Please use an official Ultimate
                                    Guitar Tabs application for iPhone,
                                    iPad or Android to access legitimate
                                    chords, guitar, bass, and drum tabs
                                    from Ultimate-Guitar.com database.

                                    Type "ultimate guitar tabs" in Apple
                                    App Store's or Android Market's
                                    search to find the application.
+++++++++++++++++++++++++++++++++++++++
| Alesana- Where Myth Fades To Legend |
+++++++++++++++++++++++++++++++++++++++

Bass Tab
Album: "Where Myth Fades To Legend" -- 2008
Tabbed By: RaiLeff
E-Mail: Underground__Dora@Hotmail.Com


Yesss!! Finally
Ok, after a long time working
hard on these tabs
They're all finally here
Please rate fairly, because it costed me tabbing this album
since I had really hard tests at school and I kinda
flunked them all cause I rathered tab this out
than study :D hee hee

I totally loved this album
Alesana still has greatness in them
and their new songs rock as hard as their old ones
Enjoy and please ratee!!

..::RaiLeff::.. [!]

________________________________________________________

Tuning: EADG and Drop D (DADG)

Keys:

| x: Mute
| ~: Let Ring
| /: Slide Up
| \: Slide Down
| h: Hammer On
| p: Pull Off


Tracks:

1. This Is Usually The Part Where People Scream
2. Goodbye, Goodnight For Good
3. Seduction
4. A Most Profound Quiet
5. Red And Dying Evening
6. Better Luck Next Time, Prince Charming
7. The Uninvited Thirteenth
8. Sweetheart, You Are Sadly Mistaken
9. And They Call This Tragedy
10. All Night Dance Parties In The Underground Palace
11. Endings Without Stories
12. As You Wish
13. Obsession Is Such An Ugly Word


_________________________________________________________


1. This Is Usually The Part Where People Scream


"There's no guarantee we'll get out alive"

Tuning: Drop D (DADG)


Intro
1.
G|---------------------------------------------|
D|---------------------------------------------|
A|-------------------------5x--------5x--------|
D|---------------------------------------------|

2.
G|-----------------------------------------------------|
D|-----------------------------------------------------|
A|----------------------------------------0~-00~-00-00-|--x2
D|-0~-00~-00-00-3~-33~-33-33-5~-55~-55-55--------------|

Verse
"You'll beat me? Bring it on! Bring it on!"
3.
G|-------------------------------------------------------------------------------|
D|---------------------------------------------------------------------33-03-53~-|
A|-------------------------------------------------------------------------------|
D|-0~-000000-00000000-3~-333333-33333333-5~-555555-55555555-0~-000000------------|

"You may think you're clever but you're not..."
4.
G|------------------------------------------------------------------------|
D|------------------------------------------------------------------------|
A|------------------------------------------------------------------------|
D|-00-00-000000--00x--00x--33-33-333333--33x--33x--55-55-555555--55x--55x-|

Pre-Chorus
"There's no guarantee we'll get out alive..."
5.
G|-----------------------------------------------------------------------|
D|-----------------------------------------------------------------------|
A|-11111111-33333333-55555553-55555553-11111111-33333333-55555555-50000x-|
D|-----------------------------------------------------------------------|

Chorus
"Welcome to the show, its a story that you've heard a thousand times..."
6.
G|--------------------------------------------------------------------------|
D|--------------------------------------------------------------------------|
A|-11111111-33333333-00000000-00000000-11111111-33333333-555333-555333-5533-|
D|--------------------------------------------------------------------------|

"Welcome to the show, its a chance to save the world or lose the girl..."
7.
G|--------------------------------------------------------------------------|
D|----------------------------5/777777--------------------------------------|
A|-11111111-33333333-00000000----------11111111-33333333-555333-555333-5533-|
D|--------------------------------------------------------------------------|

Outro
"You may think you've won! But I promise you its not over!!"
8.
G|--------------------------------------------------------|
D|--------------------------------------------------------|
A|--------------------------------------------------------|--x2
D|-0000x--0000x--0000x--0-00x--0000x--0000x--0000x----00x-|

Verse
"This could be our one last chance to finally rise up..."
9.
G|--------------------------------------------------------------------------------|
D|--------------------------------------------------------------------------------|
A|-55555555-55555555-33333333-33333333-11111111-11111111-0000x-0000x-000000000000-|
D|--------------------------------------------------------------------------------|

"Stand and here we will fight..."
10.
G|----------------------------------------------------|
D|----------------------------------------------------|
A|-5-555-555-555-553-333-333-333-331-111-111-111-110x-|
D|----------------------------------------------------|

Pre-Chorus
"There's no guarantee we'll get out alive..."
11.
G|-----------------------------------------------------------------------|
D|-----------------------------------------------------------------------|
A|-11111111-33333333-55555553-55555553-11111111-33333333-55555555-50000x-|
D|-----------------------------------------------------------------------|

Chorus
"Welcome to the show, its a story that you've heard a thousand times..."
12.
G|--------------------------------------------------------------------------|
D|--------------------------------------------------------------------------|
A|-11111111-33333333-00000000-00000000-11111111-33333333-555333-555333-5533-|
D|--------------------------------------------------------------------------|

"Welcome to the show, its a chance to save the world or lose the girl..."
13.
G|--------------------------------------------------------------------------|
D|----------------------------5/777777--------------------------------------|
A|-11111111-33333333-00000000----------11111111-33333333-555333-555333-5533-|
D|--------------------------------------------------------------------------|

Bridge
"This is the part where you are supposed to scream!"
14.
G|-------------------------------------------------------|
D|-------------------------------------------------------|
A|-------------------------------------------------------|--x2
D|-0000x--0000x--0000000000x--0000x--0000x--0000000000x--|

"When you scream we'll be heroes!!"
15.
G|----------------------------------------|
D|----------------------------------------|
A|----------------------------------------|
D|-0000000~--0000000~--0000000~--0000000x-|

Chorus
"Welcome to the show, its a story that you've heard a thousand times..."
16.
G|--------------------------------------------------------------------------|
D|--------------------------------------------------------------------------|
A|-11111111-33333333-00000000-00000000-11111111-33333333-555333-555333-5533-|
D|--------------------------------------------------------------------------|

"Welcome to the show, its a chance to save the world or lose the girl..."
17.
G|--------------------------------------------------------------------------|
D|----------------------------5/777777--------------------------------------|
A|-11111111-33333333-00000000----------11111111-33333333-555333-555333-5533-|
D|--------------------------------------------------------------------------|

"Lets save the world!"
18.
G|--------------------------------------------------------------------------|
D|--------------------------------------------------------------------------|
A|-11111111-33333333-555333-555333-5533-11111111-33333333-555333-555333-5~--|
D|--------------------------------------------------------------------------|


Lyrics:



You'll beat me? Bring it on! Bring it on!
You're gonna save the day? Bring it on! Bring it on!
You ready? Bring it on! I'll show you another thing or two!
You may think your clever but you're not
You better get the coffins out!
Trust me kid that's where you're sleeping tonight!

There's no guarantee we'll get out alive
Stop your whining! Let's get busy!
Welcome to the show, its a story that you've heard a thousand times
So take a seat and get lost with me, this tale will never stop being told
Welcome to the show, its a chance to save the world or lose the girl
Let's save the world! Heroes will save the day!

You may think you've won but I promise you it's not over!
You may think you've won but I promise you it's not over!

This could be our last chance to finally rise up
So here we stand and here we will fight
None of us shall run from anyone
Storms are gathering

There's no guarantee we'll get out of alive
Stop your whining! Let's get busy!
We have to rise above and fight
We'll be heroes!

This is the part where you are supposed to scream!
When you scream we'll be heroes

_______________________________________________________________


2. Goodbye, Goodnight For Good


"Choke on the lies that were your last goodbye..."

Tuning: EADG


Intro
1.
G|--------------------------------------------------------|
D|--------------------------------------------------------|
A|-2~---------------------2~------------------------------|
E|----------xx-3-3~----------------xx-3-3~-------0~-------|

"Help me..."
2.
G|--------------------------------------------------------------------------------|
D|-----------------------------4-222-2-0~-------------------------------0222-2444-|
A|-22222x-22222x-22222x-22222x----------------------------------------------------|
E|-------------------------------------------33333x-33333x-33333x-33333x----------|

3.
G|------------------------------------------------------------------------------------|
D|-----------------------------4-222-2-0~---------------------------------------------|
A|-22222x-22222x-22222x-22222x--------------------------------------------------------|
E|-------------------------------------------33333x-33333x-33333x-33333x-33333333~----|

Verse
"Jealousy rears its ugly head..."
4.
G|--------------------------------------------------------------------------|
D|--------------------------------------------------------------------------|
A|-------------------00000000-00000000-22222222-22222222-22222222-2222------|
E|---------------------------------------------------------------------2222-|

"Goodbye, goodnight for good..."
5.
G|-------------------------------------------------------------------------|
D|-------------------------------------------------------------------------|
A|-------------------00000000-00000000-------------------------------------|
E|-33333333-33333333-------------------22222222-22222222-33333333-33333333-|

Pre-Chorus
"Say goodnight..."
6.
G|--------------------|
D|--------------------|
A|-------------xxxxxx-|
E|-22-2-2-22x---------|

Chorus
"Now Ill fight with my eyes closed..."
7.
G|----------------------------------------------------------------------------------|
D|----------------------------------------------------------------------------------|
A|-5-55555x----------------22-22--22-22--22-22--22-22--00-00--00-00--000000-000000--|
E|-------------2-22222x-------------------------------------------------------------|

"Hear my voice as you sleep..."
8.
G|----------------------------------------------------------------------------------|
D|----------------------------------------------------------------------------------|
A|-5~-5~-5~-5~-------------22-22--22-22--22-22--22-22--00-00--00-00--000000-000000--|
E|-------------2~-2~-2~-2x----------------------------------------------------------|

Verse
"Goodbye helps me to sleep without your memories..."
9.
G|---------------------------------------------------------|
D|---------------------------------------------------------|
A|---------------0~------------2~--------------------------|--x2
E|-3~----------------------------------------2~------------|

"It haunts me no more..."
10.
G|---------------------------------------------------------|
D|---------------------------------------------------------|
A|---------------000000-000000-222222-222222---------------|--x2
E|-333333-333333-----------------------------222222-222222-|

"I wasnt wrong to feel this way inside..."
11.
G|----------------------------------------------------------|
D|----------------------------------------------------------|
A|---------------0-0000-0~-----2-2222-2~--------------------|
E|-3-3333-3~---------------------------------2-2222-2~------|

"So goodbye, goodnight for good..."
12.
G|--------------------------------------------------|
D|--------------------------------------------------|
A|---------------0-0000-0~--------------------------|
E|-3-3333-3~-------------------22-22-22-22-33-33-3x-|

Chorus
"Now Ill fight with my eyes closed..."
13.
G|---------------------------------------------------------------------------------|
D|---------------------------------------------------------------------------------|
A|-5-55555x----------------22-22--22-22--22-22--22-22--00-00--00-00--000000-00000--|
E|-------------2-22222x------------------------------------------------------------|

"Hear my voice as you sleep..."
14.
G|---------------------------------------------------------------------------------|
D|---------------------------------------------------------------------------------|
A|-5~-5~-5~-5~-------------22-22--22-22--22-22--22-22--00-00--00-00--00-00--00-00--|
E|-------------2~-2~-2~-2x---------------------------------------------------------|

Outro
"I find pleasure in the taste of your decay..."
15.
G|--------------------------------------------------------------------------------|
D|--------------------------------------------------------------------------------|
A|-22222222-22222222-22222222-22--22~----22222222-22222222-xx-2-xx-2-xx-2-xx-2-2~-|
E|--------------------------------------------------------------------------------|

Bridge
16.
G|------------------------------------------------------------6--4-|
D|------------------------------------------0--0-4---------4----2--|
A|------------------00-00-00-00-0-00-22-22-2--2---2-22-22-2--2-----|
E|-33-33-33-33-3-33------------------------------------------------|

17.
G|------------------------------------------------------------64-4-2----|
D|----------------------------------------4-------4--------4----4---42~-|
A|------------------00-00-00-00-0-00-22-2--2--2-2---2-22-2--2-----------|
E|-33-33-33-33-3-33-----------------------------------------------------|

18.
G|----------------------------------------------------------------64-4-642~-|
D|------------------------------------------------------------------4-------|
A|-------------------00000000-00000000-22222222-22222222-22222222-----------|
E|-33333333-33333333--------------------------------------------------------|

19.
G|----------------------------------------------------------------------|
D|----------------------------------------------------------------------|
A|------------------00-00-00-00-0-00-2~---------------------------------|
E|-33-33-33-33-3-33-----------------------------------------------------|

Outro
"Jealousy rears its ugly head..."
20.
G|-------------------------------------------------------------------------|
D|-------------------------------------------------------------------------|
A|-------------------00000000-00000000-22222222-22222222-22222222-22222222-|
E|-33333333-33333333-------------------------------------------------------|

Play that for like a thousand times

21.
G|-------------------------------|
D|-------------------------------|
A|-------------------22--00--22x-|
E|-3~----------------------------|

Lyrics:

Help me to sleep...

Jealousy rears its ugly head
I won't forget the things you said before you turned your back
Goodbye, goodnight, for good...remember my face when you feel the pain
Say goodbye...

Now I'll fight with my eyes closed for the things I've let go
Sweet breath escapes...choke on the lies that were your last goodbye
Hear my voice as you sleep...
Sleep tight, goodnight...choke on the lies that were your last goodbye

Goodbye helps me to sleep without your memories
And my shattered dreams collect dust on what used to be a lie
It haunts me no more and now you're gone, you've left me alone
I wasn't wrong to feel this way inside so goodbye, goodnight, for good

I find pleasure in the taste of your decay
I anxiously watch you fade away


__________________________________________________________


3. Seduction


"One day you'll wake up and realize your mistake..."

Tuning: Drop D (DADG)


Verse
"You're killing me..."
1.
G|--------------------------|
D|--------------------------|
A|--------------------------|
D|---------------------0/12-|

"I would wait for years just to feel you again..."
2.
G|-------------------------------------------------------------------------------------|
D|-------------------------------------------------------------------------------------|
A|-00000x-00x-00x-0000x-22222x-22x-22x-2222x-44444x-44x-44x-4444x-44444x-42x-22x-2222x-|
D|-------------------------------------------------------------------------------------|

"Beautiful eyes, beautiful lies pour from your mouth as..."
3.
G|-------------------------------------------------------------------------66666666-|
D|----------------2h4-2h4----------------2------------------------------------------|
A|-00000x-00x-00x---------22222x-22x-22x---2-44444x-44x-44x-4444x-44444444----------|
D|----------------------------------------------------------------------------------|

Pre-Chorus
"Cries escape your sweet voice as I kiss you one last time..."
4.
G|-----------------------------------------|
D|-----------------------------------------|
A|-----------0x------------------0~--------|
D|-4x------------------4x------------------|

Chorus
"Do you remember me? And our beautiful affair?
5.
G|--------------------------------------------------------------------------|
D|--------------------------------------------------------------------------|
A|-44444444-44444444-44444444-4444-222-0-0000000-00000000-00000000-0000-222-|
D|--------------------------------------------------------------------------|

"Why did you turn your back on me?"
6.
G|----------------------------------------------------------------------|
D|----------------------------------------------------------------------|
A|---------------------------------0-0000000-00000000-22222222-22222222-|
D|-6~x----66~x----66~x----66~x----6-------------------------------------|

Verse
"Ice runs trough my veins as I stand face to face..."
7.
G|---------------------------------------------------------------4---2-|
D|-------------------------------------------------------------4---2---|
A|-------------------------------------00x-00x-00x-00x-00x-00x---------|
D|-16\-66x-66x-66x-66x-66x-66x-44x-66x---------------------------------|

"Compassion is not an option..."
8.
G|--------------------------------------------------------------222-|
D|------------------------------------------------------------------|
A|---------------------------------00x-00x-00x-00x-00000000-0000----|
D|-66x-66x-44x-44x-66x-66x-44x-66x----------------------------------|

Pre-Chorus
"Cries escape your sweet voice as I kiss you one last time..."
9.
G|-----------------------------------------|
D|-----------------------------------------|
A|-----------0x------------------0~--------|
D|-4x------------------4x------------------|

Chorus
"Do you remember me? And our beautiful affair?
10.
G|--------------------------------------------------------------------------|
D|--------------------------------------------------------------------------|
A|-44444444-44444444-44444444-4444-222-0-0000000-00000000-00000000-0000-222-|
D|--------------------------------------------------------------------------|

"Why did you turn your back on me?"
11.
G|----------------------------------------------------------------------|
D|----------------------------------------------------------------------|
A|---------------------------------0-0000000-00000000-22222222-22222222-|
D|-6~x----66~x----66~x----66~x----6-------------------------------------|

Outro
"In love we're one! Inseparable, pathetic lust..."
12.
G|---------------------------------------------------------|
D|---------------------------------------------------------|
A|---------------444x--444x------------------000x--000x----|
D|-----------------------------444x--444x------------------|

"I saw your eyes! I wiped your tears..."
13.
G|-----------------------------------------------------------------------------|
D|---------------4h6p4~---------------4/7~----------------------------66666666-|
A|-44444444-4444--------44444444-4444------------------------------------------|
D|-----------------------------------------44444444-44444444-66666666----------|

Bridge
14.
G|-------------------------------------------------------------------------|
D|-------------------------------------------------------------------------|
A|-00000000-00000000-22222222-22222222-44444444-44444444-44444444-22222222-|--x2
D|-------------------------------------------------------------------------|

"Who do you see with your eyes shut tight?"
15.
G|--------------------------------------------------------------------------|
D|--------------2h4p2---------------2---------------------------------------|
A|-00000000-0000------22222222-2222---2-44444444-44444444-44444444-22222222-|
D|--------------------------------------------------------------------------|

"Regret will be your bride..."
16.
G|---------------------------------------------------------------------|
D|--------------2h4p2---------------2----------------------------------|
A|-00000000-0000------22222222-2222---2-44x-44x-44x-44x-44x-4\0--------|
D|---------------------------------------------------------------------|

Chorus
"Do you remember me? And our beautiful affair?
17.
G|--------------------------------------------------------------------------|
D|--------------------------------------------------------------------------|
A|-44444444-44444444-44444444-4444-222-0-0000000-00000000-00000000-0000-222-|
D|--------------------------------------------------------------------------|

"Why did you turn your back on me?"
18.
G|----------------------------------------------------------------------|
D|----------------------------------------------------------------------|
A|---------------------------------0-0000000-00000000-22222222-22222222-|
D|-6~x----66~x----66~x----66~x----6-------------------------------------|

Outro
"Cries escape your sweet voice as I paint my own goodbye..."
19.
G|-------------------------------------------------|
D|-------------------------------------------------|
A|-----------0x------------------0~----------------|
D|-4x------------------4x--------------------------|

Here's where the acoustic part begins
Bass comes in at   4:10


20.
G|--------------------------------------7~/9-6~--------------------------------------7~/9-6~--|
D|--------------------------------------------------------------------------------------------|
A|---------0-----0-----------------0---------------------0-----0-----------------0------------|
D|-0~--2-3---2-3---3-2~----0~--2-3---3-----------0~--2-3---2-3---3-2~----0~--2-3---3----------|

21.
G|-------------------------------------7---------------|
D|-----------------------------------7---5-0-3~--3h5p3-|
A|-1~-1~-3~-3~-5~-5~-1~----1~---3~---------------------|--x2
D|-----------------------------------------------------|

22.
G|-------------------------------|
D|-------------------------------|
A|-1~---3~-----\0~---------------|
D|-------------------------------|



Lyrics:


Sunlight warms my face only in dreams of you
I know you'll wait for me...it's been too long
Beautiful eyes. beautiful lies to dull the pain
Beautiful eyes, beautiful lies...you're killing me
I would wait for years just to feel you again
I will die without you...would you my love?
Beautiful eyes, beautiful lies pour from your mouth as
You scream his name...you're killing me

Cries escape your sweet voice as I kiss you one last time
...One last time...
Do you remember me and our beautiful affair?
Look in my eyes and honestly tell me our love is gone!
Why have you turned your back on me?
One day you'll wake up and realize your mistake

Ice runs through my veins as I stand face to face with
The one who stole it all
Compassion is not an option

In love we're one, inseparable, pathetic lust, thus we crumble
I saw your eyes, I wiped your tears, I waited for you...

Who do you see with your eyes shut tight?
Regret will be your bride
Goodbye...

Cries escape your sweet voice as I paint my own goodbye

_________________________________________________________________


4. A Most Profound Quiet


"How could you fall for my charming charade..."

Tuning: Drop D (DADG)


Intro
1.
G|-------------------------------------------------------------------------|
D|-------------------------------------------------------------------------|
A|-00000000-00000000-------------------------------------------------------|
D|-------------------55555555-5555x----33333333-33333333-55555555-55555555-|

2.
G|-------------------------------------------------------------------------|
D|-------------------------------------------------------------------------|
A|-00000000-00000000-------------------------------------------------------|
D|-------------------55555555-55555555-33333333-33333333-55555555-55555555-|

Verse
"We should go ahead and kill her right now..." 
3.
G|---------------------------------------------------------------------------------|
D|------------------------------------------------------------------------22222222-|
A|-0x-0x-00x-------------0x-0x-00x-------------------------------------------------|
D|-----------0~-2~-3~-5~-----------0~-2~-3~-5~-33333333-33333333-22222222----------|

"I cant wait! Just imagine how she will suffer!..."
4.
G|---------------------------------------------------------------------------------|
D|---------------------------------------------------------------22222222-22222222-|
A|-0x-0x-00x-------------0x-0x-00x-------------------------------------------------|
D|-----------0~-2~-3~-5~-----------0~-2~-3~-5~-33333333-33333333-------------------|

Pre-Chorus
"How could you fall for my charming charade?..."
5.
G|-------------------------------------|
D|-------------------77777777-7~\------|
A|-00000000-00000000-------------------|
D|-------------------------------------|

Chorus
"Days fade away but guilt still burns inside of me..."
6.
G|-------------------------------------------------------------------------|
D|-------------------------------------------------------------------------|
A|-------------------00000000-00000000-11111111-11111111-33333333-33333333-|
D|-00000000-00000000-------------------------------------------------------|

"Why cant I realize just how the pieces seem to fit..."
7.
G|-------------------------------------------------------------------------|
D|-00000000-00000000-------------------------------------------------------|
A|-------------------00000000-00000000-11111111-11111111-33333333-3333-5\0-|
D|-------------------------------------------------------------------------|

Outro
"Does she know before I met her..."
8.
G|-------------------------------------------|
D|-------------------------------------------|
A|-----0x-0~-----------------0x-0~-----------|--x2
D|-035--------035-2x-2~--035--------55558888-|

Verse
"Can you see the visions of pain?..."
9.
G|----------------------------------------------------------|
D|----------------------------------------------------------|
A|---------------------113x-00-111111-111111-333333-1-0-0-0-|
D|-00x----000-0000x-----------------------------------------|

"Her to me! Im tired of washing my hands clean..."
10.
G|---------------------------------------------------------|
D|---------------------------------------------------------|
A|---------------------113x-00-111111-111111-333333-333333-|
D|-00x----000-0000x----------------------------------------|

Pre-Chorus
"'Tis to a murderer's den you have come..."
11.
G|-------------------------------------|
D|-------------------77777777-7~\------|
A|-00000000-00000000-------------------|
D|-------------------------------------|

Chorus
"Days fade away but guilt still burns inside of me..."
12.
G|-----------------------------------------------------------------5555555-|
D|-------------------------------------------------------------------------|
A|-------------------00000000-00000000-11111111-11111111-33333333-3--------|
D|-00000000-00000000-------------------------------------------------------|

"Why cant I realize just how the pieces seem to fit..."
13.
G|-------------------------------------------------------------------------|
D|-00000000-00000000-------------------------------------------------------|
A|-------------------00000000-00000000-11111111-11111111-33333333-33333333-|
D|-------------------------------------------------------------------------|

Bridge
14.
G|----------------------------------------------------------------------------------|
D|----------------------------------------------------------------------------------|
A|------------------3~---------333333--0~----------------3~-------3333333x-3333333x-|
D|-2~-------------------------------------------------------------------------------|

"What have we done?..."
15.
G|-------------------------------------------------------------------------|
D|-------------------------------------------------------------11-11111111-|
A|-------------------------------------33333333-33333333-222222------------|--x2
D|-2222222x-2222222x-2222222x-22222222-------------------------------------|

Pre-Chorus
"She's all mine!..."
16.
G|----------------|
D|----------------|
A|----------------|
D|-0~-0-0-0-0000x-|

Chorus
"Days fade away but guilt still burns inside of me..."
17.
G|-------------------------------------------------------------------------|
D|-------------------------------------------------------------------------|
A|-------------------00000000-00000000-11111111-11111111-33333333-33333333-|
D|-00000000-00000000-------------------------------------------------------|

"Why cant I realize just how the pieces seem to fit..."
18.
G|-------------------------------------------------------------------------|
D|-00000000-00000000-------------------------------------------------------|
A|-------------------00000000-00000000-11111111-11111111-33333333-3333-5\0-|
D|-------------------------------------------------------------------------|

Outro
"Does she know before I met her..."
19.
G|-------------------------------------------|
D|-------------------------------------------|
A|-----0x-0~-----------------0x-0~-----------|
D|-035--------035-2x-2~--035--------55558888-|

"Only dreamt of so much blood?..."
20.
G|-----------------------------------------|
D|-----------------------------------------|
A|-----0x-0~-----------------0x-0~---------|
D|-035--------035-2x-2~--035--------55558x-|


Lyrics:


We should go ahead and kill her right now
But her eyes are so lovely
I can't wait! Just imagine how she will suffer!
Would someone please tell me I'm not alright
How could you fall for my charming charade?

Days fade away but guilt still burns inside of me
I feel as if I am responsible
Why can't I realize just how the pieces seem to fit?
I feel as if I am responsible

Does she know before I met her I have only dreamt of so much blood?
So why is she tempting me?

Can you see the visions of pain?
How could I? Is that possible?
You must give her to me!
I'm tired of washing my hands clean of what I've done
'Tis to a murderer's den you have come

Its time we throw away the mask
What have we done?
We got too attached!
We can't let her escape!
We let her escape!
This is the last time we ever have to speak again!
She is no longer yours!
We can't let her escape!
She's all mine!

__________________________________________________________


5. Red And Dying Evening


"A lovely evening draped in regret..."

Tuning: Drop D (DADG)



Intro
"You've taken the last!!"
1.
G|-----------------|
D|-----------------|
A|-11111~--33333~--|
D|-----------------|

2.
G|--------------------------------------------|
D|--------------------------------------------|
A|----------------------------11111~--33333~--|--x4
D|-00000000-22222222-33333333-----------------|

3.
G|------|
D|------|
A|------|
D|-12\0-|

Verse
"The Gods of your innocence..."
4.
G|---------------------------|
D|---------------------------|
A|---------------------------|--x4
D|-5-78-578-10-8-0x-0x-0x-0x-|

Pre-Chorus
"You've taken the last of me!!!"
5.
G|----------------------------------------------------------------|
D|----------------------------------------------------------------|
A|-11x------------------------33333333-33333333-33333333-33333333-|
D|----------------------------------------------------------------|

"You deserve each tear that falls!!"
6.
G|----------------------------------------------------------------|
D|----------------------------------------------------------------|
A|-11x------------------------33333333-33333333-33333333-33333x---|
D|----------------------------------------------------------------|

Chorus
"And the blood will drown you in red and I..."
7.
G|--------------------------------------------------------------------------|
D|--------------------------------------------------------------------------|
A|-55555555-55555555-55555555-55550000-11111111-11111111-11111111-1111-xxxx-|
D|--------------------------------------------------------------------------|

"A lovely evening draped in regret..."
8.
G|--------------------------------------------------|
D|--------------------------------------------------|
A|-33333333-33333333-33333333-33333333-0~---0~---xx-|
D|--------------------------------------------------|

Outro
"Draped in regret!!!!"
9.
G|---------------------|
D|---------------------|
A|-00x--00x--00x--00x--|-- Each time slower
D|---------------------|

Verse
"The shadow of justice..."
10.
G|---------------------------|
D|---------------------------|
A|---------------------------|--x4
D|-5-78-578-10-8-0x-0x-0x-0x-|

Pre-Chorus
"You've taken the last of me!!!"
11.
G|----------------------------------------------------------------|
D|----------------------------------------------------------------|
A|-11x------------------------33333333-33333333-33333333-33333333-|
D|----------------------------------------------------------------|

"You deserve each tear that falls!!"
12.
G|----------------------------------------------------------------|
D|----------------------------------------------------------------|
A|-11x------------------------33333333-33333333-33333333-33333x---|
D|----------------------------------------------------------------|

Chorus
"And the blood will drown you in red and I..."
13.
G|--------------------------------------------------------------------------|
D|--------------------------------------------------------------------------|
A|-55555555-55555555-55555555-55550000-11111111-11111111-11111111-1111-xxxx-|
D|--------------------------------------------------------------------------|

"A lovely evening draped in regret..."
14.
G|-----------------------------------------------|
D|-----------------------------------------------|
A|-33333333-33333333-33333333-33333333-0~---0~---|
D|-----------------------------------------------|

"Forever now..."
15.
G|------------|
D|------------|
A|-00x--------|
D|------------|

"The taste of your death replaced..."
16.
G|--------------------------------------------------------------------------|
D|--------------------------------------------------------------------------|
A|-55555555-55555555-55555555-55550000-11111111-11111111-11111111-1111-xxxx-|
D|--------------------------------------------------------------------------|

"A lovely evening draped in regret..."
17.
G|-----------------------------------------------|
D|-----------------------------------------------|
A|-33333333-33333333-33333333-33333333-0~---0~---|
D|-----------------------------------------------|

Outro
"Suffocate your will to..."
18.
G|------------------------------------|
D|------------------------------------|
A|------------------------------------|
D|-10~-7~-9~-5~-9~--2~----------------|

"Live with my pain..."
19.
G|----------------------------|
D|----------------------------|
A|----------------------------|
D|-2~--------10~-7~-9x--------|

Bridge
"You were so easily seduced by greed..."
20.
G|-------------------------------------------------------------------------|
D|-------------------------------------------------------------------------|
A|-------------------22222222-22222222-33333333-33333333-00000000-00000000-|
D|-22222222-22222222-------------------------------------------------------|

"You could never feel my calloused hands..."
21.
G|-------------------------------------------------------------------------|
D|-------------------------------------------------------------------------|
A|-------------------22x----22x--------33x----33x--------00x----00x--------|
D|-22x----22x--------------------------------------------------------------|

"Throat..."
22.
G|--------------------------------------------|
D|--------------------------------------------|
A|--------------------------------------------|-- Each time slower
D|-22x--22x--22x--22x--22x--22x--22x----xxxxx-|

Verse
"Wake into the nightmare..."
23.
G|----------------------------------|
D|----------------------------------|
A|----------------------------------|--x4
D|-5-7-8-5-7-8-10-8-0~--0~--0~--0~--|

"You've taken the last of me!!"
24.
G|-----------------|
D|-----------------|
A|-----------------|
D|-5-7-8-5-7-8-10\-|


Lyrics:


You've taken the last...of me

The guise of your innocence shall not protect you from the wake of my wrath
You've taken the last of me, blame the end on yourself
You deserve each tear that falls
Scratch out your eyes 

And the blood will drown you in red
And I will leave you for dead
A lovely evening draped in regret

The shadow of justice now engulfs you as cold hands reap the pain they've sewn
You've taken the last of me, blame the end on yourself
You deserve each tear that falls
Scratch out your eyes 

And the blood will drown you in red
And I will leave you for dead
A lovely evening draped in regret...forever gone...
The taste of your death replaced the smell of your breath
A lovely evening draped in regret

Suffocate your will to...live with my pain
You were so easily seduced by greed
You could never feel my calloused hands closing around your throat

Wake into the nightmare that has become our love, may
Your screams never cease
You've taken the last of me

(Not all knights in shining armor can make your dreams come true)

_________________________________________________________________


6. Better Luck Next Time, Prince Charming


"Come and claim your queen!!"

Tuning: Drop D


Intro
1.
G|-----------------------------------------------|
D|-----------------------------------------------|
A|-----------------------------------------------|--x2
D|-55x-------55x-------1~--------33x----33x--11x-|

Verse
"Shadows dance around me as..."
2.
G|-----------------------------------------------------------------------------------------|
D|-----------------------------------------------------------------------------------------|
A|-----------------------------------------------------------------------------------------|
D|-5-555--555-5-555--555-5-555--555-5-555--555-3-333--333-3-333--333-3-333--333-3-333--333-|

"So close and yet so far away..."
3.
G|-----------------------------------------------------------------|
D|-----------------------------------------------------------------|
A|-----------------------------------------------------------------|
D|-1111x---1111x---1111x---1111x---0000x---0000x---1111x---1111x---|

Pre-Chorus
"A simple kiss to bring her back..."
4.
G|-------------------------------------0~----2~----3~--------0~----2~----3x--------|
D|-------------------00000000-00000000---------------------------------------------|
A|-11111111-11111111---------------------------------------------------------------|
D|---------------------------------------------------------------------------------|

Chorus
"Not all knights in shining armor can make your dreams come true..."
5.
G|-------------------------------------------------------------------------|
D|-------------------------------------00000000-00000000-00000000-33333333-|
A|-11111111-11111111-33333333-33333333-------------------------------------|
D|-------------------------------------------------------------------------|

"He's not quite as charming as he may seem..."
6.
G|-------------------------------------------------------------------------|
D|-------------------------------------00000000-00000000-00000000----------|
A|-11111111-11111111-33333333-33333333----------------------------33333333-|
D|-------------------------------------------------------------------------|

Outro
"Come and claim your queen!"
7.
G|-------------------------------------------|
D|-------------------------------------------|
A|-------------------------------------------|--x4
D|-1~-1x--xxx--1~-1x--xxx--5~-5x--xxx--5~-3~-|

Chorus
"Not all knights in shining armor can make your dreams come true..."
8.
G|-------------------------------------------------------------------------|
D|-------------------------------------00000000-00000000-00000000-33333333-|
A|-11111111-11111111-33333333-33333333-------------------------------------|
D|-------------------------------------------------------------------------|

"He's not quite as charming as he may seem..."
9.
G|-------------------------------------------------------------------------|
D|-------------------------------------00000000-00000000-00000000----------|
A|-11111111-11111111-33333333-33333333----------------------------33333333-|
D|-------------------------------------------------------------------------|

Outro
"Come and claim your queen!"
10.
G|--------------------|
D|--------------------|
A|-1x----1x----3x--0x-|
D|--------------------|

Bridge
"You're pathetic..."
11.
G|--------------------------------|
D|--------------------------------|
A|--------------------------------|
D|-\00000000-00000000-00000000-0x-|

"She had faith in me, I was her only escape..."
12.
G|--------------------------------------------------------------------------------|
D|--------------------------------------------------------------------------------|
A|-11111111-11111111-33333333-33333333--------------------------------------33-00-|
D|-------------------------------------00x-00x-00x-00x-0000-00x-00x-00x-00x-------|

Pre-Chorus
"A simple kiss to bring her back..."
13.
G|-------------------------------------0~----2~----3~--------0~----2~----3x--------|
D|-------------------00000000-00000000---------------------------------------------|
A|-11111111-11111111---------------------------------------------------------------|
D|---------------------------------------------------------------------------------|

Chorus
"Not all knights in shining armor can make your dreams come true..."
14.
G|-------------------------------------------------------------------------|
D|-------------------------------------00000000-00000000-00000000-33333333-|
A|-11111111-11111111-33333333-33333333-------------------------------------|
D|-------------------------------------------------------------------------|

"He's not quite as charming as he may seem..."
15.
G|-------------------------------------------------------------------------|
D|-------------------------------------00000000-00000000-00000000----------|
A|-11111111-11111111-33333333-33333333----------------------------33333333-|
D|-------------------------------------------------------------------------|

17.
G|-------------------------------------------------------------------------|
D|-------------------------------------00000000-00000000-00000000-33333333-|
A|-11111111-11111111-33333333-33333333-------------------------------------|
D|-------------------------------------------------------------------------|

18.
G|-------------------------------------------------------------------------|
D|-------------------------------------00000000-00000000-00000000----------|
A|-11111111-11111111-33333333-33333333----------------------------33333333-|
D|-------------------------------------------------------------------------|

Outro
"Come and claim your queen!"
19.
G|-------------------|
D|-------------------|
A|-1x----1x----3x----|
D|-------------------|


Lyrics:



Shadows dance around me as I race alone
I will never rest until she's in my arms
So close and yet so far away...
A simple kiss to bring her back, to make this story end

Not all knights in shining armor can make your dreams come true
He's not quite as charming as he may seem
Come and claim your queen!

The wild beasts are ravenous, they will soon devour you
Dark howls echo bitter cries but they fall upon deaf ears

You're pathetic! What good do you do?!?
She had faith in me, I was her only escape
A most deep and subtle poison welcomes her unblinking eyes to eternal sleep
If I had shown, she would be mine
Who is the fairest of all? Tell me again! Tell me again! You know its me!

______________________________________________________________________


7. The Uninvited Thirteenth


"My sweet princess finally awake!!!"

Tuning: Drop D (DADG)


Intro
"Sleep, I'll pretend that you died..."
1.
G|----------------------------------------------|
D|----------------------------------------------|
A|----------------------------------------------|--x2
D|-0~---0~---0~---000~----0~---0~---0~---000~---|

Verse
"There must be something everyone has missed..."
2.
G|------------------------------------------------------------------------------------|
D|------------------------------------------------------------------------------------|
A|-22x--22x--22x--22x--xxx-----------------5/7x-7x-7x-7x-7x-7x-7x-7x------------------|
D|--------------------------5x--5x--5x--5x----------------------------4x--4x--4x--1/4-|

"Im starting to wonder will this haunt me?"
3.
G|-----------------------------------------------------------------------------------|
D|-----------------------------------------------------------------------------------|
A|-22x--22x--22x--22x--xxx-----------------5/7x-7x-7x-7x-7x-7x-7x-7x-----------------|
D|--------------------------5x--5x--5x--5x----------------------------4x--4x--4x--4x-|

Pre-Chorus
"A lovely day to be tortured by dreams..."
4.
G|-------------------------------------------------------------------------|
D|-------------------------------------------------------------------------|
A|-2~----------------------------------------------------------------------|
D|-------------------5~----------------2~----------------4~----------------|

Chorus
"Now as she wakes, I'll finally look in her eyes..."
5.
G|---------------------------------------------------------------|
D|---------------------------------------------------------------|
A|-22-22-22-22-2222-------------00-00-00-00-0000-----------------|--x2
D|------------------5~----5~---------------------4~----5p4~--0~--|

Outro
"Her sweet lips oh so fair..."
6.
G|------------------------------------|
D|------------------------------------|
A|-2-xxxxxx-2-xxxxxx-2-xxxxxxx-----00-|--x2
D|-----------------------------555----|

Verse
"Time's catching up with me..."
7.
G|-------------------------------------------------------------------------|
D|-------------------------------------------------------------------------|
A|-22222222-22222222-------------------------------------------------------|
D|-------------------55555555-55555555-22222222-22222222-44444444-44444444-|

"Nothing can stop me now but myself..."
8.
G|-------------------------------------------------------------------------|
D|-------------------------------------------------------------------------|
A|-22222222-22222222-------------------------------------------------------|
D|-------------------55555555-55555555-22222222-22222222-44444444-4x-------|

Pre-Chorus
"Save me, help me! Someone!"
9.
G|-------------------------------------------------------------------------|
D|-------------------------------------------------------------------------|
A|-------------------------------------------------------------------------|
D|-00000000-00000000-22222222-22222222-33333333-33333333-55555555-55555555-|

"My eyes, will I ever see light of day again??"
10.
G|-------------------------------------------------------------------------|
D|-------------------------------------------------------------------------|
A|-------------------------------------------------------------------------|
D|-00000000-00000000-22222222-22222222-33333333-33333333-55555555-5x-------|

Chorus
"Now as she wakes, I'll finally look in her eyes..."
11.
G|---------------------------------------------------------------|
D|---------------------------------------------------------------|
A|-22-22-22-22-2222-------------00-00-00-00-0000-----------------|--x2
D|------------------5~----5~---------------------4~----5p4~--0~--|

Outro
12.
G|--------------------------------------------|
D|--------------------------------------------|
A|-2~-----------------5-----------7-0~--------|
D|-----------4~---------5~--------------------|

Bridge
"You'll never get away!!!"
13.
G|-------------------------------------------------------------------------|
D|-------------------------------------------------------------------------|
A|-22222222-22222222-------------------------------------00000000-00000000-|--x2
D|-------------------44444444-44444444-55555555-55555555-------------------|

Pre-Chorus
"A lovely day to be tortured by dreams..."
14.
G|-------------------------------------------------------------------------|
D|-------------------------------------------------------------------------|
A|-2~----------------------------------------------------------------------|
D|-------------------5~----------------2~----------------4~----------------|

Chorus
"Now as she wakes, I'll finally look in her eyes..."
15.
G|---------------------------------------------------------------------------|
D|---------------------------------------------------------------------------|
A|-22222222-22222222-------------------00000000-00000000---------------------|--x2
D|-------------------55555555-55555555-------------------444-5444-5444-54400-|

Outro
"My sweet princess finally awake!"
16.
G|------------------------------------|
D|------------------------------------|
A|-2-xxxxxx-2-xxxxxx-2-xxxxxxx-----00-|
D|-----------------------------555----|

17.
G|----|
D|----|
A|-2x-|
D|----|


Lyrics:



You should have known better than to insult me
That won't happen again...
Sleep, I'll pretend that you died
And as you rest may your youth be stripped away from you
Sleep my precious, the darling Rosamond
May nightmares lay with you...revenge is mine!

There must be something everyone has missed
The end is drawing near, its everything I feared
I'm starting to wonder will this haunt me?
In spite of doubt I have to break the spell

A lovely day to be tortured by dreams of you

Now as she wakes I'll finally look in her eyes...my brilliant prize
Please know you'll never again be alone for I'm with you

Her sweet lips, oh so fair, to awake is now everything I crave

Time's catching up with me
I've come this far, there's no turning back
My sword is drawn, the only choice I have is to fight
Nothing can stop me now but myself

I will break the spell
Save me! Help me! Someone!
Anyone, please, can you hear me?!?
My eyes! Will I ever see light of day again? Never...

You'll never get away! You'll never get away!
You'll wish you both had died! He will not break the spell!
A lovely day to be tortured by dreams of you
My princess, into the thorns I shall dive

My sweet princess finally awake!

_____________________________________________________


8. Sweetheart, You Are Sadly Mistaken


"The Wicked Witch Is Dead!!!"

Tuning: Drop D (DADG)


Intro
1.
G|------------------------------------------------------------------------|
D|------------------------------------------------------------------------|
A|------------------------------------------------------------------------|
D|-0~--------------0~----------------0~----------------0~-----------------|

Verse
"Mark my words this night is far from its end... Please..."
2.
G|----------------------------------------------------------|
D|----------------------------------------------------------|
A|----------------------------------------------------------|
D|------------------------------------------------0~--------|

"Spare me your threats and your useless remarks..."
3.
G|-------------------------------------------------------------------------|
D|-------------------------------------------------------------------------|
A|-55555555-55555555-55555555-55555555-33333333-33333333-33333333-33333333-|
D|-------------------------------------------------------------------------|

"I cant let fear get the best of me right now..."
4.
G|-----------------------------------------------------------------------------|
D|-----------------------------------------------------------5/777777-5/777777-|
A|-111x-111x-111x-111x-111x-111x-111x-111x-00000000-00000000-------------------|
D|-----------------------------------------------------------------------------|

Pre-Chorus
"Close your eyes, and let your mind escape into a world of dreams..."
5.
G|-----------------------------------------------------------------------------------------|
D|--------------------------------------32-------------------------------------------------|
A|-11x-1-33x-3-00x-0-11-00-11x-1-33x-3-0---0-11-00-1111-3333-0000-1100-1111-3333-0000-1111-|
D|-----------------------------------------------------------------------------------------|

"Sight!!"
6.
G|--------------------------------------------|
D|--------------------------------------------|
A|--------------------------------------------|
D|-0x-0x-00000-0x-0x--------0x-0x-00000-0x-0x-|

Chorus
"Forget about tonight, tomorrow will be here so soon..."
7.
G|-----------------------------------------------------------------------------------|
D|-----------------------------------------------------------------------------------|
A|-1-1111111-111-1x-1x--3-3333333-333-3x-3x--5-5555555-555-5x-5x--1-1111111-11111111-|
D|-----------------------------------------------------------------------------------|

"Once upon a time seems so like a fairy tale..."
8.
G|---------------------------------------------------------------------------------|
D|---------------------------------------------------------------------------------|
A|-1~-1-1-1-1-1-1-1--3~-3-3-3-3-3-3-3--5-5555555-555-5x-5x--1-1111111-11111111~----|
D|---------------------------------------------------------------------------------|

Outro
9.
G|-----------|
D|-----------|
A|-1~--------|
D|-----------|

Verse
"Blood pours from her dry mouth..."
10.
G|--------------------------------------------------------------------------------------------|
D|--------------------------------------------------------------------------------------------|
A|--------------------------------------------------------------------------------------------|--x2
D|-0~---0~---0~---1-1-1~--0~---0~---0~---1-1-1~--0x---0x---0x---1-1-1~--0x---0x---0x---1-1-1~-|

Pre-Chorus
"Close your eyes, and let your mind escape into a world of dreams..."
11.
G|-----------------------------------------------------------------------------------------|
D|--------------------------------------32-------------------------------------------------|
A|-11x-1-33x-3-00x-0-11-00-11x-1-33x-3-0---0-11-00-1111-3333-0000-1100-1111-3333-0000-1111-|
D|-----------------------------------------------------------------------------------------|

"Sight!!"
12.
G|--------------------------------------------|
D|--------------------------------------------|
A|--------------------------------------------|
D|-0x-0x-00000-0x-0x--------0x-0x-00000-0x-0x-|

Chorus
"Forget about tonight, tomorrow will be here so soon..."
13.
G|-----------------------------------------------------------------------------------|
D|-----------------------------------------------------------------------------------|
A|-1-1111111-111-1x-1x--3-3333333-333-3x-3x--5-5555555-555-5x-5x--1-1111111-11111111-|
D|-----------------------------------------------------------------------------------|

"Once upon a time seems so like a fairy tale..."
14.
G|---------------------------------------------------------------------------------|
D|---------------------------------------------------------------------------------|
A|-1~-1-1-1-1-1-1-1--3~-3-3-3-3-3-3-3--5-5555555-555-5x-5x--1-1111111-11111111~----|
D|---------------------------------------------------------------------------------|

Outro
15.
G|-----------|
D|-----------|
A|-1~--------|
D|-----------|

Bridge
"I know you're feeling scared but so am I..."
16.
G|----------------------------------------------------------|
D|---------------------------------8-8-8-7-7-7-8-7-8-10-8-7-|
A|-55555x--55555x--55555x--55555x---------------------------|
D|----------------------------------------------------------|

"Dont you dare turn around!..."
17.
G|-------------------------------------------------3-2-3-2---0-|
D|---------------------------------------------------------3---|
A|-11111111-11111111-11111111-11111111-3-3-3-3-3-3-------------|
D|-------------------------------------------------------------|

"I know that you're afraid but so am I..."
18.
G|----------------------------------------------------------|
D|---------------------------------8-8-8-7-7-7-8-7-8-10-8-7-|
A|-55555x--55555x--55555x--55555x---------------------------|
D|----------------------------------------------------------|

"There's no time for tears..."
19.
G|-------------------------------------------------3-2-3-2---0-|
D|---------------------------------------------------------3---|
A|-11111111-11111111-11111111-11111111-3-3-3-3-3-3-------------|
D|-------------------------------------------------------------|

Pre-Chorus
"Close your eyes..."
20.
G|---------------------------------------------------------------------------------|
D|--------------------------------32--------------------------------------32-------|
A|-1111-3333-0000-1100-1111-3333-0--0-1100-1111-3333-0000-1100-1111-3333-0--0-1111-|
D|---------------------------------------------------------------------------------|

21.
G|--------------------------------------------|
D|--------------------------------------------|
A|--------------------------------------------|
D|-0x-0x-00000-0x-0x--------0x-0x-00000-0x-0x-|

Chorus
"Forget about tonight, tomorrow will be here so soon..."
22.
G|-----------------------------------------------------------------------------------|
D|-----------------------------------------------------------------------------------|
A|-1-1111111-111-1x-1x--3-3333333-333-3x-3x--5-5555555-555-5x-5x--1-1111111-11111111-|
D|-----------------------------------------------------------------------------------|

"Once upon a time seems so like a fairy tale..."
23.
G|---------------------------------------------------------------------------------|
D|---------------------------------------------------------------------------------|
A|-1~-1-1-1-1-1-1-1--3~-3-3-3-3-3-3-3--5-5555555-555-5x-5x--1-1111111-11111111~----|
D|---------------------------------------------------------------------------------|

Outro
24.
G|-----------|
D|-----------|
A|-1~--------|
D|-----------|

Verse
"Blood pours from her dry mouth..."
25.
G|--------------------------------------------------------------------------------------------|
D|--------------------------------------------------------------------------------------------|
A|--------------------------------------------------------------------------------------------|
D|-0~---0~---0~---1-1-1~--0~---0~---0~---1-1-1~--0x---0x---0x---1-1-1~--0x---0x---0x---1-1-1~-|

Outro
26.
G|-------------------|
D|-------------------|
A|-------------------|
D|-0~----------------|


Lyrics:


Mark my words this night is far from its end
Please spare me your threats and your useless remarks
Go ahead, I dare you!
Take one step closer to this gap baby! I'll show you what I mean!
I can't let fear get the best of me right now
Keep smiling and soon you will pay!

Close your eyes and let your mind escape into a world of dreams
I won't wake you
Close your eyes and keep them shut
The next part isn't going to be a very pretty sight

Forget about tonight, tomorrow will be here so soon
And we'll be busy singing, "The wicked witch is dead!"
Once upon a time seems so like a fairy tale, I guess
For us it's true

Who's laughing now?
Blood pours from her dry mouth as she begs for mercy
Oh, how she screams!
If you think you'll win my forgiveness
Awww, sweetheart, you're sadly mistaken!
You shouldn't have brought us! You shouldn't have hurt us!
You have not one clue what you've started but trust me
You'll know when I'm finished!
(Its time, baby!)

You'd better run faster than that
I know you're feeling scared but so am I
Don't you dare turn around...Hold on as tight as you can!
I know that you're afraid but so am I
There's no time for tears...run till you can't feel your legs!

Look who's laughing now!
Blood pours from her dry mouth as she begs for mercy
If you think you'll win my forgiveness
Awww. sweetheart, you're sadly mistaken!
(It's time, baby!)

________________________________________________________


9. And They Call This Tragedy


"Try again, make it perfect, make me worth it..."

Tuning: Drop D (DADG)


Intro
1.
G|-------------------------------------------------------------------------|
D|-------------------------------------------------------------------------|
A|-------------------00000000-00000000-------------------------------------|
D|-55555555-55555555-------------------44444444-44444444-55555555-55555555-|

Verse
"You make me sick..."
2.
G|-------------------------------------|
D|-------------------------------------|
A|-------------------00000000-00000000-|
D|-55555555-55555555-------------------|

"I'll tear out those diamond eyes!"
3.
G|---------------------------------------------------------------|
D|---------------------------------------------------------------|
A|-22x----22x----22x----22x--00x----------------------------00x--|--x2
D|--------------------------------55x----55x----55x----55x-------|

"Remembering the nights when you'd whisper to me soft..."
4.
G|---------------------------------------------------------------------|
D|---------------------------------------------------------------------|
A|-----------------0-0000000-0000000-----------------2-2222220-000000--|
D|-55555555-5555555-----------------4-4444444-4444444----------------5-|

Pre-Chorus
"Realize those words have died..."
5.
G|----------------------------|
D|----------------------------|
A|------------------0~--------|
D|-5555555-55555555-----------|

Chorus
"As the life fades from your eyes..."
6.
G|-------------------------------------------------------------------|
D|-------------------------------------------------------------------|
A|-22222222-2-2-2x----222222-2-2-2x----------------------------------|
D|----------------------------------55555555-5-5-5x----555555-5-5-5x-|

"I can say is it may not be to late..."
7.
G|----------------------------------------------------|
D|----------------------------------------------------|
A|-00000000-0-0-0x----000000-0-0-0x-------------------|
D|----------------------------------44x----44x----4-4-|

Outro
8.
G|---------------------|
D|---------------------|
A|-2~--------2~--------|
D|---------------------|

Verse
"If I can not be loved..."
9.
G|--------------------------------------|
D|--------------------------------------|
A|-----------2222222222222x--22x-2-2-2x-|--x4
D|-5~-----------------------------------|

Pre-Chorus
"You call love dies..."
10.
G|---------------------|
D|---------------------|
A|---------------------|
D|-5~--------5~--------|

Chorus
"As the life fades from your eyes..."
11.
G|-------------------------------------------------------------------|
D|------------------------------------------------------------7-5----|
A|-22222222-2-2-2x----222222-2-2-2x-------------------------------7x-|
D|----------------------------------55555555-5-5-5x----555555--------|

"I can say is it may not be to late..."
12.
G|----------------------------------------------------|
D|----------------------------------------------------|
A|-00000000-0-0-0x----000000-0-0-0x-------------------|
D|----------------------------------44x----44x----4-4-|

"Try again, make it perfect..."
13.
G|---------------------------4-4-4x----------------------------------|
D|------------------------------------------------------------7-5----|
A|-22222222-2-2-2x----222222--------------------------------------7x-|
D|----------------------------------55555555-5-5-5x----555555--------|

"Worth it, or else die for all I care..."
14.
G|----------------------------------------------------|
D|----------------------------------------------------|
A|-00000000-0-0-0x----000000-0-0-0x-------------------|
D|----------------------------------44x----44x----4-4-|

Outro
"I have put this off so long..."
15.
G|-----------------------------------------------|
D|-----------------------------------------------|
A|------------------------2----------------------|
D|--------5x-5x-5x--44-24--4-5x----5-5-5x--------|

"But its never to late..."
16.
G|------------------------------------|
D|------------------------------------|
A|------------------------2-----------|
D|--------5x-5x-5x--44-24--4-5x-5x-5x-|

Bridge
17.
G|---------------------------------------|
D|---------------------------------------|
A|---------------------------------------|
D|-0~--------0~----0~----0~--0~--0~--0~--|

"Now I grit my teeth..."
18.
G|-------------------------------------------------------------------------------|
D|-------------------------------------------------------------------------------|
A|-------------------------1111-3333-------------------------1111-3333-----------|
D|-000x----000x----000x--------------000x----000x----000x--------------3333-2222-|

"Now I grit my teeth..."
19.
G|-------------------------------------------------------------------------------|
D|-------------------------------------------------------------------------------|
A|------5~------5~------5~-1111-3333------5~------5~------5~-1111-3333-----------|
D|-000x----000x----000x--------------000x----000x----000x--------------3333-2222-|

"You said this would be forever..."
20.
G|---------------------------------------------------|
D|---------------------------------------------------|
A|-1-1-1-1-1-1-1-1-3-3-3-3-3-3-3-3-0~----------------|-- Each Time Slower
D|---------------------------------------------------|

"After today silence will haunt you..."
21.
G|----------------------------------------------------------------------------------|
D|----------------------------------------------------------------------------------|
A|-----------------------------1111-33----------------------------1111-3333---------|--x2
D|-000x--0000000x--0000000x-----------000x--0000000x--0000000x--------------3333-22-|


Lyrics:



You make me sick...
I'll tear out those diamond eyes I can't bear to see
Crimson spills on paper skin
They call this tragedy...

Remembering the nights when you'd whisper to me soft,
"Forever more my heart is yours"
Realize those words have died

As the life fades from your eyes all that I can say is
It may not be too late

If I can not be loved then none shall be
(Your face disgusts me, smile bear your lies)
Think of this as I softly kiss your blood glazed lips once more
(This broken trust will become your demise)
On this night this thing you call love dies

As the life fades from your eyes all that I can say is
It may be too late
Try again, make it perfect, make me worth it..or else
Die for all I care

I have put this off so long but its never too late
white knuckles clench as red eyes burn

Now I grit my teeth and finish what I know must be
Done to kill the memory of you
And you said this would be forever...

After today silence will haunt you
There will be no more forgiveness for what you've done

And you said this would be forever...

________________________________________________________


10. All Night Dance Parties In The Underground Palace


"All night long I'll sing and dance with you, my sweet princess..."

Tuning: EADG 


Intro
1.
G|-----------------------------------------|
D|-----------------------------------------|
A|-2~------------------0~------------------|
E|-----------3~------------------2~--------|

Verse
"Beautiful, you know you leave me breathless when..."
2.
G|----------------------------------------------------------------------------------------------|
D|----------------------------------------------------------------------------------------------|
A|-2222-22-22222-22-2x-2x--------------------------0000-00-00000-00-0x-0x-1~--11~--11~--1-1x-1x-|
E|-------------------------3333-33-33333-33-3x-3x-----------------------------------------------|
--x2

Pre-Chorus
"I know that at times it may be hard..."
3.
G|--------------------------------------------------------------------------|
D|--------------------------------------------------------------------------|
A|-22222222-22222222----------------------------------------------1~--------|
E|-------------------22222222-22222222-33333333-33333333-22222222-----------|

Chorus
"All night long I'll sing and dance with you, my sweet princess..."
4.
G|-----------------------------------------------------------------------------|
D|--------------------------------------------------------------------44444444-|
A|----------00000000-22222222-22222-0~-------------00000000--------------------|
E|-33333333-------------------------------33333333----------22222-222----------|

"I will sweep you off of your feet..."
5.
G|----------------------------------------------------------------------------|
D|----------------------------------------------------------------------------|
A|----------00000000----------22222-0~-------------00000000-------------------|
E|-33333333----------22222222-------------33333333----------22222x--22222x----|

Verse
"Every time I look at you I cant believe how magical you are..."
6.
G|----------------------------------------------------------------------------------------------|
D|----------------------------------------------------------------------------------------------|
A|-2222-22-22222-22-2x-2x--------------------------0000-00-00000-00-0x-0x-1~--11~--11~--1-1x-1x-|
E|-------------------------3333-33-33333-33-3x-3x-----------------------------------------------|

"Run away with me into a world where time seems to not exist..."
7.
G|----------------------------------------------------------------------------|
D|----------------------------------------------------------------------------|
A|-22222222-22222222-------------------0000000-00000000-1~--11~--11~--1-1x-1x-|
E|-------------------33333333-33333333----------------------------------------|

Pre-Chorus
"I know that at times it may be hard..."
8.
G|--------------------------------------------------------------------------|
D|--------------------------------------------------------------------------|
A|-22222222-22222222----------------------------------------------1~--------|
E|-------------------22222222-22222222-33333333-33333333-22222222-----------|

Chorus
"All night long I'll sing and dance with you, my sweet princess..."
9.
G|-----------------------------------------------------------------------------|
D|--------------------------------------------------------------------44444444-|
A|----------00000000-22222222-22222-0~-------------00000000--------------------|
E|-33333333-------------------------------33333333----------22222-222----------|

"I will sweep you off of your feet..."
10.
G|----------------------------------------------------------------------------|
D|----------------------------------------------------------------------------|
A|----------00000000----------22222-0~-------------00000000-------------------|
E|-33333333----------22222222-------------33333333----------22222x--22222x----|

Outro
"We stop!!!"
11.
G|---------------------------|
D|---------------------------|
A|---------------------------|
E|-xxxx-22222x--22222x--xxxx-|

Bridge
"My sweet princess I will sing and dance with you..."
12.
G|-------------------------------------------------------------------------|
D|-------------------------------------------------------------------------|
A|-22222222-22222222----------------------------------------------11111111-|
E|-------------------22222222-22222222-33333333-33333333-22222222----------|

13.
G|-------------------------------------------------------------------------|
D|-------------------------------------------------------------------------|
A|-22222222-22222222----------------------------------------------1~-------|
E|-------------------22222222-22222222-33333333-33333333-22222222----------|

14.
G|---------------------------------|
D|---------------------------------|
A|-1-1-1-1~---------------xxxxxxxx-|
E|---------------------------------|

Chorus
"All night long I'll sing and dance with you, my sweet princess..."
15.
G|-----------------------------------------------------------------------------|
D|--------------------------------------------------------------------44444444-|
A|----------00000000-22222222-22222-0~-------------00000000--------------------|
E|-33333333-------------------------------33333333----------22222-222----------|

"I will sweep you off of your feet..."
16.
G|----------------------------------------------------------------------------|
D|----------------------------------------------------------------------------|
A|----------00000000----------22222-0~-------------00000000-------------------|
E|-33333333----------22222222-------------33333333----------22222x--22222x----|

Outro
"We stop!!!"
17.
G|---------------------------|
D|---------------------------|
A|---------------------------|
E|-xxxx-22222x--22222x--xxxx-|



Lyrics: 


Beautiful, you know you leave me breathless when you fall into my eyes
My heart belongs to you my angel
There is just no reason for you to let life bring you down
Please come with me and let me show you

I know that at times it may be hard to let go of yourself
Babygirl, tonight leave your cares behind because it's time to celebrate!

All night long I'll sing and dance with you, my sweet princess, only if you trust in this
Take my hand and follow me, I will sweep you off of your feet
All night long I will sing and dance with you

Every time I look at you I can't believe how magical you are
The stars belong to you my angel
Run away with me into a world where time seems to not exist
The smile on my face will show you

This night will only end when we stop dancing

My sweet princess I will sing and dance with you all night long
The stars, they belong to you my angel

________________________________________________________________


11. Endings Without Stories


"Blood stains my hands so I wont forget you..."

Tuning: EADG

Intro
"This time I die"
1.
G|---------------|
D|---------------|
A|---------------|
E|-3x---3333x-3~-|

Verse
"Our love ruined by your malignance" x2
2.
G|-----------------------------|
D|-----------------------------|
A|-----------------------------|
E|-333333-555555-666666-888888-|

Pre-Chorus
3.
G|---------------------------------|
D|---------------------------------|
A|-55555555-55555555-55555555------|
E|----------------------------55-5-|

Chorus
"I watched the smile fading from your face.."
4.
G|---------------------------------|
D|---------------------------------|
A|-22222222-2222222-2222222-222222-|
E|---------------------------------|

"You bled till there was nothing in your veins.."
5.
G|---------------------------------|
D|---------------------------------|
A|---------------------------------|
E|-33333333-3333333-3333333-333333-|

"Blood stains my hands.."
6.
G|---------------------------------|
D|---------------------------------|
A|-55555555-5555555-5555555-555555-|
E|---------------------------------|

"I won't forget you..."
7.
G|--------------------------|
D|--------------------------|
A|-44444444-4444444-4444444-|
E|--------------------------|

"So dry your eyes.."
8.
G|--------------------------------|
D|--------------------------------|
A|-------22222222-2222222-2222222-|
E|-3-555--------------------------|

"Be afraid to die.."
9.
G|---------------------------------------|
D|---------------------------------------|
A|-2-------------------------------------|
E|---555-33333333-3333333-3333333-333333-|

"Blood stains my hands.."
10.
G|----------------------------------|
D|----------------------------------|
A|-55555555-5555555-5555555-5555555-|
E|----------------------------------|

"I won't forget you..! "
11.
G|-----------------|
D|-----------------|
A|-4-4-4-4-4-4-4-4-|
E|-----------------|

Outro.
12.
G|---------------|
D|---------------|
A|---------------|
E|-3x---3333x-3~-|

Verse
13.
G|-----------------------------|
D|-----------------------------|
A|-----------------------------|
E|-333333-555555-666666-888888-|

14.
G|----------------------------------|
D|----------------------------------|
A|----------------------------------|
E|-333333-555555-666666-8-6-5-6-5-3-|

15.
G|---------------------------------------------|
D|---------------------------------------------|
A|---------------------------------------------|
E|-222222-333333-022-022-022-022-222222-333-5x-|

Instrumental
16.
G|------------------------------|
D|------------------------------|
A|-222222---------------555-444-|
E|--------222222-333333---------|

17.
G|-------------------------|
D|-------------------------|
A|-222222---------------5x-|
E|--------222222-333333----|

18.
G|------------------------------|
D|------------------------------|
A|-222222---------------555-444-|
E|--------222222-333333---------|

19.
G|----------------------|
D|----------------------|
A|-222222---------------|
E|--------222222-333333-|

Chorus
"I watched the smile fading from your face.."
20.
G|---------------------------------|
D|---------------------------------|
A|-22222222-2222222-2222222-222222-|
E|---------------------------------|

"You bled till there was nothing in your veins.."
21.
G|---------------------------------|
D|---------------------------------|
A|---------------------------------|
E|-33333333-3333333-3333333-333333-|

"Blood stains my hands.."
22.
G|---------------------------------|
D|---------------------------------|
A|-55555555-5555555-5555555-555555-|
E|---------------------------------|

"I won't forget you..."
23.
G|--------------------------|
D|--------------------------|
A|-44444444-4444444-4444444-|
E|--------------------------|

"So dry your eyes.."
24.
G|--------------------------------|
D|--------------------------------|
A|-------22222222-2222222-2222222-|
E|-3-555--------------------------|

"Be afraid to die.."
25.
G|---------------------------------------|
D|---------------------------------------|
A|-2-------------------------------------|
E|---555-33333333-3333333-3333333-333333-|

"Blood stains my hands.."
26.
G|----------------------------------|
D|----------------------------------|
A|-55555555-5555555-5555555-5555555-|
E|----------------------------------|

"I won't forget you..! "
27.
G|-----------------|
D|-----------------|
A|-4-4-4-4-4-4-4-4-|
E|-----------------|

2:52- 3:05

 A|-2222222222222-|

And in 3:05 :

28.
G|-------------------------------------|
D|-------------------------------------|
A|-22222222-22222222-22222222-22222222-|
E|-------------------------------------|

29.
G|-------------------------------------|
D|-------------------------------------|
A|-------------------------------------|
E|-33333333-33333333-33333333-33333333-|

30.
G|-------------------------------------|
D|-------------------------------------|
A|-55555555-55555555-55555555-55555555-|
E|-------------------------------------|

31.
G|----------------------------------------|
D|----------------------------------------|
A|-44444444-44444444-44444444-44444444-2~-|
E|----------------------------------------|

And ends with:

32.
G|----------|
D|----------|
A|-2-2-2-2x-|
E|----------|



Lyrics:

This time I die

Our love ruined by your malignance
Broken shards of feelings are now just tainted memories left
Beautiful dreams that I cherished now are so disgusting as I strangle the light from you

I watched the smile fading from your face
You bled till there was nothing in your veins
Blood stains my hands so I won't forget you
Its all over now so dry your eyes
There is no forgiveness, be afraid to die
Blood stains my hands so I won't forget you

Tears fall as your screams of anguish rage throughout the heavens
Amidst the penance you must pay
Caress this bullet as eyes close to the painful memories you left
Consume the rest of me
My vision of you has now turned to dust, your porcelain smile gone

I watched the smile fading from your face
You bled till there was nothing in your veins
Blood stains my hands so I won't forget you
Its all over now so dry your eyes... there is no forgiveness, be afraid to die
Blood stains my hands so I won't forget you

You let me go
You let me go too soon
I love you are meaningless words that slip away as I slit your throat
And I will slit your throat 

________________________________________________________


12. As You Wish

**No Bass! :(


Lyrics:


Life is meaningless without you
Love can be such a beautiful torture
My heart breaks as I long for you
Love can be such lovely torture

I will climb the hills, draw my sword and take down
Anyone who tries to stand in front of me
Please know I'll never run away without you in my arms
One day lovers will dream of this undying kiss
Not of Romeo or Juliet
Stories told of our love will never die

I've slain the most unholy things, endured such terrific pain
Finally I'll feel your caress again
I've braved the cold and lonely seas, I have prevailed against the odds
Then again...

Will you forgive what I've done to give you four white horses?

________________________________________________________________


13. Obsession Is Such An Ugly Word


"Welcome Home! I Am Your Prison!!"

Tuning: Drop D (DADG)


Intro
1.
G|-----------------------------------------------------------|
D|-----------------------------------------------------------|
A|-------------------------555x--555x-0x-0x-111x--111x-------|
D|-----------------2/15\2------------------------------5x-5x-|

2.
G|------------------------------------------------------------------------------|
D|------------------------------------------------------------------------------|
A|-55555555-50000000-01111111-1------------55555555-50000000-01111111-1---------|
D|-----------------------------5x-5x-5x-5x-----------------------------5x-5x----|

Verse
"I toss and turn and lie awake..."
3.
G|-----------------------------------------------------------------------------|
D|-----------------------------------------------------------------------------|
A|-11111111-33333333---------------------11111111-33333333---------------------|
D|-------------------000x-000x-000x-000x-------------------000x-000x-000x-000x-|

"As I take a step back I wonder... 
4.
G|---------------------------------------------------------------------------|
D|---------------------------------------------------------------------------|
A|-11111111-33333333-5-0-7-0-7h8p7-0-5-11111111-33333333---------------------|
D|-------------------------------------------------------000x-000x-000x-000x-|

Pre-Chorus
"Look away! Turn away!!"
5.
G|-------------------------------------------------------------------------|
D|-------------------------------------------------------------------------|
A|-11111111/33333333/55555555\00000000-11111111/33333333/55555555\00000000-|
D|-------------------------------------------------------------------------|

"Nothing is what it seems..."
6.
G|-----------------------------------------------------------------------------------|
D|-----------------------------------------------------------------------------------|
A|-11111111/33333333/55555555\00000000-11111111/33333333-5p3-5p3-5p3-5p3-5p3-5p3-5x--|
D|-----------------------------------------------------------------------------------|

Chorus
"When all is said and done I may not be able to move on..."
7.
G|-----------------------------------------------------------------------------|
D|-----------------------------------------------------------------------------|
A|-55555555-55555555-000x-000x-000x-000x-11111111-11111111-333x-333x-333x--33x-|
D|-----------------------------------------------------------------------------|

"Desire is now the one in control..."
8.
G|-----------------------------------------------------------------------------|
D|-----------------------------------------------------------------------------|
A|-------------------000x-000x-000x-000x-11111111-11111111-333x-333x-333x-333x-|
D|-55555555-55555555-----------------------------------------------------------|

Outro
9.
G|-----------------------------------------------------------|
D|-----------------------------------------------------------|
A|-------------------------555x--555x-0x-0x-111x--111x-------|
D|-----------------2/15\2------------------------------5x-5x-|

Verse
"I can almost hear anguished cries as they suffer..."
10.
G|-----------------------------------------------------------------------|
D|-----------------------------------------------------------------------|
A|---------------------------------111-1-1~--------333-3-3~----333x-000x-|
D|-000-0-0~--------000-0-0~----------------------------------------------|

"Welcome to the bodies!!"
11.
G|-----------------------------------------------------------------------------|
D|-----------------------------------------------------------------------------|
A|---------------------------------111-1-1~--------333-3-3~----5~--3~--1~--0~--|
D|-000-0-0~--------000-0-0~----------------------------------------------------|

Pre-Chorus
"Look away! Turn away!!"
12.
G|-------------------------------------------------------------------------|
D|-------------------------------------------------------------------------|
A|-11111111/33333333/55555555\00000000-11111111/33333333/55555555\00000000-|
D|-------------------------------------------------------------------------|

"Nothing is what it seems..."
13.
G|-----------------------------------------------------------------------------------|
D|-----------------------------------------------------------------------------------|
A|-11111111/33333333/55555555\00000000-11111111/33333333-5p3-5p3-5p3-5p3-5p3-5p3-5x--|
D|-----------------------------------------------------------------------------------|

Chorus
"When all is said and done I may not be able to move on..."
14.
G|-----------------------------------------------------------------------------|
D|-----------------------------------------------------------------------------|
A|-55555555-55555555-000x-000x-000x-000x-11111111-11111111-333x-333x-333x--33x-|
D|-----------------------------------------------------------------------------|

"Desire is now the one in control..."
15.
G|---------------------------------------33333333-33333333---------------------|
D|-----------------------------------------------------------------------------|
A|-------------------000x-000x-000x-000x-------------------333x-333x-333x-333x-|
D|-55555555-55555555-----------------------------------------------------------|

Outro
"What sinful trance awaits me as the key turns?"
16.
G|-----------------------------------------------------------------------------------------|
D|-----------------------------------------------------------------------------------------|
A|-----------------------------------------------------------------------------------------|
D|-0-0-0000x--0-0-0000x--0-0-0000x--0-0-0000x--0-0-0000x--0-0-0000x--0-0-0000x--0-0-0000x--|

17.
G|-------------------|
D|-------------------|
A|-------------------|
D|-1~----------------|

Bridge
18.
G|-------7---6----|
D|-----8---7------|
A|----------------|
D|----------------|

"Now it is done!!!"
19.
G|-------------------------------------------------------------------------------|
D|-------------------------------------------------------------------------------|
A|----------------------------------------------------------------------1~-------|--x1000
D|-00~--0000~--0000~----00~--0000~--0000~----00~--0000~-00-1~--1~----5~----3~-0~-|

Play that each time slower like a thousand times until the song ends...



Lyrics: 


I toss and turn and lie awake...it torments me, I must know why
It just seems too easy...what is beyond that door?
As I take a step back I wonder could I go on and turn the key?

Look away! Turn away!
I should remember nothing is what it seems
For once in my life I will resist...temptation has
Come alive again!

When all is said and done I may not be able to move on
If I don't know what lies beyond
Desire is now the one in control
Am I strong enough to not ever know just what I'd find?
Should I press on?

I can almost hear anguished cries as they suffer
Welcome to the bodies!
I should run...
I should run but I just can't see to move

What sinful trance awaits me as the key turns?

Now it is done...the key has been turned
All that is left is my embrace
Her trembling is driving me wild!
Her shrieks are so intoxicating!
Eyes filled with tears will strain to see
Welcome home! I am your prison!

________________________________________________________________________


That was all
I hope you enjoyed
Please Rate!
Cheers!!

..::RaiLeff::.. [!]

+++++++++++++++++++++++++++++++++
| RaiLeff                       |
| Underground__Dora@Hotmail.Com |
+++++++++++++++++++++++++++++++++
6 comments total. Showing first comments.
0 reply
ganny1234 wrote on July 2 2008, 09:38 pm

its good. but i think goodbye goodnight for good might be tabs for the originaal because it seem really wrong to me.

0 reply
JaredtheJester wrote on November 6 2008, 02:16 pm

DUDE, YOU ARE MY HERO FOR THIS! Amazing tab, off the charts.

0 reply
marq714 wrote on November 22 2008, 10:54 am

Great stuff man these tabs kick ass

I want to post or [tab]
guest
You may want to rate the tab now too:
select rating
Please do not post tabs as comments. Select "correction" instead!