Oops, an error
Loading. Please wait.

44 Calliber Love Letter Tab

ver2
ver2

Intro

Whole song

Interactive

More versions @911Tabs.com
5,748 views 1 this week
3 commentsread comments
1 2 3 4 5
accurate
x 12
Autoscroll
+/-
esc
set tempo
stop
Contributor
Hey! There's an official Ultimate Guitar app which is ideal
for learning songs when you're away from computer. Get the app
WARNING: You are trying to view
                                    content from Ultimate-Guitar.com
                                    in an unauthorized application,
                                    which is prohibited.

                                    Please use an official Ultimate
                                    Guitar Tabs application for iPhone,
                                    iPad or Android to access legitimate
                                    chords, guitar, bass, and drum tabs
                                    from Ultimate-Guitar.com database.

                                    Type "ultimate guitar tabs" in Apple
                                    App Store's or Android Market's
                                    search to find the application.
#----------------------------------PLEASE NOTE---------------------------------#
#This file is the author's own work and represents their interpretation of the #
#song. You may only use this file for private study, scholarship, or research. #
#------------------------------------------------------------------------------##

                             .44 CALIBER LOVE LETTER
                           As recorded by Alexisonfire
                       (From the 2002 Album ALEXISONFIRE)

Words by George Pettit/Dallas Green/Wade MacNeil

Music by Alexisonfire
Arranged by Alexisonfire


Gtr I (Eb Ab Db Gb Bb Eb) - 'Untitled'
Gtr II (Db Ab Db Gb Bb Eb) - 'Untitled'
Gtr III (Db Ab Db Gb Bb Eb) - 'Untitled'
Gtr IV (Db Ab Db Gb Bb Eb) - 'Untitled'

 Intro
  Q=80
  N.C.
 4/4
  Gtr I
       T           T             T           T
   E.  Q.      E.  Q         E.  Q.      E.  Q
|------------------------|-------------------------|
|------------------------|-------------------------|
|-h5--12------/9--16-----|--h5--12------/9--16-----|
|------------------------|-------------------------|
|------------------------|-------------------------|
|------------------------|-------------------------|
|
| Gtr IV
|          T                         T
|  E.  E.  Q.      E.  S    +E.  E.  Q.      E.  S
|------------------------|-------------------------|
|------------------------|-------------------------|
|-----h5--12------/9--16-|-(16)-h5--12------/9--16-|
|------------------------|-------------------------|
|------------------------|-------------------------|
|------------------------|-------------------------|


        T           T             T           T
    E.  Q.      E.  Q         E.  Q.      E.  Q
|-------------------------|----------------------|
|-------------------------|----------------------|
|--h5--12------/9--16-----|--h5--12------/9--16--|
|-------------------------|----------------------|
|-------------------------|----------------------|
|-------------------------|----------------------|
|
|           T                         T
|  +E.  E.  Q.      E.  S    +E.  E.  Q.      Q
|-------------------------|----------------------|
|-------------------------|----------------------|
|-(16)-h5--12------/9--16-|-(16)-h5--12------/9--|
|-------------------------|----------------------|
|-------------------------|----------------------|
|-------------------------|----------------------|


  N.C.
       T               T               T              T
   E.  Q.          E.  Q          E.   Q.    E.       Q
|------------------------------|-----------------------------|
|------------------------------|-----------------------------|
|-h5--12----------/9--16-------|-h5---12----/9-------16------|
|------------------------------|-----------------------------|
|------------------------------|-----------------------------|
|------------------------------|-----------------------------|
|
|  E.  E.  E   Q.         S  S    E.   H         +E.      E
|-17---------------------------|-----------------------------|
|-------------15---------15-17-|------13--------(13)----(13)-|
|-----16--17-(17)--------------|-16--(16)-------(16)-----16--|
|------------------------------|-----------------------------|
|------------------------------|-----------------------------|
|------------------------------|-----------------------------|


       T               T               T              T
   E.  Q.          E.  Q          E.   Q.    E.       Q
|------------------------------|-----------------------------|
|------------------------------|-----------------------------|
|-h5--12----------/9--16-------|-h5---12----/9-------16------|
|------------------------------|-----------------------------|
|------------------------------|-----------------------------|
|------------------------------|-----------------------------|
|
|  E.  E.  E   Q.         S  S    E.   H         +E.      E
|-17---------------------------|-----------------------------|
|-------------15---------15-17-|------13--------(13)----(13)-|
|-----16--17-(17)--------------|-16--(16)-------(16)-----16--|
|------------------------------|-----------------------------|
|------------------------------|-----------------------------|
|------------------------------|-----------------------------|


  N.C.
       T               T               T              T
   E.  Q.          E.  Q          E.   Q.    E.       Q
|------------------------------|-----------------------------|
|------------------------------|-----------------------------|
|-h5--12----------/9--16-------|-h5---12----/9-------16------|
|------------------------------|-----------------------------|
|------------------------------|-----------------------------|
|------------------------------|-----------------------------|
|
|  E.  E.  E   Q.         S  S    E.   H         +E.      E
|-17---------------------------|-----------------------------|
|-------------15---------15-17-|------13--------(13)----(13)-|
|-----16--17-(17)--------------|-16--(16)-------(16)-----16--|
|------------------------------|-----------------------------|
|------------------------------|-----------------------------|
|------------------------------|-----------------------------|


       T               T               T              T
   E.  Q.          E.  Q          E.   Q.    E.       Q
|------------------------------|-----------------------------|
|------------------------------|-----------------------------|
|-h5--12----------/9--16-------|-h5---12----/9-------16------|
|------------------------------|-----------------------------|
|------------------------------|-----------------------------|
|------------------------------|-----------------------------|
|
|  E.  E.  E   Q.         S  S    E.   H         +Q      +S
|-17---------------------------|-----------------------------|
|-------------15---------15-17-|------13--------(13)----(13)-|
|-----16--17-(17)--------------|-16--(16)-------(16)----(16)-|
|------------------------------|-----------------------------|
|------------------------------|-----------------------------|
|------------------------------|-----------------------------|


  N.C.
        T                     T           T                     T
   E.   Q.     E.             Q      E.   Q.     E.             Q
|---------------------------------|---------------------------------|
|---------------------------------|---------------------------------|
|-h5---12-----/9-------------16---|-h5---12-----/9-------------16---|
|---------------------------------|---------------------------------|
|---------------------------------|---------------------------------|
|---------------------------------|---------------------------------|
|
|  E.   Q..         S    S    Q      E.   Q..         S    S    Q
|---------------------------------|---------------------------------|
|------13---------(13)--13---15---|------13---------(13)--13---15---|
|-16--(16)---------16--(16)-(16)--|-16--(16)---------16--(16)-(16)--|
|---------------------------------|---------------------------------|
|---------------------------------|---------------------------------|
|---------------------------------|---------------------------------|


        T                     T           T                     T
   E.   Q.     E.             Q      E.   Q.     E.             Q
|---------------------------------|---------------------------------|
|---------------------------------|---------------------------------|
|-h5---12-----/9-------------16---|-h5---12-----/9-------------16---|
|---------------------------------|---------------------------------|
|---------------------------------|---------------------------------|
|---------------------------------|---------------------------------|
|
|  E.   Q..         S    S    Q      E.   Q..         S    S    Q
|---------------------------------|---------------------------------|
|------13---------(13)--13---15---|------13---------(13)--13---15---|
|-16--(16)---------16--(16)-(16)--|-16--(16)---------16--(16)-(16)--|
|---------------------------------|---------------------------------|
|---------------------------------|---------------------------------|
|---------------------------------|---------------------------------|


  N.C.
       T               T               T              T
   E.  Q.          E.  Q          E.   Q.    E.       Q
|------------------------------|-----------------------------|
|------------------------------|-----------------------------|
|-h5--12----------/9--16-------|-h5---12----/9-------16------|
|------------------------------|-----------------------------|
|------------------------------|-----------------------------|
|------------------------------|-----------------------------|
|
|  E.  E.  E   Q.         S  S    E.   H         +Q      +S
|-17---------------------------|-----------------------------|
|-------------15---------15-17-|------13--------(13)----(13)-|
|-----16--17-(17)--------------|-16--(16)-------(16)----(16)-|
|------------------------------|-----------------------------|
|------------------------------|-----------------------------|
|------------------------------|-----------------------------|


            H=H                  Q=95
                                           D5
       T         T           T           T
   E.  Q.    E.  Q       E.  Q.      E.  Q
|--------------------|-------------------------|
|--------------------|-------------------------|
|-h5--12----/9--16---|--h5--12------/9--16-----|
|--------------------|-------------------------|
|--------------------|-------------------------|
|--------------------|-------------------------|
|
|                                Gtr III   Gtr IV
|                        ~~~~    TP        PM|
|  W                    +H       Q.        S S
|--------------------|-------------------------|
|--------------------|-------------------------|
|-16-----------------|-(16)--------------------|
|--------------------|-----------x\------------|
|--------------------|-----------x\--------0-0-|
|--------------------|-----------x\--------0-0-|


  A5                      D5    A5                      D5
           T          T                  T          T
   E.      Q.     E.  Q          E.      Q.     E.  Q
|-----------------------------|-----------------------------|
|-----------------------------|-----------------------------|
|-h5------12-----/9--16-------|-h5------12-----/9--16-------|
|-----------------------------|-----------------------------|
|-----------------------------|-----------------------------|
|-----------------------------|-----------------------------|
|
|  PM-----|               PM------------|               PM---
|  S  S S  e  H         S S S    S  S S  e  H         S S S
|-----------------------------|-----------------------------|
|-----------------------------|-----------------------------|
|-----------------------------|-----------------------------|
|-----------------------------|-----------------------------|
|--7--7-7--7--------------0-0-|--7--7-7--7--------------0-0-|
|--7--7-7--7--------------0-0-|--7--7-7--7--------------0-0-|


  A5                      D5    A5                        D5
           T          T                  T              T
   E.      Q.     E.  Q          E.      Q.         E.  Q
|-----------------------------|--------------------------------|
|-----------------------------|--------------------------------|
|-h5------12-----/9--16-------|-h5------12---------/9--16------|
|-----------------------------|--------------------------------|
|-----------------------------|--------------------------------|
|-----------------------------|--------------------------------|
|
|---------|               PM------------|                 PM|
|  S  S S  e  H         S S S    S  S S  e  S   H         S S
|-----------------------------|--------------------------------|
|-----------------------------|--------------------------------|
|-----------------------------|---------------<12>-------------|
|-----------------------------|--------------------------------|
|--7--7-7--7--------------0-0-|--7--7-7--7----------------0-0--|
|--7--7-7--7--------------0-0-|--7--7-7--7----------------0-0--|


    A5           N.C.                     D5
            T
    E.      E.     Q.                E    E
||--------------------------------------------|
||o-------------------------------------------|
||--5------17-----16p================7h===9---|
||--------------------------------------------|
||o-------------------------------------------|
||--------------------------------------------|
|
|   PM-----|                                PM-
|   S  S S  e  S   S  S  S  S  S  S  S  S S S
||---------------/17-17-----------------------|
||o---------------------------------15--------|
||----------------------16-16-17-17----17-----|
||--------------------------------------------|
||o-7--7-7--7-----------------------------0-0-|
||--7--7-7--7-----------------------------0-0-|


  A5           N.C.
          T
  E.      E.     Q.                E        E
|-------------------------------------------------||
|------------------------------------------------o||
|-5------17-----16p================7h=======9-----||
|-------------------------------------------------||
|------------------------------------------------o||
|-------------------------------------------------||
|
|--------|
| S  S S  e  S   S  S  S  S  S  S  T  T  S  S  S
|--------------/17-17-----------------------------||
|---------------------------15-17-15h17p15-------o||
|---------------------16-17----------------17-16--||
|-------------------------------------------------||
|-7--7-7--7--------------------------------------o||
|-7--7-7--7---------------------------------------||


  A5             N.C.                     D5
        T    T     T           T     T     T
   E    S S  S S   E.       S  S  S  S  S  E
|----------------------------------------------|
|----------------------------------------------|
|-h5---12p5-12p5--16p=======5-16p=5-16p=5-16---|
|----------------------------------------------|
|----------------------------------------------|
|----------------------------------------------|
|
|  PM-----|                                  PM-
|  S S  S e    S   S  S  S  S  S  S  S  S  S S
|----------------/17-17------------------------|
|-----------------------------------15---------|
|-----------------------16-16-17-17----17------|
|----------------------------------------------|
|--7-7--7-7--------------------------------0-0-|
|--7-7--7-7--------------------------------0-0-|


  A5             N.C.
        T    T     T           T     T        T
   E    S S  S S   E.       S  S  S  S     S  E
|---------------------------------------------------|
|---------------------------------------------------|
|-h5---12p5-12p5--16p=======5-16p=5-16p====5-16-----|
|---------------------------------------------------|
|---------------------------------------------------|
|---------------------------------------------------|
|
|---------|
|  S S  S e    S   S  S  S  S  S  S  T  T  S  S  S
|----------------/17-17-----------------------------|
|-----------------------------15-17-15h17p15--------|
|-----------------------16-17----------------17-16--|
|---------------------------------------------------|
|--7-7--7-7-----------------------------------------|
|--7-7--7-7-----------------------------------------|


  A5             N.C.                     D5
        T    T     T           T     T     T
   E    S S  S S   E.       S  S  S  S  S  E
|----------------------------------------------|
|----------------------------------------------|
|-h5---12p5-12p5--16p=======5-16p=5-16p=5-16---|
|----------------------------------------------|
|----------------------------------------------|
|----------------------------------------------|
|
|  PM-----|                                  PM-
|  S S  S e    S   S  S  S  S  S  S  S  S  S S
|----------------/17-17------------------------|
|-----------------------------------15---------|
|-----------------------16-16-17-17----17------|
|----------------------------------------------|
|--7-7--7-7--------------------------------0-0-|
|--7-7--7-7--------------------------------0-0-|


  A5        N.C.
        T     T     T
   E    S S   S  S  H                         +E
|-------------------------------------------------|
|------------------12------------------------(12)-|
|-h5---12p5--12p=5-(5)------------------------(5)-|
|-------------------------------------------------|
|-------------------------------------------------|
|-------------------------------------------------|
|
|---------|
|  S S  S S   S  S  S   S  S  S  S  S  S  E.
|-----------/15-15-15--15-15-15-15-15-15-15-------|
|-------------------------------------------------|
|-------------------------------------------------|
|-------------------------------------------------|
|--7-7--7-7---------------------------------------|
|--7-7--7-7---------------------------------------|


    A5             N.C.
     T    T    T    T        T        T        T       T
     S S  S S  S S  S     S  S   S    S    S   S   S   S   S
||------------------------------------------------------------|
||o-----------------------------------------------------------|
||--12p5-12p5-12p5-12p====5-12p==5---12p===5--12p==5--12p==5--|
||------------------------------------------------------------|
||o-----------------------------------------------------------|
||------------------------------------------------------------|
|
|    E    S E    S  T  T  S  S   S    S    S   S   S   S   S
||------------------------------------------------------------|
||o----------------15h17p15-----15--(15)-(15)-----13------13--|
||--------------------------17-(17)--17---16--16-(16)-16-(16)-|
||---7----7-7-------------------------------------------------|
||o--7----7-7-------------------------------------------------|
||---7----7-7-------------------------------------------------|


  A5             N.C.
   T    T    T    T        T        T        T       T
   S S  S S  S S  S     S  S   S    S    S   S   S   S   S    4x
|-------------------------------------------------------------||
|------------------------------------------------------------o||
|-12p9-12p9-12p9-12p====9-12p==9---12p===9--12p==9--12p==9----||
|-------------------------------------------------------------||
|------------------------------------------------------------o||
|-------------------------------------------------------------||
|
|  E    S E    S  T  T  S  S   S    S    S   S   S   S   S    4x
|-------------------------------------------------------------||
|----------------15h17p15-----15--(15)-(15)-----13------13---o||
|-------------------------17-(17)--17---16--16-(16)-16-(16)---||
|--7----7-7---------------------------------------------------||
|--7----7-7--------------------------------------------------o||
|--7----7-7---------------------------------------------------||


  Q=8H.=H                        Q=100
  A5        N.C.                          D5/A
 5/4                            4/4
  Q.        T   T S E E E E Q    +W              +W
|---------------------------0--|-(0)-----------|-(0)----|
|-----------3---5-3-1-0-1-3----|---------------|--------|
|------------------------------|---------------|--------|
|------------------------------|---------------|--------|
|------------------------------|---------------|--------|
|------------------------------|---------------|--------|
|
|                                Gtr II
| PM-----|
| S  S S e. H..                   H     E Q.     +W
|------------------------------|---------------|--------|
|------------------------------|---------------|--------|
|------------------------------|---------------|--------|
|-7--7-7-7---------------------|----------0----|-(0)----|
|-7--7-7-7---------------------|----------0----|-(0)----|
|-7--7-7-7---------------------|---------------|--------|


                             Q=110
       N.C.                  N.C.
                   5/4
                             Gtr III           Gtr I
                              TP
  +Q   E E E Q.     +H.       Q..              S
|-(0)------8-7----|-(7)--------------------------|
|------3S5--------|------------------------------|
|-----------------|------------------------------|
|-----------------|-----------x\---------------7-|
|-----------------|-----------x\---------------7-|
|-----------------|-----------x\---------------5-|
|
| +W                +H.       S    S  S  S  E. S
|-----------------|------------------20-20-19----|
|-----------------|----------15---17-------------|
|-----------------|------------------------------|
|-(0)-------------|-(0)------------------------7-|
|-(0)-------------|-(0)------------------------7-|
|-----------------|----------------------------7-|


 Verse
  A5                            F5
 4/4
  Gtr I
  +S  S E S S E S S E S S S S   +S  S E S S E S S E S S S S
|-----------------------------|-----------------------------|
|-----------------------------|-----------------------------|
|-----------------------------|---------------------------7-|
|-(7)-7-7-7-7-7-7-7-7-7-7-7-3-|-(3)-3-3-3-3-3-3-3-3-3-3-3-7-|
|-(7)-7-7-7-7-7-7-7-7-7-7-7-3-|-(3)-3-3-3-3-3-3-3-3-3-3-3-5-|
|-(5)-5-5-5-5-5-5-5-5-5-5-5-1-|-(1)-1-1-1-1-1-1-1-1-1-1-1---|
|
| Gtr II
| +S  S E S S E S S E S S S S   +S  S E S S E S S E S S S S
|-----------------------------|-----------------------------|
|-------------------8---------|-------6-----5-----5---------|
|-------9-----9-----9---------|-------5-----5-----5---------|
|-(7)-7-7-7-7-7-7-7-7-7-7-7-3-|-(3)-3-3-3-3-3-3-3-3-3-3-3-0-|
|-(7)-7-7-7-7-7-7-7-7-7-7-7-3-|-(3)-3-3-3-3-3-3-3-3-3-3-3-0-|
|-(7)-7-7-7-7-7-7-7-7-7-7-7-3-|-(3)-3-3-3-3-3-3-3-3-3-3-3-0-|


  D5                                E5  D5    E5
  +S  S  E    S  S  E      S  S  S  S S E     S
|-----------------------------------------------|
|-----------------------------------------------|
|-(7)-7--7----7--7--7------7--7--7S=9-9S7-----9-|
|-(7)-7--7----7--7--7------7--7--7S=9-9S7-----9-|
|-(5)-5--5----5--5--5------5--5--5S=7-7S5-----7-|
|-----------------------------------------------|
|
| +E     E.      E     S   E     Q        +S  S
|--------------------------8-----7--------(7)---|
|--------3-------5-----3------------------------|
|-----------------------------------------------|
|-(0)---(0)-----(0)---(0)-(0)---(0)-------(0)-0-|
|-(0)---(0)-----(0)---(0)-(0)---(0)-------(0)-0-|
|-(0)---(0)-----(0)---(0)-(0)---(0)-------(0)-0-|
|
| Gtr IV
|  PM-|     PM|     PM|       PM    PM  PM    PM-
|  S  S  S  S S  S  S  S   S  S  S  S S S  S  S
|--------7-------8---------7-----8----7----8----|
|-----------------------------------------------|
|-----7-------7--------7----------------------7-|
|--7--------7-------7---------7-----7---7-------|
|-----------------------------------------------|
|-----------------------------------------------|


                          C/F
  +S  S  E    S  S  E      S   S  E     S  S  S  S
|--------------------------------------------------|
|--------------------------------------------------|
|-(9)-9--9----9--9--9------9---9--9-----9--9--9----|
|-(9)-9--9----9--9--9-----10--10-10----10-10-10--7-|
|-(7)-7--7----7--7--7------8---8--8-----8--8--8--7-|
|------------------------------------------------5-|
|
| +E     E.      E     S   E      Q          +S  S
|--------------------------8------7----------(7)---|
|--------3-------5-----3---------------------------|
|--------------------------------------------------|
|-(0)---(0)-----(0)---(0)-(0)----(0)---------(0)-7-|
|-(0)---(0)-----(0)---(0)-(0)----(0)---------(0)-7-|
|-(0)---(0)-----(0)---(0)-(0)----(0)---------(0)-7-|
|
|-----|     PM|     PM|        PM    PM
|  S  S  S  S S  S  S  S   S   S  S  S  q
|-------10-------8--------10------8-----7----------|
|--------------------------------------------------|
|-----7-------7--------7---------------------------|
|--7--------7-------7----------7-----7-------------|
|--------------------------------------------------|
|--------------------------------------------------|


  A5                            F5
  +S  S E S S E S S E S S S S   +S  S E S S E S S E S S S  S
|-----------------------------|-------------------------------|
|-----------------------------|-------------------------------|
|-----------------------------|---------------------------16--|
|-(7)-7-7-7-7-7-7-7-7-7-7-7-3-|-(3)-3-3-3-3-3-3-3-3-3-3-3-----|
|-(7)-7-7-7-7-7-7-7-7-7-7-7-3-|-(3)-3-3-3-3-3-3-3-3-3-3-3-14--|
|-(5)-5-5-5-5-5-5-5-5-5-5-5-1-|-(1)-1-1-1-1-1-1-1-1-1-1-1-----|
|
| +S  S E S S E S S E S S S S   +S  S E S S E S S E S S S  S
|-----------------------------|-------------------------------|
|-------------------8---------|-------6-----5-----5-----------|
|-------9-----9-----9---------|-------5-----5-----5-----------|
|-(7)-7-7-7-7-7-7-7-7-7-7-7-3-|-(3)-3-3-3-3-3-3-3-3-3-3-3--0--|
|-(7)-7-7-7-7-7-7-7-7-7-7-7-3-|-(3)-3-3-3-3-3-3-3-3-3-3-3--0--|
|-(7)-7-7-7-7-7-7-7-7-7-7-7-3-|-(3)-3-3-3-3-3-3-3-3-3-3-3--0--|


  B
   +S   S  E   S  S   E      S   S  E   S  S  S   S
|---------------------------------------------------|
|---------------------------------------------------|
|-(16)-16-16--16-16--16-----16--16-16--16-16-16--17-|
|---------------------------------------------------|
|-(14)-14-14--14-14--14-----14--14-14--14-14-14--15-|
|---------------------------------------------------|
|
|  +E      E.     E      S   E      Q        +S   S
|----------------------------8------7--------(7)----|
|----------3------5------3--------------------------|
|---------------------------------------------------|
|--(0)----(0)----(0)----(0)-(0)----(0)-------(0)--0-|
|--(0)----(0)----(0)----(0)-(0)----(0)-------(0)--0-|
|--(0)----(0)----(0)----(0)-(0)----(0)-------(0)--0-|


  C                         B          G
   +S   S  E   S  S   E      S   S  E   S  S   S  S
|---------------------------------------------------|
|---------------------------------------------------|
|-(17)-17-17--17-17--17-----16--16-16--12-12---0----|
|----------------------------------------------0--7-|
|-(15)-15-15--15-15--15-----14--14-14--10-10---0--7-|
|-------------------------------------------------5-|
|
|  +E      E.     E      S   E      Q         +S  S
|---------------------------20-----19--------(19)---|
|---------15-----17-----15--------------------------|
|---------------------------------------------------|
|--(0)----(0)----(0)----(0)-(0)----(0)--------(0)-7-|
|--(0)----(0)----(0)----(0)-(0)----(0)--------(0)-7-|
|--(0)----(0)----(0)----(0)-(0)----(0)--------(0)-7-|


  A5                            F5
  +S  S E S S E S S E S S S S   +S  S E S S E S S E S S S S
|-----------------------------|------------------------------|
|-----------------------------|------------------------------|
|-----------------------------|---------------------------7--|
|-(7)-7-7-7-7-7-7-7-7-7-7-7-3-|-(3)-3-3-3-3-3-3-3-3-3-3-3-7--|
|-(7)-7-7-7-7-7-7-7-7-7-7-7-3-|-(3)-3-3-3-3-3-3-3-3-3-3-3-5--|
|-(5)-5-5-5-5-5-5-5-5-5-5-5-1-|-(1)-1-1-1-1-1-1-1-1-1-1-1----|
|
| +S  S E S S E S S E S S S S   +S  S E S S E S S E S S S S
|-------------------7---------|------------------------------|
|-------------8-----8---------|------------------------------|
|-------9-----9-----9---------|-------5-----4-----4----------|
|-(7)-7-7-7-7-7-7-7-7-7-7-7-3-|-(3)-3-3-3-3-3-3-3-3-3-3-3-0--|
|-(7)-7-7-7-7-7-7-7-7-7-7-7-3-|-(3)-3-3-3-3-3-3-3-3-3-3-3-0--|
|-(7)-7-7-7-7-7-7-7-7-7-7-7-3-|-(3)-3-3-3-3-3-3-3-3-3-3-3-0--|


  D5
  +S  S  E  S  S  E      S  S  E  S S  S  S
|-------------------------------------------|
|-------------------------------------------|
|-(7)-7--7--7--7--7------7--7--7--7-7--7--7s|
|-(7)-7--7--7--7--7------7--7--7--7-7--7--7s|
|-(5)-5--5--5--5--5------5--5--5--5-5--5--5s|
|-------------------------------------------|
|
| +E     E.    E     S   E     Q      +S  S
|------------------------8-----7------(7)---|
|--------3-----5-----3----------------------|
|-------------------------------------------|
|-(0)---(0)---(0)---(0)-(0)---(0)-----(0)-0-|
|-(0)---(0)---(0)---(0)-(0)---(0)-----(0)-0-|
|-(0)---(0)---(0)---(0)-(0)---(0)-----(0)-0-|


  E5
   S  S  E  S  S  E      S  S  E  S S  S  S
|-------------------------------------------|
|-------------------------------------------|
|--9--9--9--9--9--9------9--9--9--9-9--9----|
|--9--9--9--9--9--9------9--9--9--9-9--9--7-|
|--7--7--7--7--7--7------7--7--7--7-7--7--7-|
|-----------------------------------------5-|
|
| +E     E.    E     S   E     Q      +S  S
|------------------------8-----7------(7)---|
|--------3-----5-----3----------------------|
|-------------------------------------------|
|-(0)---(0)---(0)---(0)-(0)---(0)-----(0)-9-|
|-(0)---(0)---(0)---(0)-(0)---(0)-----(0)-7-|
|-(0)---(0)---(0)---(0)-(0)---(0)-----(0)-7-|


  A5                            F5
  +S  S E S S E S S E S S S S   +S  S E S S E S S E S S S S
|-----------------------------|------------------------------|
|-----------------------------|------------------------------|
|-----------------------------|---------------------------7--|
|-(7)-7-7-7-7-7-7-7-7-7-7-7-3-|-(3)-3-3-3-3-3-3-3-3-3-3-3-7--|
|-(7)-7-7-7-7-7-7-7-7-7-7-7-3-|-(3)-3-3-3-3-3-3-3-3-3-3-3-5--|
|-(5)-5-5-5-5-5-5-5-5-5-5-5-1-|-(1)-1-1-1-1-1-1-1-1-1-1-1----|
|
| +S  S E S S E S S E S S S S   +S  S E S S E S S E S S S S
|-------------------7---------|------------------------------|
|-------------8-----8---------|------------------------------|
|-------9-----9-----9---------|-------5-----4-----4----------|
|-(9)-9-9-9-9-9-9-9-9-9-9-9-3-|-(3)-3-3-3-3-3-3-3-3-3-3-3-0--|
|-(7)-7-7-7-7-7-7-7-7-7-7-7-3-|-(3)-3-3-3-3-3-3-3-3-3-3-3-0--|
|-(7)-7-7-7-7-7-7-7-7-7-7-7-3-|-(3)-3-3-3-3-3-3-3-3-3-3-3-0--|


  D5
  +S  S  E  S  S  E      S  S  E  S S  S  S
|-------------------------------------------|
|-------------------------------------------|
|-(7)-7--7--7--7--7------7--7--7--7-7--7--7s|
|-(7)-7--7--7--7--7------7--7--7--7-7--7--7s|
|-(5)-5--5--5--5--5------5--5--5--5-5--5--5s|
|-------------------------------------------|
|
| +E     E.    E     S   E     Q      +S  S
|------------------------8-----7------(7)---|
|--------3-----5-----3----------------------|
|-------------------------------------------|
|-(0)---(0)---(0)---(0)-(0)---(0)-----(0)-0-|
|-(0)---(0)---(0)---(0)-(0)---(0)-----(0)-0-|
|-(0)---(0)---(0)---(0)-(0)---(0)-----(0)-0-|


  E5
   S  S  E  S  S  E      S  S  E  S S  S  S
|-------------------------------------------|
|-------------------------------------------|
|--9--9--9--9--9--9------9--9--9--9-9--9----|
|--9--9--9--9--9--9------9--9--9--9-9--9--7-|
|--7--7--7--7--7--7------7--7--7--7-7--7--7-|
|-----------------------------------------5-|
|
| +E     E.    E     S   E     Q      +S  S
|------------------------8-----7------(7)---|
|--------3-----5-----3----------------------|
|-------------------------------------------|
|-(0)---(0)---(0)---(0)-(0)---(0)-----(0)-7-|
|-(0)---(0)---(0)---(0)-(0)---(0)-----(0)-7-|
|-(0)---(0)---(0)---(0)-(0)---(0)-----(0)-7-|


  A5                            F5
  +S  S E S S E S S E S S S S   +S  S E S S E S S E S S S S
|-----------------------------|------------------------------|
|-----------------------------|------------------------------|
|-----------------------------|---------------------------7--|
|-(7)-7-7-7-7-7-7-7-7-7-7-7-3-|-(3)-3-3-3-3-3-3-3-3-3-3-3-7--|
|-(7)-7-7-7-7-7-7-7-7-7-7-7-3-|-(3)-3-3-3-3-3-3-3-3-3-3-3-5--|
|-(5)-5-5-5-5-5-5-5-5-5-5-5-1-|-(1)-1-1-1-1-1-1-1-1-1-1-1----|
|
| +S  S E S S E S S E S S S S   +S  S E S S E S S E S S S S
|-----------------------------|------------------------------|
|-------------------8---------|-------6-----5-----5----------|
|-------9-----9-----9---------|-------5-----5-----5----------|
|-(7)-7-7-7-7-7-7-7-7-7-7-7-3-|-(3)-3-3-3-3-3-3-3-3-3-3-3-0--|
|-(7)-7-7-7-7-7-7-7-7-7-7-7-3-|-(3)-3-3-3-3-3-3-3-3-3-3-3-0--|
|-(7)-7-7-7-7-7-7-7-7-7-7-7-3-|-(3)-3-3-3-3-3-3-3-3-3-3-3-0--|


  D5                    E5       C/F                 E5
  +S  S E S S E S S E S E    S    +S   S  E  S  S  E S S E S S E
|------------------------------|---------------------------------|
|------------------------------|---------------------------------|
|-(7)-7-7-7-7-7-7-7-7-7-9----9-|--(9)--9--9--9--9--9-9-9-9-9-9-9-|
|-(7)-7-7-7-7-7-7-7-7-7-9---10-|-(10)-10-10-10-10-10-9-9-9-9-9-9-|
|-(5)-5-5-5-5-5-5-5-5-5-7----8-|--(8)--8--8--8--8--8-7-7-7-7-7-7-|
|------------------------------|---------------------------------|
|
| +S  S E S S E S S E S S S  S    +S   S  E  S  S  E S S E S S E
|-------0-----0-----0----------|----------0--------0-----0-----0-|
|-------3-----3-----3----------|----------3--------3-----3-----3-|
|-------2-----2-----2----------|----------2--------2-----2-----2-|
|-(0)-0-0-0-0-0-0-0-0-0-0-0--0-|--(0)--0--0--0--0--0-0-0-0-0-0-0-|
|-(0)-0-0-0-0-0-0-0-0-0-0-0--0-|--(0)--0--0--0--0--0-0-0-0-0-0-0-|
|-(0)-0-0-0-0-0-0-0-0-0-0-0--0-|--(0)--0--0--0--0--0-0-0-0-0-0-0-|


 Breakdown A
  Q=100
  E5              N.C.               E5              N.C.
  PM----------|                          PM      PM
                  |--3--|                            |--3--|
  S S E   S S E   S S   S E   Q      S S E   S S E   S S   S E   Q
|-------------------------3---3--||--------------------------3---3---||
|-----------------------3-----3--||o-----------------------3-----3--o||
|-----------------4h5---------5--||--4-4-----4-4-----4h5---------5---||
|-2-2-----2-2--------------------||--2-2-----2-2---------------------||
|-2-2-----2-2--------------------||o-2-2-----2-2--------------------o||
|-0-0-----0-0--------------------||--0-0-----0-0---------------------||
|
| PM----------|                      PM----------|
| S S S S S S S S S   S   S S Q      S S S S S S S S S   S   S S Q
|-----------------0-------0---3--||------------------0-------0---3---||
|-----------------0-------0---3--||o-----------------0-------0---3--o||
|---------------4-----5-----5-5--||----------------4-----5-----5-5---||
|--------------------------------||----------------------------------||
|-2-2---0-2-2--------------------||o-2-2---0-2-2--------------------o||
|-2-2---0-2-2--------------------||--2-2---0-2-2---------------------||


  E5              N.C.                 E5            N.C.
      PM      PM                           PM      PM
                  |--3--|                             |-3-|
  S S E   S S E   S S   S E    Q       S S E   S S E  S S S E       Q    4x
|-------------------------3----3---||-----------------------3-------3----||
|-----------------------3------3---||o--------------------3---------3---o||
|-4-4-----4-4-----4h5----------5---||--4-4-----4-4----4h5-----------5----||
|-2-2-----2-2----------------------||--2-2-----2-2-----------------------||
|-2-2-----2-2----------------------||o-2-2-----2-2----------------------o||
|-0-0-----0-0----------------------||--0-0-----0-0-----------------------||
|
| PM----------|                        PM----------|
| S S S S S S S S S   S   S S  Q       S S S S S S E  E.       +S   Q    4x
|-----------------0-------0--------||------------------------------------||
|-----------------0-------0--------||o---------------12-------(12)-12---o||
|---------------4-----5-----5-<5>--||----------------12-------(12)-12----||
|-----------------------------<5>--||----------------14-------(14)s10----||
|-2-2---0-2-2----------------------||o-2-2---0-2-2----------------------o||
|-2-2---0-2-2----------------------||--2-2---0-2-2-----------------------||


   Bridge
    (E5)
                   PM------------------|
    S E  S  S E S  S  S  S  S  S  S  S S
||---------------------------------------|
||o--------------------------------------|
||---------------------------------------|
||--2-2--2--2-2-2------------------------|
||o-2-2--2--2-2-2------------------------|
||--0-0--0--0-0-0--0--0--0--0--0--0--0-0-|
|
|   S E  S  S E S  S  S  S  S  S  E.
||---------------------------------------|
||o------------------13----13----15------|
||--4-4-(4)-4-4---16----16----16---------|
||--2-2--0--2-2--------------------------|
||o-2-2--0--2-2--------------------------|
||--2-2--0--2-2--------------------------|


  (E5)
                 PM-------------------|
  S E  S  S E S  S  S  S  S  S   S  S S
|----------------------------------------||
|---------------------------------------o||
|----------------------------------------||
|-2-2--2--2-2-2--------------------------||
|-2-2--2--2-2-2-------------------------o||
|-0-0--0--0-0-0--0--0--0--0--0---0--0-0--||
|
| S E  S  S E S  S  S  S  S  S   E.
|----------------------------------------||
|------------------13----13-----15------o||
|-4-4-(4)-4-4---16----16----16-(16)------||
|-2-2--0--2-2----------------------------||
|-2-2--0--2-2---------------------------o||
|-2-2--0--2-2----------------------------||


  (E5)                                 E5
 4/4
    PM-------------|
    S  S S S S S S S S S S S S S S S     q   H    E. S
|------------------------------------|-----------------|
|------------------------------------|-----------------|
|----------------------------9-9-9-9-|---9-------------|
|--------------------9-9-9-9-9-9-9-9-|---9-----------7-|
|--------------------7-7-7-7-7-7-7-7-|---7-----------7-|
|---0--0-0-0-0-0-0-0-0-0-0-0---------|---------------5-|
|
|  +W                                   +q   H    E. S
|------------------------------------|-----------------|
|-(15)-------------------------------|-(15)------------|
|-(16)-------------------------------|-(16)------------|
|------------------------------------|---------------7-|
|------------------------------------|---------------7-|
|------------------------------------|---------------7-|


 Chorus
  Q=110
  A5                            F5
  +S  S E S S E S S E S S S S   +S  S E S S E S S E S S S S
|-----------------------------|------------------------------|
|-----------------------------|------------------------------|
|-----------------------------|---------------------------7--|
|-(7)-7-7-7-7-7-7-7-7-7-7-7-3-|-(3)-3-3-3-3-3-3-3-3-3-3-3-7--|
|-(7)-7-7-7-7-7-7-7-7-7-7-7-3-|-(3)-3-3-3-3-3-3-3-3-3-3-3-5--|
|-(5)-5-5-5-5-5-5-5-5-5-5-5-1-|-(1)-1-1-1-1-1-1-1-1-1-1-1----|
|
| +S  S E S S E S S E S S S S   +S  S E S S E S S E S S S S
|-----------------------------|------------------------------|
|-----------------------------|------------------------------|
|-------9-----9-----9---------|-------5-----4----------------|
|-(7)-7-7-7-7-7-7-7-7-7-7-7-3-|-(3)-3-3-3-3-3-3-3-5-5-5-5-0--|
|-(7)-7-7-7-7-7-7-7-7-7-7-7-3-|-(3)-3-3-3-3-3-3-3-3-3-3-3-0--|
|-(7)-7-7-7-7-7-7-7-7-7-7-7-3-|-(3)-3-3-3-3-3-3-3-3-3-3-3-0--|


  D5                              E5  D5
  +S  S  E  S  S  E      S  S  S  S S E     S
|---------------------------------------------|
|---------------------------------------------|
|-(7)-7--7--7--7--7------7--7--7S=9-9S7-----9-|
|-(7)-7--7--7--7--7------7--7--7S=9-9S7-----9-|
|-(5)-5--5--5--5--5------5--5--5S=7-7S5-----7-|
|---------------------------------------------|
|
| +E     E.    E     S   E     Q        +S  S
|------------------------8-----7--------(7)---|
|--------3-----5-----3------------------------|
|---------------------------------------------|
|-(0)---(0)---(0)---(0)-(0)---(0)-------(0)-0-|
|-(0)---(0)---(0)---(0)-(0)---(0)-------(0)-0-|
|-(0)---(0)---(0)---(0)-(0)---(0)-------(0)-0-|


  E5                  C/F        E5
  +S   S  E  S  S  E   S    S  E S S S S
|----------------------------------------|
|----------------------------------------|
|-(9)--9--9--9--9--9---9----9--9-9-9-9---|
|-(9)--9--9--9--9--9--10---10-10-9-9-9-7-|
|-(7)--7--7--7--7--7---8----8--8-7-7-7-7-|
|--------------------------------------5-|
|
| +S   E.    E     E   Q..             S
|------------------8---7-----------------|
|------3-----5---------------------------|
|----------------------------------------|
|-(0)-(0)---(0)---(0)-(0)--------------7-|
|-(0)-(0)---(0)---(0)-(0)--------------7-|
|-(0)-(0)---(0)---(0)-(0)--------------7-|


  A5                            F5
  +S  S E S S E S S E S S S S   +S  S E S S E S S E S S S S
|-----------------------------|------------------------------|
|-----------------------------|------------------------------|
|-----------------------------|---------------------------7--|
|-(7)-7-7-7-7-7-7-7-7-7-7-7-3-|-(3)-3-3-3-3-3-3-3-3-3-3-3-7--|
|-(7)-7-7-7-7-7-7-7-7-7-7-7-3-|-(3)-3-3-3-3-3-3-3-3-3-3-3-5--|
|-(5)-5-5-5-5-5-5-5-5-5-5-5-1-|-(1)-1-1-1-1-1-1-1-1-1-1-1----|
|
| +S  S E S S E S S E S S S S   +S  S E S S E S S E S S S S
|-----------------------------|------------------------------|
|-------------8-----8---------|------------------------------|
|-------9-----9-----9---------|-------5-----4----------------|
|-(7)-7-7-7-7-7-7-7-7-7-7-7-3-|-(3)-3-3-3-3-3-3-3-5-5-5-5-0--|
|-(7)-7-7-7-7-7-7-7-7-7-7-7-3-|-(3)-3-3-3-3-3-3-3-3-3-3-3-0--|
|-(7)-7-7-7-7-7-7-7-7-7-7-7-3-|-(3)-3-3-3-3-3-3-3-3-3-3-3-0--|


  D5                  E5  D5      E5            C/F      E5
  +S  S E S S E S S S S S E   S   +S  S E S S E  S  S  E S S S S
|-------------------------------|--------------------------------|
|-------------------------------|--------------------------------|
|-(7)-7-7-7-7-7-7-7-7S9-9S7---9-|-(9)-9-9-9-9-9--9--9--9-9-9-9---|
|-(7)-7-7-7-7-7-7-7-7S9-9S7---9-|-(9)-9-9-9-9-9-10-10-10-9-9-9-7-|
|-(5)-5-5-5-5-5-5-5-5S7-7S5---7-|-(7)-7-7-7-7-7--8--8--8-7-7-7-7-|
|-------------------------------|------------------------------5-|
|
| +S  S E S S E S S E   S S S S   +S  S E S S E  S  S  E S S S S
|-------0-----0-----0-----------|-------0-----0--------0---------|
|-------3-----3-----3-----------|-------3-----3--------3---------|
|-------2-----2-----2-----------|-------2-----2--------2---------|
|-(0)-0-0-0-0-0-0-0-0---0-0-0-0-|-(0)-0-0-0-0-0--0--0--0-0-0-0-7-|
|-(0)-0-0-0-0-0-0-0-0---0-0-0-0-|-(0)-0-0-0-0-0--0--0--0-0-0-0-7-|
|-(0)-0-0-0-0-0-0-0-0---0-0-0-0-|-(0)-0-0-0-0-0--0--0--0-0-0-0-7-|


  A5                            F5
  +S  S E S S E S S E S S S S   +S  S E S S E S S E S S S S
|-----------------------------|------------------------------|
|-----------------------------|------------------------------|
|-----------------------------|---------------------------7--|
|-(7)-7-7-7-7-7-7-7-7-7-7-7-3-|-(3)-3-3-3-3-3-3-3-3-3-3-3-7--|
|-(7)-7-7-7-7-7-7-7-7-7-7-7-3-|-(3)-3-3-3-3-3-3-3-3-3-3-3-5--|
|-(5)-5-5-5-5-5-5-5-5-5-5-5-1-|-(1)-1-1-1-1-1-1-1-1-1-1-1----|
|
| +S  S E S S E S S E S S S S   +S  S E S S E S S E S S S S
|-----------------------------|------------------------------|
|-----------------------------|-------6-----6-----6----------|
|-------------9-----9---------|-------5-----4-----4----------|
|-(7)-7-9-7-7-9-7-7-9-7-7-7-3-|-(3)-3-3-3-3-3-3-3-5-5-5-5-0--|
|-(7)-7-7-7-7-7-7-7-7-7-7-7-3-|-(3)-3-3-3-3-3-3-3-3-3-3-3-0--|
|-(7)-7-7-7-7-7-7-7-7-7-7-7-3-|-(3)-3-3-3-3-3-3-3-3-3-3-3-0--|


  D5                          E5       C/F                     E5
  +S  S E   S S E   S S E   S E    S    +S   S  E    S  S  E    S S E   S S E
|------------------------------------|----------------------------------------|
|------------------------------------|----------------------------------------|
|-(7)-7-7---7-7-7---7-7-7---7-9----9-|--(9)--9--9----9--9--9----9-9-9---9-9-9-|
|-(7)-7-7---7-7-7---7-7-7---7-9---10-|-(10)-10-10---10-10-10----9-9-9---9-9-9-|
|-(5)-5-5---5-5-5---5-5-5---5-7----8-|--(8)--8--8----8--8--8----7-7-7---7-7-7-|
|------------------------------------|----------------------------------------|
|
| +S  S E   S S E   S S E   S S S  S    +S   S  E    S  S  E    S S E   S S E
|-------0-------0-------0------------|----------0----------0--------0-------0-|
|-------3-------3-------3------------|----------3----------3--------3-------3-|
|-------2-------2-------2------------|----------2----------2--------2-------2-|
|-(0)-0-0---0-0-0---0-0-0---0-0-0--0-|--(0)--0--0----0--0--0----0-0-0---0-0-0-|
|-(0)-0-0---0-0-0---0-0-0---0-0-0--0-|--(0)--0--0----0--0--0----0-0-0---0-0-0-|
|-(0)-0-0---0-0-0---0-0-0---0-0-0--0-|--(0)--0--0----0--0--0----0-0-0---0-0-0-|
|
| Gtr IV
|  PM-|   PM|   PM|   PM  PM  PM   PM-------|     PM|      PM|    PM  PM
|  S  S S S S S S S S S S S S S S  S     S   S  S S  S  S  S S  S S S S q
|-------7-----8-----7---8---7---8----|---------10-------8------10---8---7-----|
|------------------------------------|----------------------------------------|
|-----7-----7-----7----------------7-|-------7-------7-------7----------------|
|--7------7-----7-----7---7---7------|---7--------7--------7------7---7-------|
|------------------------------------|----------------------------------------|
|------------------------------------|----------------------------------------|


 Breakdown B
  Q=105
  (A5)
   S   S   S  S  S  S  S   S    S    S   S  S  S  S  S   S
|-----------------------------------------------------------|
|-----------------------------------------------------------|
|-----------------------------------------------------------|
|--7---7---7--7--7--7--7---7----7----7---7--7--7--7--7---7--|
|--7---7---7--7--7--7--7---7----7----7---7--7--7--7--7---7--|
|--5---0---5--0--5--0--5---0----5----0---5--0--5--0--5---0--|
|
|  S   S   S  S  S  S  S   S    S    S   S  S  S  S  S   S
|---------20-20-19-19-------------------20-20-19-19---------|
|-----17------------------17--(17)--17------------------17--|
|-19-(19)-------------19-(19)--19--(19)-------------19-(19)-|
|-----------------------------------------------------------|
|-----------------------------------------------------------|
|-----------------------------------------------------------|


  (F5)
    S    S   S  S  S  S  S   S    S    S   S  S  S  S S  S
|----------------------------------------------------------|
|----------------------------------------------------------|
|-------------------------------------------------------/7-|
|---3----3---3--3--3--3--3---3----3----3---3--3--3--3-3-/7-|
|---3----3---3--3--3--3--3---3----3----3---3--3--3--3-3-/5-|
|---1----0---1--0--1--0--1---0----1----0---1--0--1--0-1----|
|
|   S    S   S  S  S  S  S   S    S    S   S  S  S  S S  S
|-----------20-20-19-19-------------------20-20-19-19------|
|-(17)--17------------------17--(17)--17-------------------|
|--19--(19)-------------19-(19)--19--(19)-------------0----|
|-----------------------------------------------------0--0-|
|-----------------------------------------------------0--0-|
|--------------------------------------------------------0-|


  D5                          A5
  +S  +S  +E  +S  +S  +E        S   +S   +E   +S   +S   +S  S
|-------------------------------------------------------------|
|-------------------------------------------------------------|
|-(7)-(7)-(7)-(7)-(7)-(7)-----/14--(14)-(14)-(14)-(14)-(14)-9-|
|-(7)-(7)-(7)-(7)-(7)-(7)-----/14--(14)-(14)-(14)-(14)-(14)-9-|
|-(5)-(5)-(5)-(5)-(5)-(5)-----/12--(12)-(12)-(12)-(12)-(12)-7-|
|-------------------------------------------------------------|
|
| +E       E.      E       S    E         Q             +S  S
|-------------------------------8---------7-------------(7)---|
|----------3-------5-------3----------------------------------|
|-------------------------------------------------------------|
|-(0)-----(0)-----(0)-----(0)--(0)-------(0)------------(0)-0-|
|-(0)-----(0)-----(0)-----(0)--(0)-------(0)------------(0)-0-|
|-(0)-----(0)-----(0)-----(0)--(0)-------(0)------------(0)-0-|


  E5                    B
  +S  S  E  S  S  E      S  S  E  S S  E
|-----------------------------------------|
|-----------------------------------------|
|-(9)-9--9--9--9--9------4--4--4--4-4--4--|
|-(9)-9--9--9--9--9-----------------------|
|-(7)-7--7--7--7--7------2--2--2--2-2--2--|
|-----------------------------------------|
|
| +E     E.    E     S   E     Q      +E
|------------------------8-----7------(7)-|
|--------3-----5-----3--------------------|
|-----------------------------------------|
|-(0)---(0)---(0)---(0)-(0)---(0)-----(0)-|
|-(0)---(0)---(0)---(0)-(0)---(0)-----(0)-|
|-(0)---(0)---(0)---(0)-(0)---(0)-----(0)-|


  (A5)
   S   S   S  S  S  S  S   S    S    S   S  S  S  S  S   S
|-----------------------------------------------------------|
|-----------------------------------------------------------|
|-----------------------------------------------------------|
|--7---7---7--7--7--7--7---7----7----7---7--7--7--7--7---7--|
|--7---7---7--7--7--7--7---7----7----7---7--7--7--7--7---7--|
|--5---0---5--0--5--0--5---0----5----0---5--0--5--0--5---0--|
|
|  S   S   S  S  S  S  S   S    S    S   S  S  S  S  S   S
|---------20-20-19-19-------------------20-20-19-19---------|
|-----17------------------17--(17)--17------------------17--|
|-19-(19)-------------19-(19)--19--(19)-------------19-(19)-|
|-----------------------------------------------------------|
|-----------------------------------------------------------|
|-----------------------------------------------------------|


  (F5)
    S    S   S  S  S  S  S   S    S    S   S  S  S  S S  S
|----------------------------------------------------------|
|----------------------------------------------------------|
|-------------------------------------------------------/7-|
|---3----3---3--3--3--3--3---3----3----3---3--3--3--3-3-/7-|
|---3----3---3--3--3--3--3---3----3----3---3--3--3--3-3-/5-|
|---1----0---1--0--1--0--1---0----1----0---1--0--1--0-1----|
|
|   S    S   S  S  S  S  S   S    S    S   S  S  S  S S  S
|-----------20-20-19-19-------------------20-20-19-19------|
|-(17)--17------------------17--(17)--17-------------------|
|--19--(19)-------------19-(19)--19--(19)-------------0----|
|-----------------------------------------------------0--0-|
|-----------------------------------------------------0--0-|
|--------------------------------------------------------0-|


  D5                            D5
  +W                              Q       +Q         Q      Q
|-----------------------------|-----------------------------------|
|-----------------------------|-----------------------------------|
|-(7)-------------------------|-/14------(14)\-----/17-----16-----|
|-(7)-------------------------|-----------------------------------|
|-(5)-------------------------|-/12------(12)\-----/15-----14-----|
|-----------------------------|-----------------------------------|
|
| +S  S E S S E S S E S S S S    +S  S E   S   S E   S S E  S S E
|-------0-----0-----0---------|--------8---------8-------8------8-|
|-------3-----3-----3---------|--------6---------6-------6------6-|
|-------2-----2-----2-------7-|--(7)---7---------7-------7------7-|
|-(0)-0-0-0-0-0-0-0-0-0-0-0-0-|--(0)-0-0---0---0-0---0-0-0--0-0-0-|
|-(0)-0-0-0-0-0-0-0-0-0-0-0-0-|--(0)-0-0---0---0-0---0-0-0--0-0-0-|
|-(0)-0-0-0-0-0-0-0-0-0-0-0-0-|--(0)-0-0---0---0-0---0-0-0--0-0-0-|


 Outro
  A5                                A5
  S S S S S S S S S S S S S S S S    S S S S  S S S S S S S S S S S S
|---------------------------------|-----------------------------------|
|---------------------------------|-----------------------------------|
|---------------------------------|-----------------------------------|
|-7-7-7-7-7-7-7-7-7-7-7-7-7-7-7-7-|--7-7-7-7--7-7-7-7-7-7-7-7-7-7-7-7-|
|-7-7-7-7-7-7-7-7-7-7-7-7-7-7-7-7-|--7-7-7-7--7-7-7-7-7-7-7-7-7-7-7-7-|
|-5-5-5-5-5-5-5-5-5-5-5-5-5-5-5-5-|--5-5-5-5--5-5-5-5-5-5-5-5-5-5-5-5-|
|
|                             TP     TP       TP      TP
| S S S S S S S S S S S S S S E      Q        Q       H
|---------------------------------|-----------------------------------|
|---------------------------------|-----------------------------------|
|---------------------------------|-----------------------------------|
|-7-7-7-7-7-7-7-7-7-7-7-7-7-7-9---|-10-------12-------9---------------|
|-7-7-7-7-7-7-7-7-7-7-7-7-7-7-----|-----------------------------------|
|-7-7-7-7-7-7-7-7-7-7-7-7-7-7-----|-----------------------------------|
|
| Gtr IV
| TP                                 TP
| W                                  W
|-5-------------------------------|--5--------------------------------|
|---------------------------------|-----------------------------------|
|---------------------------------|-----------------------------------|
|---------------------------------|-----------------------------------|
|---------------------------------|-----------------------------------|
|---------------------------------|-----------------------------------|


                               H=H
  A5                           A5            A5
 5/4                          4/4
  S S S S S S S S H.           q  Q  q  Q    q  Q  q   Q
|----------------------------|-------------|---------------|
|----------------------------|-------------|---------------|
|----------------------------|-------------|---------------|
|-7-7-7-7-7-7-7-7-7----------|-7-----7-----|-7-----7-------|
|-7-7-7-7-7-7-7-7-7----------|-7-----7-----|-7-----7-------|
|-5-5-5-5-5-5-5-5-5----------|-5-----5-----|-5-----5-------|
|
| TP
| H               H.           q  Q  q  Q    q  Q  q   Q
|----------------------------|-------------|---------------|
|----------------------------|-------------|---------------|
|----------------------------|-------------|---------------|
|-9---------------9----------|-9-----9-----|-9-----9-------|
|----------------------------|-7-----7-----|-7-----7-------|
|----------------------------|-7-----7-----|-7-----7-------|
|
| TP                     TP    TP    TP      TP TP TP  TP
| W                     +Q     H     H       Q  Q  Q   Q
|-5---------------------(5)--|-5-----6-----|-7--8--9--10---|
|----------------------------|-------------|---------------|
|----------------------------|-------------|---------------|
|----------------------------|-------------|---------------|
|----------------------------|-------------|---------------|
|----------------------------|-------------|---------------|


                                        Q=160
  A5                A5                  A5
   q   Q   q   Q     q   Q   q   Q       W           +W
|-----------------|-------------------|-----------|---------|
|-----------------|-------------------|-----------|---------|
|-----------------|-------------------|-----------|---------|
|--7-------7------|--7-------7--------|--7--------|--(7)----|
|--7-------7------|--7-------7--------|--7--------|--(7)----|
|--5-------5------|--5-------5--------|--5--------|--(5)----|
|
|                                        TP           TP
|  q   Q   q   Q     q   Q   q   Q       W           +W
|-----------------|-------------------|-----------|---------|
|-----------------|-------------------|-----------|---------|
|-----------------|-------------------|-----------|---------|
|--9-------9------|--9-------9--------|--9--------|--(9)----|
|--7-------7------|--7-------7--------|--7--------|--(7)----|
|--7-------7------|--7-------7--------|--7--------|--(7)----|
|
|  TP  TP  TP  TP    TP  TP  TP  TP TP   TP           TP
|  Q   Q   Q   Q     Q   Q   Q   E  E    W           +W
|-11--12--13--14--|-15--16--17--18-19-|-20--------|-(20)----|
|-----------------|-------------------|-----------|---------|
|-----------------|-------------------|-----------|---------|
|-----------------|-------------------|-----------|---------|
|-----------------|-------------------|-----------|---------|
|-----------------|-------------------|-----------|---------|


                          A5
   +W            +H.        Q      W
|-------------|------------------|------*|
|-------------|------------------|------*|
|-------------|------------------|------*|
|--(7)--------|--(7)--------7----|------*|
|--(7)--------|--(7)--------7----|------*|
|--(5)--------|--(5)--------5----|------*|
|
|  +W            +H.        Q      W
|-------------|------------------|------*|
|-------------|------------------|------*|
|-------------|------------------|------*|
|--(9)--------|--(9)--------9----|------*|
|--(7)--------|--(7)--------7----|------*|
|--(7)--------|--(7)--------7----|------*|
|
|  +W            +H.       +Q      W
|-(20)--------|-(20)------(20)\--|------*|
|-------------|------------------|------*|
|-------------|------------------|------*|
|-------------|------------------|------*|
|-------------|------------------|------*|
|-------------|------------------|------*|


Duration Legend
---------------
W - whole; H - half; Q - quarter; E - 8th; S - 16th; T - 32nd; X - 64th; a - acciaccatura
+ - note tied to previous; . - note dotted; .. - note double dotted
Uncapitalized letters represent notes that are staccato (1/2 duration)
Irregular groupings are notated above the duration line
Duration letters will always appear directly above the note/fret number it represents the
duration for.  Duration letters with no fret number below them represent rests.  Multi-
bar rests are notated in the form Wxn, where n is the number of bars to rest for.  Low
melody durations appear below the staff

Tablature Legend
----------------
 h   - hammer-on
 p   - pull-off
 b   - bend
 pb  - pre-bend
 r   - bend release (if no number after the r, then release immediately)
 /\  - slide into or out of (from/to "nowhere")
 s   - legato slide
 S   - shift slide
  - natural harmonic
[n]  - artificial harmonic
n(n) - tapped harmonic
 ~   - vibrato
 tr  - trill
 T   - tap
 TP  - trem. picking
 PM  - palm muting
\n/  - tremolo bar dip; n = amount to dip
 \n  - tremolo bar down
 n/  - tremolo bar up
/n\  - tremolo bar inverted dip
 =   - hold bend; also acts as connecting device for hammers/pulls
 <>  - volume swell (louder/softer)
 x   - on rhythm slash represents muted slash
 o   - on rhythm slash represents single note slash

Misc Legend
-----------
 |  - bar
||  - double bar
||o - repeat start
o|| - repeat end
*|  - double bar (ending)
 :  - bar (freetime)
 $  - Segno
 &  - Coda
Tempo markers -  = BPM(8/16=s8/s16), where s8 = swing 8ths, s16 = swing 16ths


*
comments
print report bad tab
3 comments total.
0 reply
stumaster18 wrote on October 16 2005, 03:37 pm

good tab

0 reply
Razorhead wrote on August 11 2006, 08:56 pm

sloppy and wade's part in the intro is wrong I think. . and what's with it switching from a drop d A5 to a standard A5? I mean I know it was just a mistake or whatever but it's sloppy tha's all...

0 reply
dbruneau wrote on January 15 2008, 07:47 pm

the tab's right, and one of the guitar parts is in Eb and one is in Db, thats why the A5s are different.

I want to post or [tab]
guest
You may want to rate the tab now too:
select rating
Please do not post tabs as comments. Select "correction" instead!