Oops, an error
Loading. Please wait.

A Dagger Through The Heart Of St Angeles Tab

ver3
ver3

Whole song

Interactive

More versions @911Tabs.com
769 views 9 this week
no commentswrite comment
1 2 3 4 5
excellent!
x 1
Autoscroll
+/-
esc
set tempo
stop
Contributor
NEW! There's an official Ultimate Guitar app which is ideal
for learning songs when you're away from computer. Get the app
WARNING: You are trying to view
                                    content from Ultimate-Guitar.com
                                    in an unauthorized application,
                                    which is prohibited.

                                    Please use an official Ultimate
                                    Guitar Tabs application for iPhone,
                                    iPad or Android to access legitimate
                                    chords, guitar, bass, and drum tabs
                                    from Ultimate-Guitar.com database.

                                    Type "ultimate guitar tabs" in Apple
                                    App Store's or Android Market's
                                    search to find the application.
-----------------------------------------------------------------------------------
                                 A Dagger Through The Heart Of St. Angeles                           
----------|------------------------------------------------------------------------

Im not sure if this is exactly perfect but this is wat
It sounds like to me.******Oh and It's in "drop each tuning
to eb Bb Gb Db Ab Eb.******

Tuning: 1 step down

Tabbed By: Eric Cartman
E-mail: anywho_8@hotmail.com

behind the bar-|
eb|------------|
Bb|------------|
f#|------------|
C#|------------|
G#|------------|
Eb|------------|


eb|--------------------3-2-0-------3-2-0--------------------3-2-0-------------|
Bb|--------------3-1-0-------3-1-0--------------------3-1-0-------------------|
F#|-9-9--9--9--9-------------------------5-5--5--5--5-------------------------|
C#|-8-8--8--8--8-------------------------5-5--5--5--5-------------------------|x4
G#|-7-7--7--7--7-------------------------3-3--3--3--3-------------------------|
Eb|---------------------------------------------------------------------------|

eb|-0--------3----2-|
Bb|-----2-----------|
F#|-----------------|x1
C#|-----------------|
G#|-----------------|
Eb|-----------------|


eb|-----------------------------------------------------------------|
Bb|-----------------------------------------------------------------|
F#|-9-9-9-9-9-9-9-9-8-8-8-8-8-8-8-8-7-7-7-7-7-7-7-7-6-6-6-6-6-6-6-6-|
C#|-8-8-8-8-8-8-8-8-7-7-7-7-7-7-7-7-6-6-6-6-6-6-6-6-5-5-5-5-5-5-5-5-|x2
G#|-7-7-7-7-7-7-7-7-6-6-6-6-6-6-6-6-5-5-5-5-5-5-5-5-4-4-4-4-4-4-4-4-|
Eb|-----------------------------------------------------------------|

eb|-----------------------------------------------------|
Bb|-------------------------------------7-8-7---7-8-7---|
Bb|-------------------------------------------7-------7-|
F#|-----8---8---8---8-----8---8---8---8-----------------|x2
C#|-----7---7---7---7-----7---7---7---7-----------------|
G#|-6-6-6-6-6-6-6-6-6-6-6-6-6-6-6-6-6-6-----------------|
Eb|-----------------------------------------------------|
Pm  . .   .   .   .   . .   .   .   .

eb|---------------------------------|
Bb|---------------------------------|
F#|-5-5-5-5-5-5-5-5-9-9-9-9-9-9-9-9-|
C#|-5-5-5-5-5-5-5-5-9-9-9-9-9-9-8-8-|
G#|-3-3-3-3-3-3-3-3-7-7-7-7-7-7-7-7-|
Eb|---------------------------------|

eb|----------------------------------------------|
Bb|----------------------------------------------|
F#|-5-5-5-5-5-5-5-5-9-9-9-9-9-9-9-9--9-8-9--9--9-|
C#|-5-5-5-5-5-5-5-5-9-9-9-9-9-9-8-8--8-8-8--8--8-|
G#|-3-3-3-3-3-3-3-3-7-7-7-7-7-7-7-7--7-7-7--7--7-|
Eb|----------------------------------------------|

eb|---------------------------------|
Bb|---------------------------------|
F#|-5-5-5-5-5-5-5-5-9-9-9-9-9-9-9-9-|
C#|-5-5-5-5-5-5-5-5-9-9-9-9-9-9-8-8-|
G#|-3-3-3-3-3-3-3-3-7-7-7-7-7-7-7-7-|
Eb|---------------------------------|

eb|----------------------------------------------|
Bb|----------------------------------------------|
F#|-5-5-5-5-5-5-5-5-9-9-9-9-9-9-9-9--9-8-9--9--9-|
C#|-5-5-5-5-5-5-5-5-9-9-9-9-9-9-8-8--8-8-8--8--8-|
G#|-3-3-3-3-3-3-3-3-7-7-7-7-7-7-7-7--7-7-7--7--7-|
Eb|----------------------------------------------|

eb|---------------------------------|
Bb|---------------------------------|
F#|-5-5-5-5-5-5-5-5-9-9-9-9-9-9-9-9-|
C#|-5-5-5-5-5-5-5-5-9-9-9-9-9-9-8-8-|
G#|-3-3-3-3-3-3-3-3-7-7-7-7-7-7-7-7-|
Eb|---------------------------------|

eb|---------------------------|
Bb|---------------------------|
F#|---------------------------|
C#|-9-------9-------9-------9-|
G#|-8-------8-------8-------8-|
Eb|-7-------7-------7-------7-|

eb|---------------------|
Bb|---------------------|
F#|-5-5-----------------|
C#|-5-5-----------------|x14
G#|-3-3-3-2-0-5-2-2-3-3-|
Eb|---------------------|

eb|------------------------------------------------------------------------|
Bb|------------------------------------------------------------------------|
F#|-12---------12-12-12-12-12-12-11-11-11-11-12-12-----4-----4----4------4-|
C#|-x----------x--x--x--x--x--x--x--x--x--x--x--x----5-----5-----5-----5---|
G#|-10---------10-10-10-10-10-10-9--9--9--9--10-10-3-----3-----3-----3-----|
Eb|------------------------------------------------------------------------|

eb|-------------------------------------|
Bb|-------------------------------------|
F#|-12-12-12-12-12-11-11-11-11-12-12-12-|
C#|-x--x--x--x--x--x--x--x--x--x--x--x--|
G#|-10-10-10-10-10-10-9--9--9--9--10-10-|
Eb|-------------------------------------|

eb|----------------------------------|
Bb|----------------------------------|
F#|-----0-------0--------0-------0---|
C#|---5---5---5---5----7---7---5---5-|x2
G#|-3-------2-------/5-------3-------|
Eb|----------------------------------|

eb|---------------------------------|
Bb|-----3-------3-------------------|
F#|---------------------4-------4---|
C#|---5---5---5---5---5---5---5---5-|x2
G#|-3-------2------/5-------5-------|
Eb|---------------------------------|

eb|----------------------------------|
Bb|----------------------------------|
F#|-----0-------0--------0-------0---|
C#|---5---5---5---5----7---7---5---5-|x4
G#|-3-------2-------/5-------3-------|
Eb|----------------------------------|

eb|----------------------------------|
Bb|----------------------------------|
F#|-----0-------0-------0-------0----|
C#|---5---5---5---5---5---5---5---5--|
G#|-3-------3-------3-------3--------|
Eb|----------------------------------|

eb|----------------------------------|
Bb|-----3-------3-------3-------3----|
F#|----------------------------------|x2
C#|---5---5---5---5---5---5---5---5--|
G#|-3-------3-------3-------3--------|
Eb|----------------------------------|

eb|---|
Bb|-3-|
F#|-x-|
C#|-5-|
G#|-3-|
Eb|---|


|
|  Q        Q        Q        Q          Q         Q        Q        Q
|-------------------------------------|----------------------------------|
|-------------------------------------|----------------------------------|
|-------------------------------------|----------------------------------|
|--2--------2--------2--------2-------|--5---------5--------5--------5---|
|--2--------2--------2--------2-------|--5---------5--------5--------5---|
|--0--------0--------0--------0-------|--3---------3--------3--------3---|


   |-3-| |-3-| |-3-| |-3-|   |-3-| |-3-| |-3-|
   E E E E E E E E E E E E   E E E E E E E E E Q
|--------------------------|-----------------------|
|--------------------------|-----------------------|
|--5-5-5-4-4-4-2-2-2-4-4-4-|-5-5-5-4-4-4-5-5-5-5\--|
|--------------------------|-----------------------|
|--------------------------|-----------------------|
|--------------------------|-----------------------|
|
|  ~~~~~~~~~~~~~~~~~~~~~~~~~~~~
|  W                         W
|--------------------------|-----------------------|
|--------------------------|-----------------------|
|--------------------------|-----------------------|
|-/5-----------------------|-4---------------------|
|--------------------------|-----------------------|
|--------------------------|-----------------------|
|
|  Q     Q     Q     Q       Q     Q     Q     Q
|--------------------------|-----------------------|
|--------------------------|-----------------------|
|--5-----5-----5-----5-----|-2-----2-----2-----2---|
|--5-----5-----5-----5-----|-2-----2-----2-----2---|
|--3-----3-----3-----3-----|-0-----0-----0-----0---|
|--------------------------|-----------------------|


   |-3-| |-3-| |-3-| |-3-|    |-3--| |-3-| |-3-| |-3-|
   E E E E E E E E E E E E    E  E E E E E E E E E E E
|--------------------------|---------------------------|
|--------------------------|---------------------------|
|--7-7-7-4-4-4-5-5-5-4-4-4-|--2--2-2-4-4-4-5-5-5-0-0-0-|
|--------------------------|---------------------------|
|--------------------------|---------------------------|
|--------------------------|---------------------------|
|
|  ~~~~~~~~~~~~~~~~~~~~~~~~~~~~~~
|  W                         +W
|--------------------------|---------------------------|
|--------------------------|---------------------------|
|--------------------------|---------------------------|
|-/2-----------------------|-(2)-----------------------|
|--------------------------|---------------------------|
|--------------------------|---------------------------|
|
|  Q     Q     Q     Q        Q      Q     Q     Q
|--------------------------|---------------------------|
|--------------------------|---------------------------|
|--------------------------|---------------------------|
|--2-----2-----2-----2-----|--5------5-----5-----5-----|
|--2-----2-----2-----2-----|--5------5-----5-----5-----|
|--0-----0-----0-----0-----|--3------3-----3-----3-----|


   TP    TP     TP   TP
   Q.    H      E   +Q    Q.     Q.
|-----------------|--------------------|
|-----------------|--------------------|
|--7-----5------4-|-(4)----------------|
|-----------------|------/5\----/9\----|
|-----------------|--------------------|
|-----------------|-------0------0-----|
|
|  ~~~~~~~~~~~~~~~~~~~~~
|  W                 W
|-----------------|--------------------|
|-----------------|--------------------|
|-----------------|--------------------|
|-/5--------------|--4-----------------|
|-----------------|--------------------|
|-----------------|--------------------|
|
|  Q   Q   Q  Q      Q    Q   Q     Q
|-----------------|--------------------|
|-----------------|--------------------|
|--5---5---5--5---|--2----2---2-----2--|
|--5---5---5--5---|--2----2---2-----2--|
|--3---3---3--3---|--0----0---0-----0--|
|-----------------|--------------------|


 Out-Chorus
  E5                   G
 6/4
  Q.   Q  E Q  Q  Q    Q.   Q  E Q  Q  E E
|--------------------|---------------------|
|--------------------|-0----0--0-0--0--x-x-|
|--------------------|-5----5--5-5--5--x-x-|
|-2----2--2-2--2--2--|-5----5--5-5--5--x-x-|
|-2----2--2-2--2--2--|-x----x--x-x--x--x-x-|
|-0----0--0-0--0--0--|-3----3--3-3--3--x-x-|
|
| Q.   Q  E Q  Q  Q    Q.   Q  E Q  Q  Q
|--------------------|---------------------|
|--------------0--0--|-0----0--0-0--0--0---|
|--------------0--0--|-0----0--0-0--0--0---|
|-2----2--2-2--2--2--|-5----5--5-5--5--5---|
|-2----2--2-2--2--2--|-5----5--5-5--5--5---|
|-0----0--0-0--0--0--|-3----3--3-3--3--3---|


  G5/C                 A5/D  Gmaj9/B
   Q.    Q   E  Q   Q   Q    Q.   Q  E  Q  Q  Q
|--------------------------|----------------------|
|--------------------------|----------------------|
|--------------------------|----------------------|
|--9-----9---9--9---9---9--|-7----7--7-/9--9--9\--|
|--x-----x---x--x---x---x--|-x----x--x-/x--x--x\--|
|--7-----7---7--7---7---7--|-5----5--5-/7--7--7\--|
|
|  Q.    Q   E  Q   Q   Q    Q.   Q  E  Q  Q  Q
|--------------------------|----------------------|
|--------------------------|-0----0--0--0--0--0---|
|--------------------------|-0----0--0--0--0--0---|
|-12----12--12-12--12--14--|-7----7--7--9--9--9\--|
|-10----10--10-10--10--12--|-7----7--7--7--7--7\--|
|--8-----8---8--8---8--10--|-5----5--5--5--5--5\--|


    Em                   G
    Q.   Q  E Q  Q  Q    Q.   Q  E Q  Q  Q
||---------------------|--------------------|
||o--------------------|--------------------|
||---------------------|-5----5--5-5--5--5--|
||--2----2--2-2--2--2--|-5----5--5-5--5--5--|
||o-2----2--2-2--2--2--|-x----x--x-x--x--x--|
||--0----0--0-0--0--0--|-3----3--3-3--3--3--|
|
|   Q.   Q  E Q  Q  Q    Q.   Q  E Q  Q  Q
||---------------------|--------------------|
||o-0----0--0-0--0--0--|-0----0--0-0--0--0--|
||--0----0--0-0--0--0--|-0----0--0-0--0--0--|
||--2----2--2-2--2--2--|-5----5--5-5--5--5--|
||o-2----2--2-2--2--2--|-5----5--5-5--5--5--|
||--0----0--0-0--0--0--|-3----3--3-3--3--3--|


  G5/C                 A5/D  Gmaj9/B
   Q.    Q   E  Q   Q   Q    Q.   Q  E  Q  Q  Q    3x
|--------------------------|-----------------------||
|--------------------------|----------------------o||
|--------------------------|-----------------------||
|--9-----9---9--9---9---9--|-7----7--7-/9--9--9\---||
|--x-----x---x--x---x---x--|-x----x--x-/x--x--x\--o||
|--7-----7---7--7---7---7--|-5----5--5-/7--7--7\---||
|
|  Q.    Q   E  Q   Q   Q    Q.   Q  E  Q  Q  Q    3x
|--------------------------|-----------------------||
|--------------------------|-0----0--0--0--0--0---o||
|--------------------------|-0----0--0--0--0--0----||
|-12----12--12-12--12--14--|-7----7--7--9--9--9\---||
|-10----10--10-10--10--12--|-7----7--7--7--7--7\--o||
|--8-----8---8--8---8--10--|-5----5--5--5--5--5\---||


  Gadd11/C
   E  q   q   E  q   q   q     E  q   q   E  q   q   q
|---------------------------|---------------------------|
|---------------------------|---------------------------|
|---------------------------|---------------------------|
|-10-10--10--10-10--10--10--|-10-10--10--10-10--10--10--|
|-10-10--10--10-10--10--10--|-10-10--10--10-10--10--10--|
|--8--8---8---8--8---8---8--|--8--8---8---8--8---8---8--|
|
|  E  q   q   E  q   q   q     E  q   q   E  q   q   q
|---------------------------|---------------------------|
|--0--0---0---0--0---0---0--|--0--0---0---0--0---0---0--|
|--0--0---0---0--0---0---0--|--0--0---0---0--0---0---0--|
|-10-10--10--10-10--10--10--|-10-10--10--10-10--10--10--|
|-10-10--10--10-10--10--10--|-10-10--10--10-10--10--10--|
|--8--8---8---8--8---8---8--|--8--8---8---8--8---8---8--|


   E  q   q   E  q   q   q     q  W               Q
|---------------------------|--------------------------|
|---------------------------|--------------------------|
|---------------------------|--------------------------|
|-10-10--10--10-10--10--10--|-10-----------------------|
|-10-10--10--10-10--10--10--|-10-----------------------|
|--8--8---8---8--8---8---8--|--8-----------------------|
|
|                                   Gtr IV
|                                    >
|  E  q   q   E  q   q   q     q  E  q.   e  q.   e  e
|---------------------------|--------------------------|
|--0--0---0---0--0---0---0--|--0-----0-------0-------0-|
|--0--0---0---0--0---0---0--|--0-----0-------0-------0-|
|-10-10--10--10-10--10--10--|-10----10------10------10-|
|-10-10--10--10-10--10--10--|-10----10------10------10-|
|--8--8---8---8--8---8---8--|--8-----8-------8-------8-|


    W.
|-----------------------------*|
|-----------------------------*|
|-----------------------------*|
|-----------------------------*|
|-----------------------------*|
|-----------------------------*|
|
|                  >
|  +q   E  q.   e  q.   e  e
|-----------------------------*|
|--(0)-----0-------0-------0--*|
|--(0)-----0-------0-------0--*|
|-(10)----10------10------10--*|
|-(10)----10------10------10--*|
|--(8)-----8-------8-------8--*|


Finaly finished
comments
We did not receive enough feedback on this tab! Please rate:
print report bad tab
1 2 3 4 5
I want to post or [tab]
guest
You may want to rate the tab now too:
select rating
Please do not post tabs as comments. Select "correction" instead!