Oops, an error
Loading. Please wait.

Accidents Tab

ver3
ver3

Intro

Whole song

Interactive

More versions @911Tabs.com
27,815 views 39 this week
9 commentsread comments
1 2 3 4 5
excellent!
x 18
Autoscroll
+/-
esc
set tempo
stop
Contributor
Hey! There's an official Ultimate Guitar app which is ideal
for learning songs when you're away from computer. Get the app
WARNING: You are trying to view
                                    content from Ultimate-Guitar.com
                                    in an unauthorized application,
                                    which is prohibited.

                                    Please use an official Ultimate
                                    Guitar Tabs application for iPhone,
                                    iPad or Android to access legitimate
                                    chords, guitar, bass, and drum tabs
                                    from Ultimate-Guitar.com database.

                                    Type "ultimate guitar tabs" in Apple
                                    App Store's or Android Market's
                                    search to find the application.
Song: Accidents
Band: Alexisonfire
Album: Watch Out!
Tuning: Drop D and Dropped half a step (Db Ab Db Gb Bb eb)
%%%%%%%%%%%%%%%%%%%%%%%%%%%%%%%%%%%%%%%%%%%%%%%%%%%%%%%%%%%%%%%%%%%%%%%%%%%%%%%%%%%%%%%%%%%%%%%%%%%%%%%
%%%%%%%%%%%%%%%%%%%%%%%%%%%%%%%%%%%%%% Rhythm Guitar %%%%%%%%%%%%%%%%%%%%%%%%%%%%%%%%%%%%%%%%%%%%%%%%%%
%%%%%%%%%%%%%%%%%%%%%%%%%%%%%%%%%%%%%%%%%%%%%%%%%%%%%%%%%%%%%%%%%%%%%%%%%%%%%%%%%%%%%%%%%%%%%%%%%%%%%%%

1. 0:00-0:22
|-----------------------------------------------------------------------|
|-----------------------------------------------------------------------|
|-------------6---------------------------------------------------------|
|-9/11-9-7/9--4---------------------------------------------------------|
|-x--x-x-x-x--4---------------------------------------------------------|
|-9/11-9-7/9--4---------------------------------------------------------|

|-----------------------------------------------------------------------|
|-----------------------------------------------------------------------|
|-------------2---------------------------------------------------------|
|-------------0---------------------------------------------------------|
|-------------0---------------------------------------------------------|
|-------------0---------------------------------------------------------|

|-----------------------------------------------------------------------|
|-----------------------------------------------------------------------|
|-------------6---------------------------------------------------------|
|-------------4---------------------------------------------------------|
|-------------4---------------------------------------------------------|
|-------------4---------------------------------------------------------|

|-----------------------------------------------------------------------|
|-----------------------------------------------------------------------|
|-------------0--------------------------------------------14-13-9/11---|
|-------------0---------------------------------------------x--x-x--x---|
|-------------0--------------------------------------------12-11-7/-9---|
|-------------0---------------------------------------------------------|

2. 0:23-0:40
|-4-4-4-4-4-4-4-4-4-4-4-4-4-4-4-4-4-4-4-4-4-4-4-4-4-4-4-4-4-4-4-4-4-4-4-|
|-7-7-7-7-7-7-7-7-7-7-7-7-7-7-7-7-7-7-7-7-7-7-7-7-7-7-7-7-7-7-7-7-7-7-7-|
|-6-6-6-6-6-6-6-6-6-6-6-6-6-6-6-6-6-6-6-6-6-6-6-6-6-6-6-6-6-6-6-6-6-6-6-|
|-4-4-4-4-4-4-4-4-4-4-4-4-4-4-4-4-4-4-4-4-4-4-4-4-4-4-4-4-4-4-4-4-4-4-4-|
|-4-4-4-4-4-4-4-4-4-4-4-4-4-4-4-4-4-4-4-4-4-4-4-4-4-4-4-4-4-4-4-4-4-4-4-|
|-4-4-4-4-4-4-4-4-4-4-4-4-4-4-4-4-4-4-4-4-4-4-4-4-4-4-4-4-4-4-4-4-4-4-4-|

|-0-0-0-0-0-0-0-0-0-0-0-0-0-0-0-0-0-0-0-0-0-0-0-0-0-0-0-0-0-0-0-0-0-0-0-|
|-3-3-3-3-3-3-3-3-3-3-3-3-3-3-3-3-3-3-3-3-3-3-3-3-3-3-3-3-3-3-3-3-3-3-3-|
|-2-2-2-2-2-2-2-2-2-2-2-2-2-2-2-2-2-2-2-2-2-2-2-2-2-2-2-2-2-2-2-2-2-2-2-|
|-0-0-0-0-0-0-0-0-0-0-0-0-0-0-0-0-0-0-0-0-0-0-0-0-0-0-0-0-0-0-0-0-0-0-0-|
|-0-0-0-0-0-0-0-0-0-0-0-0-0-0-0-0-0-0-0-0-0-0-0-0-0-0-0-0-0-0-0-0-0-0-0-|
|-0-0-0-0-0-0-0-0-0-0-0-0-0-0-0-0-0-0-0-0-0-0-0-0-0-0-0-0-0-0-0-0-0-0-0-|

|-4-4-4-4-4-4-4-4-4-4-4-4-4-4-4-4-4-4-4-4-4-4-4-4-4-4-4-4-4-4-4-4-4-4-4-|
|-7-7-7-7-7-7-7-7-7-7-7-7-7-7-7-7-7-7-7-7-7-7-7-7-7-7-7-7-7-7-7-7-7-7-7-|
|-6-6-6-6-6-6-6-6-6-6-6-6-6-6-6-6-6-6-6-6-6-6-6-6-6-6-6-6-6-6-6-6-6-6-6-|
|-4-4-4-4-4-4-4-4-4-4-4-4-4-4-4-4-4-4-4-4-4-4-4-4-4-4-4-4-4-4-4-4-4-4-4-|
|-4-4-4-4-4-4-4-4-4-4-4-4-4-4-4-4-4-4-4-4-4-4-4-4-4-4-4-4-4-4-4-4-4-4-4-|
|-4-4-4-4-4-4-4-4-4-4-4-4-4-4-4-4-4-4-4-4-4-4-4-4-4-4-4-4-4-4-4-4-4-4-4-|

|-0-0-0-0-0-0-0-0-0-0-0-0-0-0-0-0-0-0-0-0-0-0-0-0-0-0--0-0--0-0--0-0----|
|-3-3-3-3-3-3-3-3-3-3-3-3-3-3-3-3-3-3-3-3-3-3-3-3-3-3--3-3--3-3--3-3----|
|-2-2-2-2-2-2-2-2-2-2-2-2-2-2-2-2-2-2-2-2-2-2-2-2-2-2--2-2--2-2--2-2----|
|-0-0-0-0-0-0-0-0-0-0-0-0-0-0-0-0-0-0-0-0-0-0-0-0-0-0--0-0--0-0--0-0----|
|-0-0-0-0-0-0-0-0-0-0-0-0-0-0-0-0-0-0-0-0-0-0-0-0-0-0--0-0--0-0--0-0----|
|-0-0-0-0-0-0-0-0-0-0-0-0-0-0-0-0-0-0-0-0-0-0-0-0-0-0--0-0--0-0--0-0----|


3. 0:42-1:00
|-----------------------------------------------------------------------|
|-----------------------------------------------------------------------|
|-6---------------------------------------------------------------------|
|-4-------------7---7p6-4-----------------------------------------------|
|-4-4-4-4-4-4-4---------4--4-4-4-4-4-4-4-4-4-4-4-4-4-4-4-4-4-4-4-4-4-4--|
|-4-4-4-4-4-4-4---------4--4-4-4-4-4-4-4-4-4-4-4-4-4-4-4-4-4-4-4-4-4-4--|

|-----------------------------------------------------------------------|
|-----------------------------------------------------------------------|
|-----------------------------------------------------------------------|
|-----------------------------------------------------------------------|
|-0-0-0-0-0-0-0-0-0-0-0-0-0-0-0-0-0-0-0-0-0-0-0-0-0-0-0-0-0-0-0-0-0-0-0-|
|-0-0-0-0-0-0-0-0-0-0-0-0-0-0-0-0-0-0-0-0-0-0-0-0-0-0-0-0-0-0-0-0-0-0-0-|

|-----------------------------------------------------------------------|
|-----------------------------------------------------------------------|
|-----------------------------------------------------------------------|
|-----------------------------------------------------------------------|
|-4-4-4-4-4-4-4-4-4-4-4-4-4-4-4-4-4-4-4-4-4-4-4-4-4-4-4-4-4-4-4-4-4-4-4-|
|-4-4-4-4-4-4-4-4-4-4-4-4-4-4-4-4-4-4-4-4-4-4-4-4-4-4-4-4-4-4-4-4-4-4-4-|

|-----------------------------------------------------------------------|
|-----------------------------------------------------------------------|
|-----------------------------------------------------------------------|
|-----------------------------------------------------------------------|
|-0-0-0-0-0-0-0-0-0-0-0-0-0-0-0-0-0-0-0-0-0-0-0-0-0-0-0-0-0-0-0-0-0-0-0-|
|-0-0-0-0-0-0-0-0-0-0-0-0-0-0-0-0-0-0-0-0-0-0-0-0-0-0-0-0-0-0-0-0-0-0-0-|







4. 1:01-1:18
|-4-4-4-4-4-4-4-4-4-4-4-4-4-4-4-4-4-4-4-4-4-4-4-4-4-4-4-4-4-4-4-4-4-4-4-|
|-7-7-7-7-7-7-7-7-7-7-7-7-7-7-7-7-7-7-7-7-7-7-7-7-7-7-7-7-7-7-7-7-7-7-7-|
|-6-6-6-6-6-6-6-6-6-6-6-6-6-6-6-6-6-6-6-6-6-6-6-6-6-6-6-6-6-6-6-6-6-6-6-|
|-4-4-4-4-4-4-4-4-4-4-4-4-4-4-4-4-4-4-4-4-4-4-4-4-4-4-4-4-4-4-4-4-4-4-4-|
|-4-4-4-4-4-4-4-4-4-4-4-4-4-4-4-4-4-4-4-4-4-4-4-4-4-4-4-4-4-4-4-4-4-4-4-|
|-4-4-4-4-4-4-4-4-4-4-4-4-4-4-4-4-4-4-4-4-4-4-4-4-4-4-4-4-4-4-4-4-4-4-4-|

|-0-0-0-0-0-0-0-0-0-0-0-0-0-0-0-0-0-0-0-0-0-0-0-0-0-0-0-0-0-0-0-0-0-0-0-|
|-3-3-3-3-3-3-3-3-3-3-3-3-3-3-3-3-3-3-3-3-3-3-3-3-3-3-3-3-3-3-3-3-3-3-3-|
|-2-2-2-2-2-2-2-2-2-2-2-2-2-2-2-2-2-2-2-2-2-2-2-2-2-2-2-2-2-2-2-2-2-2-2-|
|-0-0-0-0-0-0-0-0-0-0-0-0-0-0-0-0-0-0-0-0-0-0-0-0-0-0-0-0-0-0-0-0-0-0-0-|
|-0-0-0-0-0-0-0-0-0-0-0-0-0-0-0-0-0-0-0-0-0-0-0-0-0-0-0-0-0-0-0-0-0-0-0-|
|-0-0-0-0-0-0-0-0-0-0-0-0-0-0-0-0-0-0-0-0-0-0-0-0-0-0-0-0-0-0-0-0-0-0-0-|

|-4-4-4-4-4-4-4-4-4-4-4-4-4-4-4-4-4-4-4-4-4-4-4-4-4-4-4-4-4-4-4-4-4-4-4-|
|-7-7-7-7-7-7-7-7-7-7-7-7-7-7-7-7-7-7-7-7-7-7-7-7-7-7-7-7-7-7-7-7-7-7-7-|
|-6-6-6-6-6-6-6-6-6-6-6-6-6-6-6-6-6-6-6-6-6-6-6-6-6-6-6-6-6-6-6-6-6-6-6-|
|-4-4-4-4-4-4-4-4-4-4-4-4-4-4-4-4-4-4-4-4-4-4-4-4-4-4-4-4-4-4-4-4-4-4-4-|
|-4-4-4-4-4-4-4-4-4-4-4-4-4-4-4-4-4-4-4-4-4-4-4-4-4-4-4-4-4-4-4-4-4-4-4-|
|-4-4-4-4-4-4-4-4-4-4-4-4-4-4-4-4-4-4-4-4-4-4-4-4-4-4-4-4-4-4-4-4-4-4-4-|

|-0-0-0-0-0-0-0-0-0-0-0-0-0-0-0-0-0-0-0-0-0-0-0-0-0-0-0-0-0-0-0-0-0-0-0-|
|-3-3-3-3-3-3-3-3-3-3-3-3-3-3-3-3-3-3-3-3-3-3-3-3-3-3-3-3-3-3-3-3-3-3-3-|
|-2-2-2-2-2-2-2-2-2-2-2-2-2-2-2-2-2-2-2-2-2-2-2-2-2-2-2-2-2-2-2-2-2-2-2-|
|-0-0-0-0-0-0-0-0-0-0-0-0-0-0-0-0-0-0-0-0-0-0-0-0-0-0-0-0-0-0-0-0-0-0-0-|
|-0-0-0-0-0-0-0-0-0-0-0-0-0-0-0-0-0-0-0-0-0-0-0-0-0-0-0-0-0-0-0-0-0-0-0-|
|-0-0-0-0-0-0-0-0-0-0-0-0-0-0-0-0-0-0-0-0-0-0-0-0-0-0-0-0-0-0-0-0-0-0-0-|


5. 1:19-1:26
|-4-4-4-4-4-4-4-4-4-4-4-4-4-4-4-4-4-0-0-0-0-0-0-0-0-0-0-0-0-0-0-0-0-0-0-|
|-7-7-7-7-7-7-7-7-7-7-7-7-7-7-7-7-7-3-3-3-3-3-3-3-3-3-3-3-3-3-3-3-3-3-3-|
|-6-6-6-6-6-6-6-6-6-6-6-6-6-6-6-6-6-2-2-2-2-2-2-2-2-2-2-2-2-2-2-2-2-2-2-|
|-4-4-4-4-4-4-4-4-4-4-4-4-4-4-4-4-4-0-0-0-0-0-0-0-0-0-0-0-0-0-0-0-0-0-0-|
|-4-4-4-4-4-4-4-4-4-4-4-4-4-4-4-4-4-0-0-0-0-0-0-0-0-0-0-0-0-0-0-0-0-0-0-|
|-4-4-4-4-4-4-4-4-4-4-4-4-4-4-4-4-4-0-0-0-0-0-0-0-0-0-0-0-0-0-0-0-0-0-0-|

|-4-4-4-4-4-4-4-4-4-4-4-4-4-4-4-4-4-0-0-0-0-0-0-0-0-0-2-2-2-2-2-2-2-2-2-|
|-7-7-7-7-7-7-7-7-7-7-7-7-7-7-7-7-7-3-3-3-3-3-3-3-3-3-5-5-5-5-5-5-5-5-5-|
|-6-6-6-6-6-6-6-6-6-6-6-6-6-6-6-6-6-2-2-2-2-2-2-2-2-2-4-4-4-4-4-4-4-4-4-|
|-4-4-4-4-4-4-4-4-4-4-4-4-4-4-4-4-4-0-0-0-0-0-0-0-0-0-2-2-2-2-2-2-2-2-2-|
|-4-4-4-4-4-4-4-4-4-4-4-4-4-4-4-4-4-0-0-0-0-0-0-0-0-0-2-2-2-2-2-2-2-2-2-|
|-4-4-4-4-4-4-4-4-4-4-4-4-4-4-4-4-4-0-0-0-0-0-0-0-0-0-2-2-2-2-2-2-2-2-2-|


6. 1:27-1:46
|-4-4-4-4-4-4-4-4-4-4-4-4-4-4-4-4-4-4-4-4-4-4-4-4-4-4-4-4-4-4-4-4-4-4-4-|
|-7-7-7-7-7-7-7-7-7-7-7-7-7-7-7-7-7-7-7-7-7-7-7-7-7-7-7-7-7-7-7-7-7-7-7-|
|-6-6-6-6-6-6-6-6-6-6-6-6-6-6-6-6-6-6-6-6-6-6-6-6-6-6-6-6-6-6-6-6-6-6-6-|
|-4-4-4-4-4-4-4-4-4-4-4-4-4-4-4-4-4-4-4-4-4-4-4-4-4-4-4-4-4-4-4-4-4-4-4-|
|-4-4-4-4-4-4-4-4-4-4-4-4-4-4-4-4-4-4-4-4-4-4-4-4-4-4-4-4-4-4-4-4-4-4-4-|
|-4-4-4-4-4-4-4-4-4-4-4-4-4-4-4-4-4-4-4-4-4-4-4-4-4-4-4-4-4-4-4-4-4-4-4-|

|-0-0-0-0-0-0-0-0-0-0-0-0-0-0-0-0-0-0-0-0-0-0-0-0-0-0-0-0-0-0-0-0-0-0-0-|
|-3-3-3-3-3-3-3-3-3-3-3-3-3-3-3-3-3-3-3-3-3-3-3-3-3-3-3-3-3-3-3-3-3-3-3-|
|-2-2-2-2-2-2-2-2-2-2-2-2-2-2-2-2-2-2-2-2-2-2-2-2-2-2-2-2-2-2-2-2-2-2-2-|
|-0-0-0-0-0-0-0-0-0-0-0-0-0-0-0-0-0-0-0-0-0-0-0-0-0-0-0-0-0-0-0-0-0-0-0-|
|-0-0-0-0-0-0-0-0-0-0-0-0-0-0-0-0-0-0-0-0-0-0-0-0-0-0-0-0-0-0-0-0-0-0-0-|
|-0-0-0-0-0-0-0-0-0-0-0-0-0-0-0-0-0-0-0-0-0-0-0-0-0-0-0-0-0-0-0-0-0-0-0-|

|-4-4-4-4-4-4-4-4-4-4-4-4-4-4-4-4-4-4-4-4-4-4-4-4-4-4-4-4-4-4-4-4-4-4-4-|
|-7-7-7-7-7-7-7-7-7-7-7-7-7-7-7-7-7-7-7-7-7-7-7-7-7-7-7-7-7-7-7-7-7-7-7-|
|-6-6-6-6-6-6-6-6-6-6-6-6-6-6-6-6-6-6-6-6-6-6-6-6-6-6-6-6-6-6-6-6-6-6-6-|
|-4-4-4-4-4-4-4-4-4-4-4-4-4-4-4-4-4-4-4-4-4-4-4-4-4-4-4-4-4-4-4-4-4-4-4-|
|-4-4-4-4-4-4-4-4-4-4-4-4-4-4-4-4-4-4-4-4-4-4-4-4-4-4-4-4-4-4-4-4-4-4-4-|
|-4-4-4-4-4-4-4-4-4-4-4-4-4-4-4-4-4-4-4-4-4-4-4-4-4-4-4-4-4-4-4-4-4-4-4-|

|-0-0-0-0-0-0-0-0-0-0-0-0-0-0-0-0-0-0-0-0-0-0-0-0-0-0-0-0-0-0-0-0-0-0-0-|
|-3-3-3-3-3-3-3-3-3-3-3-3-3-3-3-3-3-3-3-3-3-3-3-3-3-3-3-3-3-3-3-3-3-3-3-|
|-2-2-2-2-2-2-2-2-2-2-2-2-2-2-2-2-2-2-2-2-2-2-2-2-2-2-2-2-2-2-2-2-2-2-2-|
|-0-0-0-0-0-0-0-0-0-0-0-0-0-0-0-0-0-0-0-0-0-0-0-0-0-0-0-0-0-0-0-0-0-0-0-|
|-0-0-0-0-0-0-0-0-0-0-0-0-0-0-0-0-0-0-0-0-0-0-0-0-0-0-0-0-0-0-0-0-0-0-0-|
|-0-0-0-0-0-0-0-0-0-0-0-0-0-0-0-0-0-0-0-0-0-0-0-0-0-0-0-0-0-0-0-0-0-0-0-|


7. 1:47-2:05
|-4---------------------------------------------------------------------|
|-7---------------------------------------------------------------------|
|-6---------------------------------------------------------------------|
|-4---------------------------------------------------------------------|
|-4---------------------------------------------------------------------|
|-4---------------------------------------------------------------------|

|-0---------------------------------------------------------------------|
|-3---------------------------------------------------------------------|
|-2---------------------------------------------------------------------|
|-0---------------------------------------------------------------------|
|-0---------------------------------------------------------------------|
|-0---------------------------------------------------------------------|

|-4---------------------------------------------------------------------|
|-7---------------------------------------------------------------------|
|-6---------------------------------------------------------------------|
|-4---------------------------------------------------------------------|
|-4---------------------------------------------------------------------|
|-4---------------------------------------------------------------------|





|-0---------------------------------------------------------------------|
|-3---------------------------------------------------------------------|
|-2---------------------------------------------------------------------|
|-0---------------------------------------------------------------------|
|-0---------------------------------------------------------------------|
|-0---------------------------------------------------------------------|


8. 2:06-2:25
|-----------------------------------------------------------------------|
|-----------------------------------------------------------------------|
|------------------------------(rest)-----------------------------------|
|-----------------------------------------------------------------------|
|-----------------------------------------------------------------------|
|-----------------------------------------------------------------------|


9. 2:26-2:44
|-----------------------------------------------------------------------|
|-----------------------------------------------------------------------|
|-----------------------------------------------------------------------|
|-----------------------------------------------------------------------|
|-4-4-4-4-4-4-4-4-4-4-4-4-4-4-4-4-4-4-4-4-4-4-4-4-4-4-4-4-4-4-4-4-4-4-4-|
|-4-4-4-4-4-4-4-4-4-4-4-4-4-4-4-4-4-4-4-4-4-4-4-4-4-4-4-4-4-4-4-4-4-4-4-|

|-----------------------------------------------------------------------|
|-----------------------------------------------------------------------|
|-----------------------------------------------------------------------|
|-----------------------------------------------------------------------|
|-0-0-0-0-0-0-0-0-0-0-0-0-0-0-0-0-0-0-0-0-0-0-0-0-0-0-0-0-0-0-0-0-0-0-0-|
|-0-0-0-0-0-0-0-0-0-0-0-0-0-0-0-0-0-0-0-0-0-0-0-0-0-0-0-0-0-0-0-0-0-0-0-|

|-----------------------------------------------------------------------|
|-----------------------------------------------------------------------|
|-----------------------------------------------------------------------|
|-----------------------------------------------------------------------|
|-4-4-4-4-4-4-4-4-4-4-4-4-4-4-4-4-4-4-4-4-4-4-4-4-4-4-4-4-4-4-4-4-4-4-4-|
|-4-4-4-4-4-4-4-4-4-4-4-4-4-4-4-4-4-4-4-4-4-4-4-4-4-4-4-4-4-4-4-4-4-4-4-|

|-----------------------------------------------------------------------|
|-----------------------------------------------------------------------|
|-----------------------------------------------------------------------|
|-----------------------------------------------------------------------|
|-0-0-0-0-0-0-0-0-0-0-0-0-0-0-0-0-0-0-0-0-0-0-0-0-0-0-0-0-0-0-0-0-0-0-0-|
|-0-0-0-0-0-0-0-0-0-0-0-0-0-0-0-0-0-0-0-0-0-0-0-0-0-0-0-0-0-0-0-0-0-0-0-|


10. 2:45-3:05
|-----------------------------------------------------------------------|
|--------------7------------------------------------7-------------------|
|--------------6------------------------------------6-------------------|
|-4------------4-----------------------4------------4-------------------|
|-4--4-4-4-4-4-4-----------------------4--4-4-4-4-4-4-------------------|
|-4--4-4-4-4-4-4-----------------------4--4-4-4-4-4-4-------------------|

|-----------------------------------------------------------------------|
|--------------3------------------------------------3-------------------|
|--------------2------------------------------------2-------------------|
|-0------------0-----------------------0------------0-------------------|
|-0--0-0-0-0-0-0-----------------------0--0-0-0-0-0-0-------------------|
|-0--0-0-0-0-0-0-----------------------0--0-0-0-0-0-0-------------------|

|-----------------------------------------------------------------------|
|--------------7------------------------------------7-------------------|
|--------------6------------------------------------6-------------------|
|-4------------4-----------------------4------------4-------------------|
|-4--4-4-4-4-4-4-----------------------4--4-4-4-4-4-4-------------------|
|-4--4-4-4-4-4-4-----------------------4--4-4-4-4-4-4-------------------|

|-----------------------------------------------------------------------|
|--------------3--------------------------------------------------------|
|--------------2--------------------------------------------------------|
|-0------------0--------------------------------------------------------|
|-0--0-0-0-0-0-0--------------------------------------------------------|
|-0--0-0-0-0-0-0--------------------------------------------------------|


11. 3:06-3:13
|-4-4-4-4-4-4-4-4-4-4-4-4-4-4-4-4-4-0-0-0-0-0-0-0-0-0-0-0-0-0-0-0-0-0-0-|
|-7-7-7-7-7-7-7-7-7-7-7-7-7-7-7-7-7-3-3-3-3-3-3-3-3-3-3-3-3-3-3-3-3-3-3-|
|-6-6-6-6-6-6-6-6-6-6-6-6-6-6-6-6-6-2-2-2-2-2-2-2-2-2-2-2-2-2-2-2-2-2-2-|
|-4-4-4-4-4-4-4-4-4-4-4-4-4-4-4-4-4-0-0-0-0-0-0-0-0-0-0-0-0-0-0-0-0-0-0-|
|-4-4-4-4-4-4-4-4-4-4-4-4-4-4-4-4-4-0-0-0-0-0-0-0-0-0-0-0-0-0-0-0-0-0-0-|
|-4-4-4-4-4-4-4-4-4-4-4-4-4-4-4-4-4-0-0-0-0-0-0-0-0-0-0-0-0-0-0-0-0-0-0-|

|-4-4-4-4-4-4-4-4-4-4-4-4-4-4-4-4-4-0-0-0-0-0-0-0-0-0-2-2-2-2-2-2-2-2-2-|
|-7-7-7-7-7-7-7-7-7-7-7-7-7-7-7-7-7-3-3-3-3-3-3-3-3-3-5-5-5-5-5-5-5-5-5-|
|-6-6-6-6-6-6-6-6-6-6-6-6-6-6-6-6-6-2-2-2-2-2-2-2-2-2-4-4-4-4-4-4-4-4-4-|
|-4-4-4-4-4-4-4-4-4-4-4-4-4-4-4-4-4-0-0-0-0-0-0-0-0-0-2-2-2-2-2-2-2-2-2-|
|-4-4-4-4-4-4-4-4-4-4-4-4-4-4-4-4-4-0-0-0-0-0-0-0-0-0-2-2-2-2-2-2-2-2-2-|
|-4-4-4-4-4-4-4-4-4-4-4-4-4-4-4-4-4-0-0-0-0-0-0-0-0-0-2-2-2-2-2-2-2-2-2-|


12. 3:14-3:31
|-4-4-4-4-4-4-4-4-4-4-4-4-4-4-4-4-4-4-4-4-4-4-4-4-4-4-4-4-4-4-4-4-4-4-4-|
|-7-7-7-7-7-7-7-7-7-7-7-7-7-7-7-7-7-7-7-7-7-7-7-7-7-7-7-7-7-7-7-7-7-7-7-|
|-6-6-6-6-6-6-6-6-6-6-6-6-6-6-6-6-6-6-6-6-6-6-6-6-6-6-6-6-6-6-6-6-6-6-6-|
|-4-4-4-4-4-4-4-4-4-4-4-4-4-4-4-4-4-4-4-4-4-4-4-4-4-4-4-4-4-4-4-4-4-4-4-|
|-4-4-4-4-4-4-4-4-4-4-4-4-4-4-4-4-4-4-4-4-4-4-4-4-4-4-4-4-4-4-4-4-4-4-4-|
|-4-4-4-4-4-4-4-4-4-4-4-4-4-4-4-4-4-4-4-4-4-4-4-4-4-4-4-4-4-4-4-4-4-4-4-|


|-0-0-0-0-0-0-0-0-0-0-0-0-0-0-0-0-0-0-0-0-0-0-0-0-0-0-0-0-0-0-0-0-0-0-0-|
|-3-3-3-3-3-3-3-3-3-3-3-3-3-3-3-3-3-3-3-3-3-3-3-3-3-3-3-3-3-3-3-3-3-3-3-|
|-2-2-2-2-2-2-2-2-2-2-2-2-2-2-2-2-2-2-2-2-2-2-2-2-2-2-2-2-2-2-2-2-2-2-2-|
|-0-0-0-0-0-0-0-0-0-0-0-0-0-0-0-0-0-0-0-0-0-0-0-0-0-0-0-0-0-0-0-0-0-0-0-|
|-0-0-0-0-0-0-0-0-0-0-0-0-0-0-0-0-0-0-0-0-0-0-0-0-0-0-0-0-0-0-0-0-0-0-0-|
|-0-0-0-0-0-0-0-0-0-0-0-0-0-0-0-0-0-0-0-0-0-0-0-0-0-0-0-0-0-0-0-0-0-0-0-|

|-4-4-4-4-4-4-4-4-4-4-4-4-4-4-4-4-4-4-4-4-4-4-4-4-4-4-4-4-4-4-4-4-4-4-4-|
|-7-7-7-7-7-7-7-7-7-7-7-7-7-7-7-7-7-7-7-7-7-7-7-7-7-7-7-7-7-7-7-7-7-7-7-|
|-6-6-6-6-6-6-6-6-6-6-6-6-6-6-6-6-6-6-6-6-6-6-6-6-6-6-6-6-6-6-6-6-6-6-6-|
|-4-4-4-4-4-4-4-4-4-4-4-4-4-4-4-4-4-4-4-4-4-4-4-4-4-4-4-4-4-4-4-4-4-4-4-|
|-4-4-4-4-4-4-4-4-4-4-4-4-4-4-4-4-4-4-4-4-4-4-4-4-4-4-4-4-4-4-4-4-4-4-4-|
|-4-4-4-4-4-4-4-4-4-4-4-4-4-4-4-4-4-4-4-4-4-4-4-4-4-4-4-4-4-4-4-4-4-4-4-|

|-0-0-0-0-0-0-0-0-0-0-0-0-0-0-0-0-0-0-0-0-0-0-0-0-0-0-0-0-0-0-0-0-0-0-0-|
|-3-3-3-3-3-3-3-3-3-3-3-3-3-3-3-3-3-3-3-3-3-3-3-3-3-3-3-3-3-3-3-3-3-3-3-|
|-2-2-2-2-2-2-2-2-2-2-2-2-2-2-2-2-2-2-2-2-2-2-2-2-2-2-2-2-2-2-2-2-2-2-2-|
|-0-0-0-0-0-0-0-0-0-0-0-0-0-0-0-0-0-0-0-0-0-0-0-0-0-0-0-0-0-0-0-0-0-0-0-|
|-0-0-0-0-0-0-0-0-0-0-0-0-0-0-0-0-0-0-0-0-0-0-0-0-0-0-0-0-0-0-0-0-0-0-0-|
|-0-0-0-0-0-0-0-0-0-0-0-0-0-0-0-0-0-0-0-0-0-0-0-0-0-0-0-0-0-0-0-0-0-0-0-|


13. 3:32-3:45
|-4-4-4-4-4-4-4-4-4-4-4-4-4-4-4-4-4-4-4-4-4-4-4-4-4-4-4-4-4-4-4-4-4-4-4-|
|-7-7-7-7-7-7-7-7-7-7-7-7-7-7-7-7-7-7-7-7-7-7-7-7-7-7-7-7-7-7-7-7-7-7-7-|
|-6-6-6-6-6-6-6-6-6-6-6-6-6-6-6-6-6-6-6-6-6-6-6-6-6-6-6-6-6-6-6-6-6-6-6-|
|-4-4-4-4-4-4-4-4-4-4-4-4-4-4-4-4-4-4-4-4-4-4-4-4-4-4-4-4-4-4-4-4-4-4-4-|
|-4-4-4-4-4-4-4-4-4-4-4-4-4-4-4-4-4-4-4-4-4-4-4-4-4-4-4-4-4-4-4-4-4-4-4-|
|-4-4-4-4-4-4-4-4-4-4-4-4-4-4-4-4-4-4-4-4-4-4-4-4-4-4-4-4-4-4-4-4-4-4-4-|

|-0-0-0-0-0-0-0-0-0-0-0-0-0-0-0-0-0-0-0-0-0-0-0-0-0-0-0-0-0-0-0-0-0-0-0-|
|-3-3-3-3-3-3-3-3-3-3-3-3-3-3-3-3-3-3-3-3-3-3-3-3-3-3-3-3-3-3-3-3-3-3-3-|
|-2-2-2-2-2-2-2-2-2-2-2-2-2-2-2-2-2-2-2-2-2-2-2-2-2-2-2-2-2-2-2-2-2-2-2-|
|-0-0-0-0-0-0-0-0-0-0-0-0-0-0-0-0-0-0-0-0-0-0-0-0-0-0-0-0-0-0-0-0-0-0-0-|
|-0-0-0-0-0-0-0-0-0-0-0-0-0-0-0-0-0-0-0-0-0-0-0-0-0-0-0-0-0-0-0-0-0-0-0-|
|-0-0-0-0-0-0-0-0-0-0-0-0-0-0-0-0-0-0-0-0-0-0-0-0-0-0-0-0-0-0-0-0-0-0-0-|

|-4-4-4-4-4-4-4-4-4-4-4-4-4-4-4-4-4-4-4-4-4-4-4-4-4-4-4-4-4-4-4-4-4-4-4-|
|-7-7-7-7-7-7-7-7-7-7-7-7-7-7-7-7-7-7-7-7-7-7-7-7-7-7-7-7-7-7-7-7-7-7-7-|
|-6-6-6-6-6-6-6-6-6-6-6-6-6-6-6-6-6-6-6-6-6-6-6-6-6-6-6-6-6-6-6-6-6-6-6-|
|-4-4-4-4-4-4-4-4-4-4-4-4-4-4-4-4-4-4-4-4-4-4-4-4-4-4-4-4-4-4-4-4-4-4-4-|
|-4-4-4-4-4-4-4-4-4-4-4-4-4-4-4-4-4-4-4-4-4-4-4-4-4-4-4-4-4-4-4-4-4-4-4-|
|-4-4-4-4-4-4-4-4-4-4-4-4-4-4-4-4-4-4-4-4-4-4-4-4-4-4-4-4-4-4-4-4-4-4-4-|


14. 3:46-end
|-----------------------------------------------------------------------|
|-----------------------------------------------------------------------|
|------------------------------(rest)-----------------------------------|
|-----------------------------------------------------------------------|
|-----------------------------------------------------------------------|
|-----------------------------------------------------------------------|

|-----------------------------------------------------------------------|
|-----------------------------------------------------------------------|
|-11-11---13-13---14-14---16-16----11-11---13-13---14-14---16-16--------|
|--x--x-x--x--x-x--x--x-x--x--x-x---x--x-x--x--x-x--x--x-x--x--x-x------|
|--9--9-x-11-11-x-12-12-x-14-14-x---9--9-x-11-11-x-12-12-x-14-14-x------|
|-----------------------------------------------------------------------|

|-----------------------------------------------------------------------|
|-----------------------------------------------------------------------|
|-11--------------------------------------------------------------------|
|--x--------------------------------------------------------------------|
|--9--------------------------------------------------------------------|
|-----------------------------------------------------------------------|


%%%%%%%%%%%%%%%%%%%%%%%%%%%%%%%%%%%%%%%%%%%%%%%%%%%%%%%%%%%%%%%%%%%%%%%%%%%%%%%%%%%%%%%%%%%%%%%%%%%%%%%
%%%%%%%%%%%%%%%%%%%%%%%%%%%%%%%%%%%%%%% Lead Guitar %%%%%%%%%%%%%%%%%%%%%%%%%%%%%%%%%%%%%%%%%%%%%%%%%%%
%%%%%%%%%%%%%%%%%%%%%%%%%%%%%%%%%%%%%%%%%%%%%%%%%%%%%%%%%%%%%%%%%%%%%%%%%%%%%%%%%%%%%%%%%%%%%%%%%%%%%%%


1. 0:00-0:22
|-----------------------------------------------------------------------|
|--------------------------------------------------------------7--------|
|----------------------------------------------------------6\\4----------|
|--6h7p6-------6h7p6------6h7p6------6h7p6------6h7p6-------------------|
|--------7-4---------7-4--------7-4--------7-4---------7-4--------------|
|-----------------------------------------------------------------------|

|-----------------------------------------------------------------------|
|-----------------------------------------------------------------------|
|-----------------------------------------------------------------------|
|--6h7p6-------6h7p6------6h7p6------6h7p6------6h7p6-------6h7p6---4---|
|--------7-4---------7-4--------7-4--------7-4--------7-4---------7-----|
|-----------------------------------------------------------------------|

|-----------------------------------------------------------------------|
|--------------------------------------------------------------7--------|
|----------------------------------------------------------6\\4----------|
|--6h7p6-------6h7p6------6h7p6------6h7p6------6h7p6-------------------|
|--------7-4---------7-4--------7-4--------7-4---------7-4--------------|
|-----------------------------------------------------------------------|

|-----------------------------------------------------------------------|
|-----------------------------------------------------(bend instead of--|
|-------------------------------------------------------sliding here)---|
|--6h7p6-------6h7p6------6h7p6------6h7p6------6h7p6-------6/7\\6---2h4-|
|--------7-4---------7-4--------7-4--------7-4--------7-4---------------|
|-----------------------------------------------------------------------|


2. 0:23-0:41
|-----------------------------------------------------------------------|
|-----------------------------------------------------------------------|
|-11---11-11-11--11---11-11-11--11---11-11-11--11---11-11-11------------|
|--x-x--x--x--x---x-x--x--x--x---x-x--x--x--x---x-x--x--x--x------------|
|--9-x--9--9--9---9-x--9--9--9---9-x--9--9--9---9-x--9--9--9------------|
|-----------------------------------------------------------------------|

|----------0-0-0-------------0-0-0-------------0-0-0--------------------|
|----------x-x-x-------------x-x-x-------------x-x-x--------------------|
|-4/6----4/9-9-9----4/6----4/9-9-9----4/6----4/9-9-9----4/6--6/9--9/11--|
|-x-x-xx-x-x-x-x-xx-x-x-xx-x-x-x-x-xx-x-x-xx-x-x-x-x-xx-x-x--x-x--x--x--|
|-2/4-xx-2/7-7-7-xx-2/4-xx-2/7-7-7-xx-2/4-xx-2/7-7-7-xx-2/4--4/7--7/-9--|
|-----------------------------------------------------------------------|

|-----------------------------------------------------------------------|
|-----------------------------------------------------------------------|
|-11---11-11-11--11---11-11-11--11---11-11-11--11---11-11-11------------|
|--x-x--x--x--x---x-x--x--x--x---x-x--x--x--x---x-x--x--x--x------------|
|--9-x--9--9--9---9-x--9--9--9---9-x--9--9--9---9-x--9--9--9------------|
|-----------------------------------------------------------------------|

|----------------------------------------------------------------------------|
|----------------------------------------------------------------------------|
|-9---9/14-14-14-14--9---9/14-14-14-14--9---9/14-14-14-14--14-14--14-14--14\\-|
|-x-x-x--x--x--x--x--x-x-x--x--x--x--x--x-x-x--x--x--x--x---x--x---x--x---x--|
|-7-x-7/12-12-12-12--7-x-7/12-12-12-12--7-x-7/12-12-12-12--12-12--12-12--12\\-|
|----------------------------------------------------------------------------|


3. 0:42-1:00
|-----------------------------------------------------------------------|
|-----------------------------------------------------------------------|
|------------------------------11----------------------14--14\\15-11-9---|
|-------------------------------x-----------------------x---x--x--x-x---|
|-------------------------------9----------------------12--12\\13--9-7---|
|-----------------------------------------------------------------------|

|-----------------------------------------------------------------------|
|-----------------------------------------------------------------------|
|-------------------------------11--------------------------------------|
|--------------------------------x--------------------------------------|
|--------------------------------9--------------------------------------|
|-----------------------------------------------------------------------|

4. 1:01-1:18
|-----------------------------------------------------------------------|
|-----------------------------------------------------------------------|
|-11-11-11-11-11-11-11-11-11-11-11-11-11-11-11-11-11-11-11-11-11-11-----|
|--x--x--x--x--x--x--x--x--x--x--x--x--x--x--x--x--x--x--x--x--x--x-----|
|--9--9--9--9--9--9--9--9--9--9--9--9--9--9--9--9--9--9--9--9--9--9-----|
|-----------------------------------------------------------------------|

|-----------------------------------------------------------------------|
|-----------------------------------------------------------------------|
|-14-14-14--9-9-9--14-14-14--9-9-9--14-14-14--9-9-9--14-14-14-13-9/-----|
|--x--x--x--x-x-x---x--x--x--x-x-x---x--x--x--x-x-x---x--x--x--x-x------|
|-12-12-12--7-7-7--12-12-12--7-7-7--12-12-12--7-7-7--12-12-12-11-7/-----|
|-----------------------------------------------------------------------|

|-----------------------------------------------------------------------|
|-----------------------------------------------------------------------|
|-/11-11-11-11-11-11-11-11-11-11-11-11-11-11-11-11-11-11-11-11-11-11----|
|---x--x--x--x--x--x--x--x--x--x--x--x--x--x--x--x--x--x--x--x--x--x----|
|-/-9--9--9--9--9--9--9--9--9--9--9--9--9--9--9--9--9--9--9--9--9--9----|
|-----------------------------------------------------------------------|

|-----------------------------------------------------------------------|
|-----------------------------------------------------------------------|
|-14-14-14--9-9-9--14-14-14--9-9-9--14-14-14--9-9-9--14-14-14-13-9------|
|--x--x--x--x-x-x---x--x--x--x-x-x---x--x--x--x-x-x---x--x--x--x-x------|
|-12-12-12--7-7-7--12-12-12--7-7-7--12-12-12--7-7-7--12-12-12-11-7------|
|-----------------------------------------------------------------------|


5. 1:19-1:26
|-----------------------------------------------------------------------|
|-10--9-----------------10-9--------------------------------------------|
|-------11-9----------9------11-9---------9-----------------------------|
|------------11-9-11--------------11-9-11-------------------------------|
|-----------------------------------------------------------------------|
|-----------------------------------------------------------------------|

|-----------------------------------------------------------------------|
|-10--9-----------------10-9--------------------------------------------|
|-------11-9----------9------11-9---------9-----------------------------|
|------------11-9-11--------------11-9-11-------------------------------|
|-----------------------------------------------------------------------|
|-----------------------------------------------------------------------|

|-----------------------------------------------------------------------|
|-10--9-----------------10-9--------------------------------------------|
|-------11-9----------9------11-9---------9-----------------------------|
|------------11-9-11--------------11-9-11-------------------------------|
|-----------------------------------------------------------------------|
|-----------------------------------------------------------------------|





|-----------------------------------------------------------------------|
|-10--9-----------------10-9--------------------------------------------|
|-------11-9----------9------11-9---------9-----------------------------|
|------------11-9-11--------------11-9-11-------------------------------|
|-----------------------------------------------------------------------|
|-----------------------------------------------------------------------|




6. 1:27-1:46
|-----------------------------------------------------------------------|
|-----------------------------------------------------------------------|
|-11-11-11-11-11-11-11-11-11-11-11-11-11-11-11-11-11-11-11-11-11-11-----|
|--x--x--x--x--x--x--x--x--x--x--x--x--x--x--x--x--x--x--x--x--x--x-----|
|--9--9--9--9--9--9--9--9--9--9--9--9--9--9--9--9--9--9--9--9--9--9-----|
|-----------------------------------------------------------------------|

|-----------------------------------------------------------------------|
|-----------------------------------------------------------------------|
|-14-14-14-14-14-14--9-9-9-9-9-9--14-14-14-14-14-14-13--9--9-9--9/------|
|--x--x--x--x--x--x--x-x-x-x-x-x---x--x--x--x--x--x--x--x--x-x--x-------|
|-12-12-12-12-12-12--7-7-7-7-7-7--12-12-12-12-12-12-11--7--7-7--7/------|
|-----------------------------------------------------------------------|

|-----------------------------------------------------------------------|
|-----------------------------------------------------------------------|
|-/11-11-11-11-11-11-11-11-11-11-11-11-11-11-11-11-11-11-11-11-11-11----|
|---x--x--x--x--x--x--x--x--x--x--x--x--x--x--x--x--x--x--x--x--x--x----|
|-/-9--9--9--9--9--9--9--9--9--9--9--9--9--9--9--9--9--9--9--9--9--9----|
|-----------------------------------------------------------------------|

|-----------------------------------------------------------------------|
|-----------------------------------------------------------------------|
|-14-14-14-14-14-14--9-9-9-9-9-9--14-14-14-14-14-14-13--9--9-9--9/------|
|--x--x--x--x--x--x--x-x-x-x-x-x---x--x--x--x--x--x--x--x--x-x--x-------|
|-12-12-12-12-12-12--7-7-7-7-7-7--12-12-12-12-12-12-11--7--7-7--7/------|
|-----------------------------------------------------------------------|



7. 1:47-2:05
|-----------------------------------------------------------------------|
|-7---------------------------------------------------------------------|
|-6---------------------------------------------------------------------|
|-4---------------------------------------------------------------------|
|-4---------------------------------------------------------------------|
|-4---------------------------------------------------------------------|

|-----------------------------------------------------------------------|
|-----------------------------------------------------------------------|
|-----------------------------------------------------------------------|
|--6h7p6-------6h7p6------6h7p6------6h7p6------6h7p6-------6h7p6---4---|
|--------7-4---------7-4--------7-4--------7-4--------7-4---------7-----|
|-----------------------------------------------------------------------|

|-----------------------------------------------------------------------|
|-7---------------------------------------------------------------------|
|-6---------------------------------------------------------------------|
|-4---------------------------------------------------------------------|
|-4---------------------------------------------------------------------|
|-4---------------------------------------------------------------------|

|-----------------------------------------------------------------------|
|-----------------------------------------------------(bend instead of--|
|-------------------------------------------------------sliding here)---|
|--6h7p6-------6h7p6------6h7p6------6h7p6------6h7p6-------6/7\\6---2h4-|
|--------7-4---------7-4--------7-4--------7-4--------7-4---------------|
|-----------------------------------------------------------------------|


8. 2:06-2:25
|-----------------------------------------------------------------------|
|-10---9----------------------------------------------------------------|
|--------9--------------------------------------------------------------|
|-----------------------------------------------------------------------|
|-----------------------------------------------------------------------|
|-----------------------------------------------------------------------|

|-----------------------------------------------------------------------|
|-10---9----------------------------------------------------------------|
|--------9-------9/11\\9-------------------------------------------------|
|-------------------------------9---------------------------------------|
|-----------------------------------------------------------------------|
|-----------------------------------------------------------------------|

|-----------------------------------------------------------------------|
|-10---9----------------------------------------------------------------|
|--------9--------------------------------------------------------------|
|-----------------------------------------------------------------------|
|-----------------------------------------------------------------------|
|-----------------------------------------------------------------------|

|-----------------------------------------------------------------------|
|-10---9----------------------------------------------------------------|
|--------9-------9/11\\9-------------------------------------------------|
|-----------------------------------------------------------------------|
|-----------------------------------------------------------------------|
|-----------------------------------------------------------------------|



9. 2:26-2:44
|-----------------------------------------------------------------------|
|-10p9h10p9h10p9h10p9h10p9h10p9-----------------------------------------|
|------------------------------------7h9-9--------------7h9-------------|
|-----------------------------------------------------------------------|
|-----------------------------------------------------------------------|
|-----------------------------------------------------------------------|




|-----------------------------------------------------------------------|
|-10p9h10p9h10p9h10p9h10p9h10p9-----------------------------------------|
|------------------------------------7h9-9--------------7h9-------7-----|
|-----------------------------------------------------------------------|
|-----------------------------------------------------------------------|
|-----------------------------------------------------------------------|


10. 2:45-3:05
|-----------------------------------------------------------------------|
|-10p9h10p9h10p9h10p9h10p9h10p9h10p9h10p9h10p9h10p9h10p9h10p9h10p9------|
|-----------------------------------------------------------------------|
|-----------------------------------------------------------------------|
|-----------------------------------------------------------------------|
|-----------------------------------------------------------------------|


11. 3:06-3:13
|-----------------------------------------------------------------------|
|-10--9-----------------10-9--------------------------------------------|
|-------11-9----------9------11-9---------9-----------------------------|
|------------11-9-11--------------11-9-11-------------------------------|
|-----------------------------------------------------------------------|
|-----------------------------------------------------------------------|

|-----------------------------------------------------------------------|
|-10--9-----------------10-9--------------------------------------------|
|-------11-9----------9------11-9---------9-----------------------------|
|------------11-9-11--------------11-9-11-------------------------------|
|-----------------------------------------------------------------------|
|-----------------------------------------------------------------------|

|-----------------------------------------------------------------------|
|-10--9-----------------10-9--------------------------------------------|
|-------11-9----------9------11-9---------9-----------------------------|
|------------11-9-11--------------11-9-11-------------------------------|
|-----------------------------------------------------------------------|
|-----------------------------------------------------------------------|

|-----------------------------------------------------------------------|
|-10--9-----------------10-9--------------------------------------------|
|-------11-9----------9------11-9---------9-----------------------------|
|------------11-9-11--------------11-9-11-------------------------------|
|-----------------------------------------------------------------------|
|-----------------------------------------------------------------------|


12. 3:14-3:31
|-----------------------------------------------------------------------|
|-----------------------------------------------------------------------|
|-11-11-11-11-11-11-11-11-11-11-11-11-11-11-11-11-11-11-11-11-11-11-----|
|--x--x--x--x--x--x--x--x--x--x--x--x--x--x--x--x--x--x--x--x--x--x-----|
|--9--9--9--9--9--9--9--9--9--9--9--9--9--9--9--9--9--9--9--9--9--9-----|
|-----------------------------------------------------------------------|

|-----------------------------------------------------------------------|
|-----------------------------------------------------------------------|
|-14-14-14-14-14-14--9-9-9-9-9-9--14-14-14-14-14-14-13--9--9-9--9/------|
|--x--x--x--x--x--x--x-x-x-x-x-x---x--x--x--x--x--x--x--x--x-x--x-------|
|-12-12-12-12-12-12--7-7-7-7-7-7--12-12-12-12-12-12-11--7--7-7--7/------|
|-----------------------------------------------------------------------|

|-----------------------------------------------------------------------|
|-----------------------------------------------------------------------|
|-/11-11-11-11-11-11-11-11-11-11-11-11-11-11-11-11-11-11-11-11-11-11----|
|---x--x--x--x--x--x--x--x--x--x--x--x--x--x--x--x--x--x--x--x--x--x----|
|-/-9--9--9--9--9--9--9--9--9--9--9--9--9--9--9--9--9--9--9--9--9--9----|
|-----------------------------------------------------------------------|

|-----------------------------------------------------------------------|
|-----------------------------------------------------------------------|
|-14-14-14-14-14-14--9-9-9-9-9-9--14-14-14-14-14-14-13--9--9-9--9/------|
|--x--x--x--x--x--x--x-x-x-x-x-x---x--x--x--x--x--x--x--x--x-x--x-------|
|-12-12-12-12-12-12--7-7-7-7-7-7--12-12-12-12-12-12-11--7--7-7--7/------|
|-----------------------------------------------------------------------|


13. 3:32-3:45
|-----------------------------------------------------------------------|
|-----------------------------------------------------------------------|
|-11-11-11-11-11-11-11-11-11-11-11-11-11-11-11-11-11-11-11-11-11-11-----|
|--x--x--x--x--x--x--x--x--x--x--x--x--x--x--x--x--x--x--x--x--x--x-----|
|--9--9--9--9--9--9--9--9--9--9--9--9--9--9--9--9--9--9--9--9--9--9-----|
|-----------------------------------------------------------------------|

|-----------------------------------------------------------------------|
|-----------------------------------------------------------------------|
|-14-14-14-14-14-14--9-9-9-9-9-9--14-14-14-14-14-14-13--9--9-9--9/------|
|--x--x--x--x--x--x--x-x-x-x-x-x---x--x--x--x--x--x--x--x--x-x--x-------|
|-12-12-12-12-12-12--7-7-7-7-7-7--12-12-12-12-12-12-11--7--7-7--7/------|
|-----------------------------------------------------------------------|

|-----------------------------------------------------------------------|
|-----------------------------------------------------------------------|
|-/11-11-11-11-11-11-11-11-11-11-11-11-11-11-11-11-11-11-11-11-11-11----|
|---x--x--x--x--x--x--x--x--x--x--x--x--x--x--x--x--x--x--x--x--x--x----|
|-/-9--9--9--9--9--9--9--9--9--9--9--9--9--9--9--9--9--9--9--9--9--9----|
|-----------------------------------------------------------------------|


14. 3:46-end
|-----------------------------------------------------------------------|
|-----------------------------------------------------------------------|
|-11-11---13-13---14-14---16-16----11-11---13-13---14-14---16-16--------|
|--x--x-x--x--x-x--x--x-x--x--x-x---x--x-x--x--x-x--x--x-x--x--x-x------|
|--9--9-x-11-11-x-12-12-x-14-14-x---9--9-x-11-11-x-12-12-x-14-14-x------|
|-----------------------------------------------------------------------|

|-----------------------------------------------------------------------|
|-----------------------------------------------------------------------|
|-11-11---13-13---14-14---16-16----11-11---13-13---14-14---16-16--------|
|--x--x-x--x--x-x--x--x-x--x--x-x---x--x-x--x--x-x--x--x-x--x--x-x------|
|--9--9-x-11-11-x-12-12-x-14-14-x---9--9-x-11-11-x-12-12-x-14-14-x------|
|-----------------------------------------------------------------------|

|-----------------------------------------------------------------------|
|-----------------------------------------------------------------------|
|-11--------------------------------------------------------------------|
|--x--------------------------------------------------------------------|
|--9--------------------------------------------------------------------|
|-------------------------------------------------
comments
print report bad tab
9 comments total. Showing first comments.
0 reply
blinnk16 wrote on May 25 2006, 08:50 pm

I was listening to this song and was expecting something pathetic for tabs on here, this is great, can't imagine how long it would have taken, good job.

0 reply
Razorhead wrote on July 25 2006, 07:44 pm

really good tab man,

0 reply
mike_ike_ke_e15 wrote on October 9 2006, 01:30 pm

awesome tab man.. 5 stars

I want to post or [tab]
guest
You may want to rate the tab now too:
select rating
Please do not post tabs as comments. Select "correction" instead!