Oops, an error
Loading. Please wait.

Adelleda Acoustic Tab

ver1
ver1

Whole song

Interactive

More versions @911Tabs.com
1,621 views 1 this week
no commentswrite comment
1 2 3 4 5
please rate
add to favorites launch autoscroll
font size
0
reset
Autoscroll
+/-
esc
set tempo
stop
Contributor
Difficulty
intermediate
WARNING: You are trying to view
                                    content from Ultimate-Guitar.com
                                    in an unauthorized application,
                                    which is prohibited.

                                    Please use an official Ultimate
                                    Guitar Tabs application for iPhone,
                                    iPad or Android to access legitimate
                                    chords, guitar, bass, and drum tabs
                                    from Ultimate-Guitar.com database.

                                    Type "ultimate guitar tabs" in Apple
                                    App Store's or Android Market's
                                    search to find the application.
The tab says 4 Guitars but I think two are actually pianos. Its a long tab so I hope you enjoy.

Gtr I (Db Ab Db Gb Bb Eb) - 'Untitled'
Gtr II (Eb Ab Db Gb Bb Eb) - 'Untitled'
Gtr III (Eb Ab Db Gb Bb Eb) - 'Untitled'
Gtr IV (Eb Ab Db Gb Bb Eb) - 'Untitled'


 Intro
  Q=86
  G5                      B5
 4/4
  Gtr I
  W           W            W            W
|-----------|-----------|------------|--------------|
|-----------|-----------|------------|--------------|
|-7---------|-7---------|-11---------|-11-----------|
|-5---------|-5---------|--9---------|--9-----------|
|-5---------|-5---------|--9---------|--9-----------|
|-5---------|-5---------|--9---------|--9-----------|
|
| Gtr II
|                                            |-3-|
| H    H      H    H       H    H       H    Q Q Q
|-----------|-----------|------------|--------------|
|-----------|-----------|------------|--------------|
|-----------|-----------|------------|--------------|
|-----------|-----------|--9----7----|--4----5-4----|
|-5----7----|-9----7----|------------|-----------0--|
|-----------|-----------|------------|--------------|


    G5                             B5
    W               W                W
||---------------|---------------|-----------------|
||o--------------|---------------|-----------------|
||--7------------|--7------------|--11-------------|
||--5------------|--5------------|---9-------------|
||o-5------------|--5------------|---9-------------|
||--5------------|--5------------|---9-------------|
|
|   Gtr II
|   H    Q   Q      H      H         H     Q   Q
||---------------|---------------|-----------------|
||o------7---8---|-10----(10)----|-(10)----7---8---|
||---------------|---------------|-----------------|
||---------------|---------------|---9-----7--(7)--|
||o-5----7--(7)--|--9------7-----|-----------------|
||---------------|---------------|-----------------|


   W
|--------------------------------||
|-------------------------------o||
|-11-----------------------------||
|--9-----------------------------||
|--9----------------------------o||
|--9-----------------------------||
|
|  |---3----|    |----3----|
|  Q   Q    Q    Q    Q    Q
|-10-(10)-(10)-(10)-(10)-(10)----||
|--7---8---10--(10)-(10)-(10)---o||
|--------------------------------||
|--4-------------5----4----------||
|--------------------------0----o||
|--------------------------------||


                                                   H.=H  Q=76
  G5                             B5                          F#madd11/B
  W               W                W                H     Q   Q
|--------------|---------------|-----------------|----------------|
|--------------|---------------|-----------------|-----------10---|
|-7------------|--7------------|--11-------------|-11----11--11---|
|-5------------|--5------------|---9-------------|--9-----9---9---|
|-5------------|--5------------|---9-------------|--9-----9---9---|
|-5------------|--5------------|---9-------------|--9-----9---9---|
|
| H    Q   Q      H      H         H     Q   Q      H     Q   Q
|--------------|---------------|-----------------|-10-----9-------|
|------7---8---|-10----(10)----|-(10)----7---8---|-----------10---|
|--------------|---------------|-----------------|----------------|
|--------------|---------------|---9-----7--(7)--|--4-----5---4---|
|-5----7--(7)--|--9------7-----|-----------------|----------------|
|--------------|---------------|-----------------|----------------|


 Verse
  Dadd11/GG5  A7sus4/G                Dadd11/G G5  A7sus4/G
  Gtr I
  E S S S S S E   S  S S  S S  S  S    E S S S S S E      S  S S  S S  S  S
|-------------5---5--5-5--5-5--5--5-|--------------5------5--5-5--5-5--5--5-|
|-7-7-7-7-8-8-5---5--5-5--5-5--5--5-|--7-7-7-7-8-8-5------5--5-5--5-5--5--5-|
|-7-7-7-7-7-7-7---7--7-7--7-7--7--7-|--7-7-7-7-7-7-7------7--7-7--7-7--7--7-|
|-5-5-5-5-5-5-5---5--5-5--5-5--5--5-|--5-5-5-5-5-5-5------5--5-5--5-5--5--5-|
|-5-5-5-5-5-5-5---5--5-5--5-5--5--5-|--5-5-5-5-5-5-5------5--5-5--5-5--5--5-|
|-5-5-5-5-5-5-5---5--5-5--5-5--5--5-|--5-5-5-5-5-5-5------5--5-5--5-5--5--5-|
|
| Gtr II
| H             S S  S S  S S  S  S    H              +S  S  S S  S S  S  S
|-------------------10-9------------|-----------------------10-9------------|
|-----------------7------10-7-10-12-|-10-------------(10)-7------10-7-10-12-|
|-----------------------------------|---------------------------------------|
|-----------------------------------|---------------------------------------|
|-----------------------------------|---------------------------------------|
|-----------------------------------|---------------------------------------|


  B5                 Gmaj7+11/B     Emadd9/B
   E   S  S  S  S  S  E  S  S  S  S  S  S  S
|---------------------9--9--9--9--9-12-12-12-|
|--x---x--x--x--x--x--x--x--x--x--x--x--x--x-|
|-11--11-11-11-11-11-11-11-11-11-11-11-11-11-|
|--9---9--9--9--9--9--9--9--9--9--9--9--9--9-|
|--9---9--9--9--9--9-10-10-10-10-10-10-10-10-|
|--9---9--9--9--9--9--9--9--9--9--9--9--9--9-|
|
|  H.                             Q
|--------------------------------------------|
|--5------------------------------8----------|
|--------------------------------------------|
|--------------------------------------------|
|--------------------------------------------|
|--------------------------------------------|


   E    S  S  S  S  S  E   S  S  S  S  S  S  S
|-12---12-12-12-12-12-12--12-12-12-12-12-12-12---|
|--x----x--x--x--x--x--x---x--x--x--x--x--x--x---|
|-11---11-11-11-11-11-11--11-11-11-11-11-11-11---|
|--9----9--9--9--9--9--9---9--9--9--9--9--9--9---|
|-10---10-10-10-10-10-10--10-10-10-10-10-10-10---|
|--9----9--9--9--9--9--9---9--9--9--9--9--9--9---|
|
|  Q..                 E.     S  Q          +S
|------------------------------------------------|
|--7-------------------5------7--3----------(3)--|
|------------------------------------------------|
|------------------------------------------------|
|------------------------------------------------|
|------------------------------------------------|


  Dadd11/G  G5  A7sus4/G
   E  S S S S S E     S  S S  S S  S  S
|---------------5-----5--5-5--5-5--5--5-|
|--7--7-7-7-8-8-5-----5--5-5--5-5--5--5-|
|--7--7-7-7-7-7-7-----7--7-7--7-7--7--7-|
|--5--5-5-5-5-5-5-----5--5-5--5-5--5--5-|
|--5--5-5-5-5-5-5-----5--5-5--5-5--5--5-|
|--5--5-5-5-5-5-5-----5--5-5--5-5--5--5-|
|
| +H              +S  S  S S  S S  S  S
|-----------------------10-9------------|
|-(3)-------------(3)-7------10-7-10-12-|
|---------------------------------------|
|---------------------------------------|
|---------------------------------------|
|---------------------------------------|


  Dadd11/G G5  A7sus4/G
   E S S S S S E      S  S S  S S  S  S
|--------------5------5--5-5--5-5--5--5-|
|--7-7-7-7-8-8-5------5--5-5--5-5--5--5-|
|--7-7-7-7-7-7-7------7--7-7--7-7--7--7-|
|--5-5-5-5-5-5-5------5--5-5--5-5--5--5-|
|--5-5-5-5-5-5-5------5--5-5--5-5--5--5-|
|--5-5-5-5-5-5-5------5--5-5--5-5--5--5-|
|
|  H              +S  S  S S  S S  S  S
|-----------------------10-9------------|
|-10-------------(10)-7------10-7-10-12-|
|---------------------------------------|
|---------------------------------------|
|---------------------------------------|
|---------------------------------------|


  B5                 Gmaj7+11/B     Emadd9/B
   E   S  S  S  S  S  E  S  S  S  S  S  S  S
|---------------------9--9--9--9--9-12-12-12-|
|--x---x--x--x--x--x--x--x--x--x--x--x--x--x-|
|-11--11-11-11-11-11-11-11-11-11-11-11-11-11-|
|--9---9--9--9--9--9--9--9--9--9--9--9--9--9-|
|--9---9--9--9--9--9-10-10-10-10-10-10-10-10-|
|--9---9--9--9--9--9--9--9--9--9--9--9--9--9-|
|
|  H.                             Q
|--------------------------------------------|
|--5------------------------------8----------|
|--------------------------------------------|
|--------------------------------------------|
|--------------------------------------------|
|--------------------------------------------|


   E    S  S  S  S  S  E  S  S  S  S  S  S   S
|-12---12-12-12-12-12-12-12-12-12-12-12-12--12---|
|--x----x--x--x--x--x--x--x--x--x--x--x--x---x---|
|-11---11-11-11-11-11-11-11-11-11-11-11-11--11---|
|--9----9--9--9--9--9--9--9--9--9--9--9--9---9---|
|-10---10-10-10-10-10-10-10-10-10-10-10-10--10---|
|--9----9--9--9--9--9--9--9--9--9--9--9--9---9---|
|
|  Q..                 H                    +S
|------------------------------------------------|
|--7------------------10-------------------(10)--|
|---------------------11-------------------(11)--|
|------------------------------------------------|
|------------------------------------------------|
|------------------------------------------------|


  N.C.                                        Emadd9/B
    E. E. E. E. E E       E. E. E. E. E E      E  S  S  S  S  S  E  S  S  S  S  S  S  S
|---------------------|---------------------|-12-12-12-12-12-12-12-12-12-12-12-12-12-12-|
|---------7-----------|---------7-----------|--x--x--x--x--x--x--x--x--x--x--x--x--x--x-|
|------7-----7----7---|------7-----7----7---|-11-11-11-11-11-11-11-11-11-11-11-11-11-11-|
|---5-----------5-----|---5-----------5-----|--9--9--9--9--9--9--9--9--9--9--9--9--9--9-|
|---------------------|---------------------|-10-10-10-10-10-10-10-10-10-10-10-10-10-10-|
|---------------------|---------------------|--9--9--9--9--9--9--9--9--9--9--9--9--9--9-|
|
|  +W                    +W                    W
|---------------------|---------------------|-------------------------------------------|
|-(10)----------------|-(10)----------------|-10----------------------------------------|
|-(11)----------------|-(11)----------------|-11----------------------------------------|
|---------------------|---------------------|-------------------------------------------|
|---------------------|---------------------|-------------------------------------------|
|---------------------|---------------------|-------------------------------------------|


   E    S  S  S  S  S  E  S  S  S  S  S  S   S
|-12---12-12-12-12-12-12-12-12-12-12-12-12--12-----|
|--x----x--x--x--x--x--x--x--x--x--x--x--x---x-----|
|-11---11-11-11-11-11-11-11-11-11-11-11-11--11-----|
|--9----9--9--9--9--9--9--9--9--9--9--9--9---9-----|
|-10---10-10-10-10-10-10-10-10-10-10-10-10--10-----|
|--9----9--9--9--9--9--9--9--9--9--9--9--9---9-----|
|
|  Q..                 H                    +S
|--9-----------------------------------------------|
|-10------------------10-------------------(10)----|
|-11------------------11-------------------(11)----|
|--------------------------------------------------|
|--------------------------------------------------|
|--------------------------------------------------|


  Dadd11/G
    E   S S S S S E S S S  S S S S    E   S S S S S  E  S  S  S  S  S  S  S
|---5---5-5-5-5-5-5-5-5-5--5-5-5-5-|--5---5-5-5-5-5--5--5--5--5--5--5--5--5--|
|---7---7-7-7-7-7-7-7-7-7--7-7-7-7-|--7---7-7-7-7-7--7--7--7--7--7--7--7--7--|
|---7---7-7-7-7-7-7-7-7-7--7-7-7-7-|--7---7-7-7-7-7--7--7--7--7--7--7--7--7--|
|---5---5-5-5-5-5-5-5-5-5--5-5-5-5-|--5---5-5-5-5-5--5--5--5--5--5--5--5--5--|
|---5---5-5-5-5-5-5-5-5-5--5-5-5-5-|--5---5-5-5-5-5--5--5--5--5--5--5--5--5--|
|---5---5-5-5-5-5-5-5-5-5--5-5-5-5-|--5---5-5-5-5-5--5--5--5--5--5--5--5--5--|
|
|  +Q..           E E   E.     S S   +Q..            E  S  S  S  S  S  S  S
|----------------------------------|----------------14----14-15-17-15-14-----|
|-(10)------------3-5---7------8-7-|-(7)---------------15----------------17--|
|-(11)-----------------------------|-----------------------------------------|
|----------------------------------|-----------------------------------------|
|----------------------------------|-----------------------------------------|
|----------------------------------|-----------------------------------------|


  Emadd9/B
    E        S  S  S  S  S  E  S  S  S  S  S  S  S
|--12-------12-12-12-12-12-12-12-12-12-12-12-12-12-|
|---x--------x--x--x--x--x--x--x--x--x--x--x--x--x-|
|--11-------11-11-11-11-11-11-11-11-11-11-11-11-11-|
|---9--------9--9--9--9--9--9--9--9--9--9--9--9--9-|
|--10-------10-10-10-10-10-10-10-10-10-10-10-10-10-|
|---9--------9--9--9--9--9--9--9--9--9--9--9--9--9-|
|
|  +S   H..                                      S
|--------------------------------------------------|
|-(17)-15---------------------------------------14-|
|--------------------------------------------------|
|--------------------------------------------------|
|--------------------------------------------------|
|--------------------------------------------------|


                                                Dadd11/G
    E   S  S  S  S  S  E  S  S  S  S  S  S  S    E.  E.  H     +E
|--12--12-12-12-12-12-12-12-12-12-12-12-12-12-|--------------------|
|---x---x--x--x--x--x--x--x--x--x--x--x--x--x-|--7---7---7-----(7)-|
|--11--11-11-11-11-11-11-11-11-11-11-11-11-11-|--7---7---7-----(7)-|
|---9---9--9--9--9--9--9--9--9--9--9--9--9--9-|--5---5---5-----(5)-|
|--10--10-10-10-10-10-10-10-10-10-10-10-10-10-|--5---5---5-----(5)-|
|---9---9--9--9--9--9--9--9--9--9--9--9--9--9-|--5---5---5-----(5)-|
|
|  +W                                            E.  E.  H     +E
|---------------------------------------------|---------17----(17)-|
|-(14)----------------------------------------|-14--15-------------|
|---------------------------------------------|--------------------|
|---------------------------------------------|--------------------|
|---------------------------------------------|--------------------|
|---------------------------------------------|--------------------|


   Breakdown
    Q=88
    B5     N.C.            G5      N.C.
     PM--|                  PM--|
     S S S  S S  S  E       S S  S S  S   S   E
||----------------------------------------------|
||o---------------------------------------------|
||---------11-9--------------------7--6---------|
||---9-9-9------12-11-------5-5--5--------7---4-|
||o--9-9-9------------------5-5--5--------------|
||---9-9-9------------------5-5--5--------------|
|
|    e   S  Q          +S   e    e    S   S   E
||--10-----10---------(10)--9----9----9--10---9-|
||o-12-----12---------(12)-10---10---10-(10)-10-|
||-------7--------------------------------------|
||-------9--------------------------------------|
||o---------------------------------------------|
||----------------------------------------------|


  E5     N.C.D5     G5   N.G5 N.C.
   PM--|             PM|    PM
   S S S  E. E       S S S  S S S E
|-----------------------------------------||
|---------3--------------7----7-8-7------o||
|---------4--------------7----7-7-7-------||
|--2-2-2-----0-------5-5----5-------------||
|--2-2-2-----0-------5-5----5------------o||
|--2-2-2-----0-------5-5----5-------------||
|
|  e   S  Q     +S   e   S  Q        +S
|-10-----10----(10)-14-----12-------(12)--||
|-12-----12----(12)-15---7-14-------(14)-o||
|------7-----------------7----------------||
|------9----------------------------------||
|----------------------------------------o||
|-----------------------------------------||


    F#madd11/B        G5
     PM---|                   PM|
     S  S  S  E  S  S   E     S S  E S S   S
||--------------------------------------------|
||o-10-10-10-10-10-10---8-----8-8--8-8-8---8--|
||--11-11-11-11-11-11---7-----7-7--7-7-7---7--|
||---9--9--9--9--9--9---5-----5-5--5-5-5---5--|
||o--9--9--9--9--9--9---5-----5-5--5-5-5---5--|
||---9--9--9--9--9--9---5-----5-5--5-5-5---5--|
|
|    e     S  Q        +S   e   S  Q      +S
||--14-------12-------(12)-14-----12-----(12)-|
||o-15-----7-14-------(14)-15---7-14-----(14)-|
||---------7--------------------7-------------|
||--------------------------------------------|
||o-------------------------------------------|
||--------------------------------------------|


  1.                                              2.    Q=100
  Bmadd11/E     Dadd11/G                          Bmadd1Bbmaj7+11/G
   PM--|                PM|
   S S S  E S S   E     S  S E      S   S S        H     S E S  S E S
|--------------------------------------------||-|--------5-5-5--5-5-5-|
|--3-3-3--3-3-3---7-----7--7-7------7---7-7-o||-|--3-----5-5-5--5-5-5-|
|--4-4-4--4-4-4---7-----7--7-7------7---7-7--||-|--4-----7-7-7--7-7-7-|
|--2-2-2--2-2-2---5-----5--5-5------5---5-5--||-|--2-----8-8-8--8-8-8-|
|--2-2-2--2-2-2---5-----5--5-5------5---5-5-o||-|--2-----5-5-5--5-5-5-|
|--2-2-2--2-2-2---5-----5--5-5------5---5-5--||-|--2-----5-5-5--5-5-5-|
|
|  e   S  Q      +S   e    e    S   S   E          H     Q      Q
|-14-----12-----(12)-14---14---14--15--14----||-|-14----14-----12-----|
|-15---7-14-----(14)-15---15---15-(15)-15---o||-|-15----15-----14-----|
|------7-------------------------------------||-|---------------------|
|--------------------------------------------||-|---------------------|
|-------------------------------------------o||-|---------------------|
|--------------------------------------------||-|---------------------|


 Bridge
  Emadd9/B
   S  E     S  S  E     S  S  E     S  S  E     S
|-12-12----12-12-12----12-12-12----12-12-12----12-|
|--x--x-----x--x--x-----x--x--x-----x--x--x-----x-|
|-11-11----11-11-11----11-11-11----11-11-11----11-|
|--9--9-----9--9--9-----9--9--9-----9--9--9-----9-|
|-10-10----10-10-10----10-10-10----10-10-10----10-|
|--9--9-----9--9--9-----9--9--9-----9--9--9-----9-|
|
|  S  S  S  S  S  S  S  S  S  S  S  S  S  S  S  S
|-14-------14-------14----12-------12-------12----|
|-------15-------15-------------15-------15-------|
|----16-------16-------16----16-------16-------16-|
|-------------------------------------------------|
|-------------------------------------------------|
|-------------------------------------------------|


  Dsus4/G
   S  E     S  S  E     S  S  E     S  S  E     S
|--5--5-----5--5--5-----5--5--5-----5--5--5-----5-|
|--8--8-----8--8--8-----8--8--8-----8--8--8-----8-|
|--7--7-----7--7--7-----7--7--7-----7--7--7-----7-|
|--5--5-----5--5--5-----5--5--5-----5--5--5-----5-|
|--5--5-----5--5--5-----5--5--5-----5--5--5-----5-|
|--5--5-----5--5--5-----5--5--5-----5--5--5-----5-|
|
|  S  S  S  S  S  S  S  S  S  S  S  S  S  S  S  S
|-14-------14-------14----12-------12-------12----|
|-------15-------15-------------15-------15-------|
|----16-------16-------16----16-------16-------16-|
|-------------------------------------------------|
|-------------------------------------------------|
|-------------------------------------------------|


  Bmadd11/E
   S  E     S  S  E     S  S E     S S  E     S
|--2--2-----2--2--2-----2--2-2-----2-2--2-----2-|
|--3--3-----3--3--3-----3--3-3-----3-3--3-----3-|
|--4--4-----4--4--4-----4--4-4-----4-4--4-----4-|
|--2--2-----2--2--2-----2--2-2-----2-2--2-----2-|
|--2--2-----2--2--2-----2--2-2-----2-2--2-----2-|
|--2--2-----2--2--2-----2--2-2-----2-2--2-----2-|
|
|  S  S  S  S  S  S  S  S  E    S  E    S  S  S
|-12----14----17----14----12---14------------12-|
|----15----15----15----15---------15---12-15----|
|----16----16----16----16-----------------------|
|-----------------------------------------------|
|-----------------------------------------------|
|-----------------------------------------------|


  Dadd11/G
    S   E  S S  E     S S  E  S S  E  S
|---5---5--5-5--5-----5-5--5--5-5--5--5-|
|---7---7--7-7--7-----7-7--7--7-7--7--7-|
|---7---7--7-7--7-----7-7--7--7-7--7--7-|
|---5---5--5-5--5-----5-5--5--5-5--5--5-|
|---5---5--5-5--5-----5-5--5--5-5--5--5-|
|---5---5--5-5--5-----5-5--5--5-5--5--5-|
|
|  +S   E  E    S  S  E    E  E    E.
|-(12)-14------------15---14------------|
|---------15---12-15---------15---14----|
|---------------------------------------|
|---------------------------------------|
|---------------------------------------|
|---------------------------------------|


  Emadd9/B
   S  E     S  S  E     S  S  E     S  S  E     S
|-12-12----12-12-12----12-12-12----12-12-12----12-|
|--x--x-----x--x--x-----x--x--x-----x--x--x-----x-|
|-11-11----11-11-11----11-11-11----11-11-11----11-|
|--9--9-----9--9--9-----9--9--9-----9--9--9-----9-|
|-10-10----10-10-10----10-10-10----10-10-10----10-|
|--9--9-----9--9--9-----9--9--9-----9--9--9-----9-|
|
|  S  S  S  S  S  S  S  S  S  S  S  S  S  S  S  S
|-14-------14-------14----12-------12-------12----|
|-------15-------15-------------15-------15-------|
|----16-------16-------16----16-------16-------16-|
|-------------------------------------------------|
|-------------------------------------------------|
|-------------------------------------------------|


  Dsus4/G
   S  E     S  S  E     S  S  E     S  S  E     S
|--5--5-----5--5--5-----5--5--5-----5--5--5-----5-|
|--8--8-----8--8--8-----8--8--8-----8--8--8-----8-|
|--7--7-----7--7--7-----7--7--7-----7--7--7-----7-|
|--5--5-----5--5--5-----5--5--5-----5--5--5-----5-|
|--5--5-----5--5--5-----5--5--5-----5--5--5-----5-|
|--5--5-----5--5--5-----5--5--5-----5--5--5-----5-|
|
|  S  S  S  S  S  S  S  S  S  S  S  S  S  S  S  S
|-14-------14-------14----12-------12-------12----|
|-------15-------15-------------15-------15-------|
|----16-------16-------16----16-------16-------16-|
|-------------------------------------------------|
|-------------------------------------------------|
|-------------------------------------------------|


  Bmadd11/E
   S  E     S  S  E     S  S E     S S  E     S
|--2--2-----2--2--2-----2--2-2-----2-2--2-----2-|
|--3--3-----3--3--3-----3--3-3-----3-3--3-----3-|
|--4--4-----4--4--4-----4--4-4-----4-4--4-----4-|
|--2--2-----2--2--2-----2--2-2-----2-2--2-----2-|
|--2--2-----2--2--2-----2--2-2-----2-2--2-----2-|
|--2--2-----2--2--2-----2--2-2-----2-2--2-----2-|
|
|  S  S  S  S  S  S  S  S  E    S  E    S  S  S
|-12----14----17----14----12---14---------------|
|----15----15----15----15---------15---12-15-14-|
|----16----16----16----16-----------------------|
|-----------------------------------------------|
|-----------------------------------------------|
|-----------------------------------------------|


                Q=72
  Dadd11/G      F#maddD1/B5  A5
                 |-----6------|
    S  E S S E.  E  E  E  E.  E.
|--------------------------------|
|---7--7-7-7-7--10-10-10-12--10--|
|---7--7-7-7-7--11-11-11-11---9--|
|---5--5-5-5-5---9--9--0--9---7--|
|---5--5-5-5-5---9--9--0--9---7--|
|---5--5-5-5-5---9--9--0--9---7--|
|
|  +H            Q        Q
|---------------12--------9------|
|-(14)----------10-------10------|
|---------------11-------11------|
|--------------------------------|
|--------------------------------|
|--------------------------------|


   Verse
    Dadd11/G  G5  A7sus4/G              Dadd11/G  G5  A7sus4/G
     E  S S S S S E S S S   S  S S  S    E  S S S S S E S S S   S  S S  S
||----------------5-5-5-5---5--5-5--5-|---------------5-5-5-5---5--5-5--5-|
||o--7--7-7-7-8-8-5-5-5-5---5--5-5--5-|--7--7-7-7-8-8-5-5-5-5---5--5-5--5-|
||---7--7-7-7-7-7-7-7-7-7---7--7-7--7-|--7--7-7-7-7-7-7-7-7-7---7--7-7--7-|
||---5--5-5-5-5-5-5-5-5-5---5--5-5--5-|--5--5-5-5-5-5-5-5-5-5---5--5-5--5-|
||o--5--5-5-5-5-5-5-5-5-5---5--5-5--5-|--5--5-5-5-5-5-5-5-5-5---5--5-5--5-|
||---5--5-5-5-5-5-5-5-5-5---5--5-5--5-|--5--5-5-5-5-5-5-5-5-5---5--5-5--5-|
|
|    H.                    +S  S S  S    H.                    +S  S S  S
||------------------------------------|-----------------------------------|
||o-10--------------------(10)-----10-|-10--------------------(10)-----10-|
||---7---------------------(7)---7----|--7---------------------(7)---7----|
||---7---------------------(7)-7------|--7---------------------(7)-7------|
||o-----------------------------------|-----------------------------------|
||------------------------------------|-----------------------------------|


  B5                 Gmaj7+11/B       Emadd9/B
   E   S  S  S  S  S  E  S  S  S   S   S  S  S
|---------------------9--9--9--9---9--12-12-12-|
|--x---x--x--x--x--x--x--x--x--x---x---x--x--x-|
|-11--11-11-11-11-11-11-11-11-11--11--11-11-11-|
|--9---9--9--9--9--9--9--9--9--9---9---9--9--9-|
|--9---9--9--9--9--9-10-10-10-10--10--10-10-10-|
|--9---9--9--9--9--9--9--9--9--9---9---9--9--9-|
|
|  H.                             +S   S  S  S
|--9------------------------------(9)--------9-|
|-10-----------------------------(10)----10----|
|-11-----------------------------(11)-11-------|
|----------------------------------------------|
|----------------------------------------------|
|----------------------------------------------|


  1.                                                 2.
                                                                     B5    A5B5
                                                                      |-3--|
   E   S  S  S  S  S  E  S  S  S   S   S  S  S        E   S  S  E  E  E  E E   Q
|-12--12-12-12-12-12-12-12-12-12--12--12-12-12--||-|-12--12-12-12-12-----------------------|
|--x---x--x--x--x--x--x--x--x--x---x---x--x--x-o||-|--x---x--x--x--x-----------------------|
|-11--11-11-11-11-11-11-11-11-11--11--11-11-11--||-|-11--11-11-11-11-11-11-9--11-----------|
|--9---9--9--9--9--9--9--9--9--9---9---9--9--9--||-|--9---9--9--9--9--9--9-7---9\----------|
|-10--10-10-10-10-10-10-10-10-10--10--10-10-10-o||-|-10--10-10-10-10--9--9-7---9\----------|
|--9---9--9--9--9--9--9--9--9--9---9---9--9--9--||-|--9---9--9--9--9--9--9-7---9\----------|
|
|  H.                             +S   S  S  S        H.                      +S   S  S  S
|-12-----------------------------(12)-------12--||-|-12----------------------(12)-------12-|
|-10-----------------------------(10)----10----o||-|-10----------------------(10)----10----|
|-11-----------------------------(11)-11--------||-|-11----------------------(11)-11-------|
|-----------------------------------------------||-|---------------------------------------|
|----------------------------------------------o||-|---------------------------------------|
|-----------------------------------------------||-|---------------------------------------|


   Guitar Break
    G5            N.C.       G5            N.C.
     |----3-----|             |----3-----| |-----3------|
     S  S S S S S Q           S  S S S S S S S S  S  S  S
||--------------------------------------------------------|
||o---------------7------------------------8-7----7-----7-|
||----------------7----------------------------7-----7----|
||---5--5-5-5-5-5-------------5--5-5-5-5-5----------------|
||o--5--5-5-5-5-5-------------5--5-5-5-5-5----------------|
||---5--5-5-5-5-5-------------5--5-5-5-5-5----------------|
|
|                    |--3--|                      |--3--|
|    Q.              S  S  S  Q.                  S  S  S
||---9--------------------12--9------------------------12-|
||o-10-----------------10----10---------------------10----|
||--11--------------11-------11------------------11-------|
||--------------------------------------------------------|
||o-------------------------------------------------------|
||--------------------------------------------------------|


  B5            N.C.        B5            N.C.
   |----3-----|              |----3-----|  |------3------|
   S  S S S S S  Q           S  S S S S S  S S  S  S  S  S  3x
|-----------------------------------------10-9--------------||
|---------------10-----------------------------12----10-12-o||
|---------------11--------------------------------11--------||
|--9--9-9-9-9-9--------------9--9-9-9-9-9-------------------||
|--9--9-9-9-9-9--------------9--9-9-9-9-9------------------o||
|--9--9-9-9-9-9--------------9--9-9-9-9-9-------------------||
|
|                   |--3--|                        |--3--|
|  Q.               S  S  S  Q.                    S  S  S  3x
|--9---------------------12--9--------------------------12--||
|-10------------------10----10-----------------------10----o||
|-11---------------11-------11--------------------11--------||
|-----------------------------------------------------------||
|----------------------------------------------------------o||
|-----------------------------------------------------------||


   Outro
    Dadd11/G
     |-------6--------|    |-------6--------|
     S E E S  E   E   E    S E E S  E   E   E
||----------------------------------------------|
||o--7-7-7-7--7---7---7----7-7-7-7--7---7---7---|
||---7-7-7-7--7---7---7----7-7-7-7--7---7---7---|
||---5-5-5-5--5---5---5----5-5-5-5--5---5---5---|
||o--5-5-5-5--5---5---5----5-5-5-5--5---5---5---|
||---5-5-5-5--5---5---5----5-5-5-5--5---5---5---|
|
|    |--6--|  |----6----|  |--6--|  |----6----|
|    S E E S  S E   E   S  S E E S  S E   E   S
||--17-------15-----------14-------12-----------|
||o---------------------------------------------|
||----------------------------------------------|
||-------7----------7----------7----------7-----|
||o----5---5----5-------5----5---5----5-------5-|
||----------------------------------------------|


  G5                    Dadd11/G
   |-------6--------|    |-------6--------|
   S E E S  E   E   E    S E E S  E   E   E
|----------------------------------------------|
|--8-8-8-8--8---8---8----7-7-7-7--7---7---7----|
|--7-7-7-7--7---7---7----7-7-7-7--7---7---7----|
|--5-5-5-5--5---5---5----5-5-5-5--5---5---5----|
|--5-5-5-5--5---5---5----5-5-5-5--5---5---5----|
|--5-5-5-5--5---5---5----5-5-5-5--5---5---5----|
|
|  |--6--|  |----6----|  |--6--|  |----6----|
|  S E E S  S E   E   S  S E E S  S E   E   S
|-17-------19-----------17-------14------------|
|----------------------------------------------|
|----------------------------------------------|
|------7----------7----------7----------7------|
|----5---5----5-------5----5---5----5-------5--|
|----------------------------------------------|


  F#madd11/B                 B5
   |----------6----------|    |----------6----------|
   S  E  E  S  E    E    E    S  E  E  S  E    E    E
|-------------------------------------------------------|
|-10-10-10-10-10---10---10------------------------------|
|-11-11-11-11-11---11---11---11-11-11-11-11---11---11---|
|--9--9--9--9--9----9----9----9--9--9--9--9----9----9---|
|--9--9--9--9--9----9----9----9--9--9--9--9----9----9---|
|--9--9--9--9--9----9----9----9--9--9--9--9----9----9---|
|
|  |---6----|  |-----6-----|  |---6----|  |-----6-----|
|  S  E  E  S  S E    E    S  S  E  E  S  S E    E    S
|-17----------15-------------14----------12-------------|
|-------------------------------------------------------|
|-------------------------------------------------------|
|--------7------------7-------------7------------7------|
|-----5-----5----5---------5-----5-----5----5---------5-|
|-------------------------------------------------------|


  Gmaj7/B                    F#madd11/B
   |----------6----------|    |------------6-------------|
   S  E  E  S  E    E    E    S  E    E     S  E    E    E
|--------------------------------------------------------------||
|----------------------------10-10---10----10-10---10---10----o||
|-12-12-12-12-12---12---12---11-11---11----11-11---11---11-----||
|--9--9--9--9--9----9----9----9--9----9-----9--9----9----9-----||
|--9--9--9--9--9----9----9----9--9----9-----9--9----9----9----o||
|--9--9--9--9--9----9----9----9--9----9-----9--9----9----9-----||
|
|  |---6----|  |-----6-----|  |------3------|  |-----3------|
|  S  E  E  S  S E    E    S  S  S S  S  S  S  S S  S S  S  S
|-17----------19-------------21---------21-22-21--------21-22--||
|-------------------------------------------------------------o||
|--------------------------------------------------------------||
|--------7------------7------------7----------------7----------||
|-----5-----5----5---------5-----5----5----------5----5-------o||
|--------------------------------------------------------------||


    Dadd11/G
     |----------6----------|     |----------6----------|
     S  E  E  S  E    E    E     S  E  E  S  E    E    E
||----------------------------------------------------------|
||o--7--7--7--7--7----7----7-----7--7--7--7--7----7----7----|
||---7--7--7--7--7----7----7-----7--7--7--7--7----7----7----|
||---5--5--5--5--5----5----5-----5--5--5--5--5----5----5----|
||o--5--5--5--5--5----5----5-----5--5--5--5--5----5----5----|
||---5--5--5--5--5----5----5-----5--5--5--5--5----5----5----|
|
|   Gtr III
|    |---6----|  |-----6------|  |---6----|  |-----6------|
|    S  E  E  S  S  E    E    S  S  E  E  S  S  E    E    S
||--17----------15--------------14----------12--------------|
||o---------------------------------------------------------|
||----------------------------------------------------------|
||---------7-------------7-------------7-------------7------|
||o-----5-----5-----5---------5-----5-----5-----5---------5-|
||----------------------------------------------------------|
|
|   Gtr IV
|    |---3----|  |-----3------|  |---3----|  |-----3------|
|    S  E  E  S  S  E    E    S  S  E  E  S  S  E    E    S
||----------------------------------------------------------|
||o---------------------------------------------------------|
||--------14------------18------------14------------11------|
||--11-12----12-11-12--------12-11-12----12-11-12--------12-|
||o---------------------------------------------------------|
||----------------------------------------------------------|


  G5                          Dadd11/G
   |----------6----------|     |----------6----------|
   S  E  E  S  E    E    E     S  E  E  S  E    E    E
|----------------------------------------------------------|
|--8--8--8--8--8----8----8-----7--7--7--7--7----7----7-----|
|--7--7--7--7--7----7----7-----7--7--7--7--7----7----7-----|
|--5--5--5--5--5----5----5-----5--5--5--5--5----5----5-----|
|--5--5--5--5--5----5----5-----5--5--5--5--5----5----5-----|
|--5--5--5--5--5----5----5-----5--5--5--5--5----5----5-----|
|
|  |---6----|  |-----6------|  |---6----|  |-----6------|
|  S  E  E  S  S  E    E    S  S  E  E  S  S  E    E    S
|-17----------19--------------17----------14---------------|
|----------------------------------------------------------|
|----------------------------------------------------------|
|--------7-------------7-------------7-------------7-------|
|-----5-----5-----5---------5-----5-----5-----5---------5--|
|----------------------------------------------------------|
|
|  |---3----|  |-----3------|  |---3----|  |-----3------|
|  S  E  E  S  S  E    E    S  S  E  E  S  S  E    E    S
|----------------------------------------------------------|
|----------------------------------------------------------|
|-------14------------18------------19------------21---18--|
|-11-12----12-11-12--------12-11-12----12-11-12------------|
|----------------------------------------------------------|
|----------------------------------------------------------|


  F#madd11/B                    B5
   |-----------6-----------|     |-----------6-----------|
   S  E  E  S  E     E     E     S  E  E  S  E     E     E
|-------------------------------------------------------------|
|-10-10-10-10-10----10----10----------------------------------|
|-11-11-11-11-11----11----11----11-11-11-11-11----11----11----|
|--9--9--9--9--9-----9-----9-----9--9--9--9--9-----9-----9----|
|--9--9--9--9--9-----9-----9-----9--9--9--9--9-----9-----9----|
|--9--9--9--9--9-----9-----9-----9--9--9--9--9-----9-----9----|
|
|  |---6----|  |------6-------|  |---6----|  |------6-------|
|  S  E  E  S  S  E     E     S  S  E  E  S  S  E     E     S
|-17----------15----------------14----------12----------------|
|-------------------------------------------------------------|
|-------------------------------------------------------------|
|--------7--------------7--------------7--------------7-------|
|-----5-----5-----5-----------5-----5-----5-----5-----------5-|
|-------------------------------------------------------------|
|
|  |---3----|  |------3-------|  |---3----|  |------3-------|
|  S  E  E  S  S  E     E     S  S  E  E  S  S  E     E     S
|-------------------------------------------------------------|
|-------15-------------17-------------19-------------22-------|
|-11-12----12-11-12----------12-11-12----12-11-12----------12-|
|-------------------------------------------------------------|
|-------------------------------------------------------------|
|-------------------------------------------------------------|


  Gmaj7/B                       F#madd11/B
   |-----------6-----------|     |-------------6--------------|
   S  E  E  S  E     E     E     S  E    E     S  E     E     E     4x
|-------------------------------------------------------------------||
|-------------------------------10-10---10----10-10----10----10----o||
|-12-12-12-12-12----12----12----11-11---11----11-11----11----11-----||
|--9--9--9--9--9-----9-----9-----9--9----9-----9--9-----9-----9-----||
|--9--9--9--9--9-----9-----9-----9--9----9-----9--9-----9-----9----o||
|--9--9--9--9--9-----9-----9-----9--9----9-----9--9-----9-----9-----||
|
|  |---6----|  |------6-------|  |------3------|  |------3-------|
|  S  E  E  S  S  E     E     S  S  S S  S  S  S  S  S  S  S  S  S  4x
|-17----------19----------------21---------21-22-21----------21-22--||
|------------------------------------------------------------------o||
|-------------------------------------------------------------------||
|--------7--------------7-------------7-----------------7-----------||
|-----5-----5-----5-----------5-----5----5-----------5-----5-------o||
|-------------------------------------------------------------------||
|
|  |---3----|  |------3-------|  |------3------|  |------3-------|
|  S  E  E  S  S  E     E     S  S  E    E     S  S  E     E     S  4x
|-------------------------------------------------------------------||
|-------15-------------17---------------19----------------22-------o||
|-11-12----12-11-12----------12-11-12---------12-11-12----------12--||
|-------------------------------------------------------------------||
|------------------------------------------------------------------o||
|-------------------------------------------------------------------||




--------------------------------------------------------------------------------


Duration Legend
---------------
W - whole; H - half; Q - quarter; E - 8th; S - 16th; T - 32nd; X - 64th; a - acciaccatura
+ - note tied to previous; . - note dotted; .. - note double dotted
Uncapitalized letters represent notes that are staccato (1/2 duration)
Irregular groupings are notated above the duration line
Duration letters will always appear directly above the note/fret number it represents the
duration for.  Duration letters with no fret number below them represent rests.  Multi-
bar rests are notated in the form Wxn, where n is the number of bars to rest for.  Low
melody durations appear below the staff

comments
We did not receive enough feedback on this tab! Please rate:
print report bad tab
1 2 3 4 5
I want to post or [tab]
guest
You may want to rate the tab now too:
select rating
Please do not post tabs as comments. Select "correction" instead!