Oops, an error
Loading. Please wait.

Alexisonfire Tab

4,244 views 1 this week
5 commentsread comments
1 2 3 4 5
accurate
x 6
Autoscroll
+/-
esc
set tempo
stop
Contributor
Hey! There's an official Ultimate Guitar app which is ideal
for learning songs when you're away from computer. Get the app
WARNING: You are trying to view
                                    content from Ultimate-Guitar.com
                                    in an unauthorized application,
                                    which is prohibited.

                                    Please use an official Ultimate
                                    Guitar Tabs application for iPhone,
                                    iPad or Android to access legitimate
                                    chords, guitar, bass, and drum tabs
                                    from Ultimate-Guitar.com database.

                                    Type "ultimate guitar tabs" in Apple
                                    App Store's or Android Market's
                                    search to find the application.
ALEXISONFIRE
(SELF-TITLED)
GUITARISTS DALLAS AND WADE


44.CALIBER LOVE LETTER

Tuning: ( Eb Ab Db Gb Bb Eb 

intro

guitar 1 (zero hammer first time only)

d#-------3------/-7-|
a#------------------|
f#-(0h)5--------/9--| x24 (not a typo, 24)
c#------------------|
g#------------------|
d#------------------|

guitar 2 (silent for 4. this is 5-12 of 24)

d#-17-------------------------------|
a#-----12-13-15----15h17-12-13---12-|
f#----------------------------------| x4
c#----------------------------------| (12 to go)
g#----------------------------------|
d#----------------------------------|

d#-------------------|
a#-12-13----12h13-15-|
f#-------------------| x4
c#-------------------| (8 to go)
g#-------------------|
d#-------------------|

d#-17---------------------------------------------| this one runs
a#-----12-13-15----15h17-12-13---12---------------| for 4 of the
f#------------------------------------------------| 24, you're 
c#---------------------------------------------//-| down to 4 
g#---------------------------------------------//-| (slide hard
d#---------------------------------------------//-| at the end)

d#---------(\3~~~)-|
a#-----------------|
f#-----------------| x4
c#-2/7777----------|
g#-2/7777----------|
d#-0/5555----------|

guitar 1 changes here (be quick 2nd part)

d#-----8p7--------|    |-------7----7-8-7--| x3 |-------7~~~-|
a#----------------|    |---8-8-----------8-|then|---8-8------|
f#------------7h9-| x4 |-5--5-5----5-5-5---|this|-5--5-5-----|
c#-10-------------|then|-------------------|the |------------|
g#----------------|    |-------------------|4th |------------|
d#----------------|    |-------------------|time|------------|

guitar 2

d#--------1717------------------------1717---------------------|
a#------------1212131315131212------------1212131315h17p151312-|
f#-------------------------------------------------------------| x3
c#-2/7777----------------------2/7777--------------------------|
g#-2/7777----------------------2/7777--------------------------|
d#-0/5555----------------------0/5555--------------------------|

then

d#--------1717------------------------151515151515151515151515-|
a#------------1212131315131212---------------------------------|
f#-------------------------------------------------------------|
c#-2/7777----------------------2/7777--------------------------|
g#-2/7777----------------------2/7777--------------------------|
d#-0/5555----------------------0/5555--------------------------|

guitar 1    (downstroke first part, upstroke second part)

d#-33333333-33333333-|    |------|
a#-00000000-33333333-|    |------|
f#-55555555-55555555-| x4 |------|
c#-------------------|then|-7777-|
g#-------------------|    |-7777-|
d#-------------------|    |-5555-|

guitar 2

d#------10h12p10-8/7-8h10p8h10-|    |--------------------------|
a#-----------------------------|    |--------------------------|
f#-----------------------------| x8 |------7h9p7-5\4/5-7-9~~~~-|
c#-7777------------------------|then|-7777---------------------|
g#-7777------------------------|    |-7777---------------------|
d#-----------------------------|    |-5555---------------------|

1:52 elapsed! this song rox so far.

guitar 1 (let the first chord ring & slide hard at the end)

d#-----------------------------------|
a#-----------------------------------|
f#-----------------------------------|
c#-7--------------------------\\\///-|
g#-7--------------------------\\\///-|
d#-5--------------------------\\\///-|

guitar 2

d#---------------------------20-20-19----|
a#------13-12~~--------17-17-------------|
f#-/7-9----------------------------------|
c#---------------------------------------|
g#---------------------------------------|
d#---------------------------------------|

SIFTING THROUGH WEATHERED PHOTO ALBUMS...

guitar 1

d#-------------------------------------|
a#-------------------------------------|
f#-------------------77777777----------|
c#-77777777-33333333-77777777----------|
g#-77777777-33333333-55555555-77778877-|
d#-55555555-11111111-------------------|

guitar 2 distorted heavily... not chords really...

d#-----------------------8-7-------8-7------|
a#------------------------------------------|
f#--------------0----7-9-------7-9-----9----|
c#-------5----2---2-------------------------|
g#-7-7-7-7--3-------------------------------|
d#-5--------1-------------------------------|

ALSO there, a third guitar part...

d#-------------------7-8-10-8-7h8--7-8-10-8-7h8-|
a#----------------------------------------------|
f#----------------------------------------------|
c#----------------------------------------------|
g#----------------------------------------------|
d#----------------------------------------------|

continuing on

guitar 1

d#--------------------------------------|
a#--------------------------------------|
f#-------------------44444444-5555-4444-|
c#-77777777-33333333--------------------|
g#-77777777-33333333--------------------|
d#-55555555-11111111--------------------|

guitar 2

d#----------------------8-7-------------20-19-|
a#-----------------------------1515h1717------|
f#-------------------7-9----------------------|
c#-7-7-7-5--3-3-3-----------------------------|
g#-7--------3---------------------------------|
d#-5--------1---------------------------------|

Dallas: "It wouldn't really make a difference, would it?"

guitar 1

d#-------------------------------------|
a#-------------------------------------|
f#-------------------77777777-77777777-|
c#-77777777-33333333-77777777----------|
g#-77777777-33333333-55555555----------|
d#-55555555-11111111-------------------|

guitar 2

d#------------------------8-7--------8-7---|
a#-----------------------------------------|
f#-----5--------0----7-99-------7-99-------|
c#-7-7------3-3----------------------------|
g#-7-7------3-3----------------------------|
d#-5-5------1-1----------------------------|

Dallas: "And I..."

guitar 1

d#------------------------------------|
a#------------------------------------|
f#-------------------7777777777777777-|
c#-77777777-33333333-7777777777777777-|
g#-77777777-33333333-5555555555555555-|
d#-55555555-11111111------------------|

guitar 2 (repeat of earlier)

d#-----------------------8-7-------8-7------|
a#------------------------------------------|
f#--------------0----7-9-------7-9-----9----|
c#-------5----2---2-------------------------|
g#-7-7-7-7--3-------------------------------|
d#-5--------1-------------------------------|

continuing on (2.37)

guitar 1

d#-------------------------------------|
a#-------------------------------------|
f#-------------------77777777----------|
c#-77777777-33333333-77777777-77788877-|
g#-77777777-33333333-55555555----------|
d#-55555555-11111111-------------------|

guitar 2 (it's really hard to hear over the bass and three voices... not
that that's a bad thing... i'm just saying... so the best i can say is 
just repeat this again

d#-----------------------8-7-------8-7------|
a#------------------------------------------|
f#--------------0----7-9-------7-9-----9----|
c#-------5----2---2-------------------------|
g#-7-7-7-7--3-------------------------------|
d#-5--------1-------------------------------|

DUN DUN     DUN DUN "smile for the camera sweetheart..."

guitar 1 (2.47)   don't play power chord 1st time

d#-----------------------------------------------------------------------------|
a#-----------------------------------------------------------------------------|
f#-----------------------------------------------------------------------------|
c#-------------------2-2---2-2---------2-2---2-2-----------2-2---2-2-----------|
g#-------------------2-2---2-2---------2-2---2-2-----------2-2---2-2-----------|
d#-------------------0-0---0-0---------0-0---0-0-----------0-0---0-0-----------|

guitar 2 (2.47)

d#-----------------------------------------------------------------------------|
a#---------0/5-5\-/3-----------0/5-5\3-----------0/5-5\-/3-----------0/5-5\0---|
f#---------------------------------------------------------------------------0-|
c#-----------------------------------------------------------------------------|
g#-----------------------------------------------------------------------------|
d#-----------------------------------------------------------------------------|

WITH FRIENDS      LIKE YOU      (aka 2.56)

guitar 1 play same as above, except play all four times, not just last three.

guitar 2


d#---------3/7-7\-/8p7---------3/7-7\-8p7--------3/7-7\-8p7--------3/7-7\-8p7--|
a#----------------/8------------------8-----------------8-----------------8----|
f#-----------------------------------------------------------------------------|
c#-----------------------------------------------------------------------------|
g#-----------------------------------------------------------------------------|
d#-----------------------------------------------------------------------------|

DUNUNUNUNUN SUB DUNUNUNUNUN TEXT (3.06)

guitar 1

d#-----------------------------------------------00-|
a#-----------------------------------------------00-|
f#-----------------------------------------------00-|
c#-2222-xxxx-2222-xxxx-2222-xxxx-2222-xxxxxxxxxx-22-|
g#-2222-xxxx-2222-xxxx-2222-xxxx-2222-xxxxxxxxxx-22-|
d#-0000-xxxx-0000-xxxx-0000-xxxx-0000-xxxxxxxxxx-00-|

guitar 2

d#------7h8p7h8p7h8h10----|
a#------------------------| x4 
f#------------------------| let ring (shake yer guitar or whatever    
c#------------------------| you need to sustain the note) on the
g#------------------------| fourth time
d#------------------------|

THIS IS A 44. CALIBER LOVE LETTER STRAIGHT FROM MY HEART (in case you can't
notice that song climax, 3minutes and 18 friggin seconds)

guitar 1 (3.20)

d#------------------------------------|
a#------------------------------------|
f#-----------------7-7-5h7-9999101099-|
c#-7-------3-------7-7----------------|
g#-7-7-7---3-3-3---5------------------|
d#-5-5-5---1-1-1----------------------|

guitar 2 (12x10 is the same as 7x5 one string up, i just think it's easier
          to play on the lower strings)

d#------------------------8-7-------8-7---|
a#----------------------------------------|
f#--------------------7-9-------7-9-------|
c#-7-7-7-7-3-3-3-3-12---------------------|
g#-x-x-x-x-x-x-x-x-x----------------------|
d#-5-5-5-5-1-1-1-1-10---------------------|

STRAIGHT           FROM            MY           HEART (3.29)     

guitar 1

d#----------------------------------|
a#----------------------------------|
f#----------------------------------|
c#-----------------7-7-7-7----------|
g#-7-7-7-7-3-3-3-3-5-5-5-5-77778877-|
d#-5-5-5-5-1-1-1-1------------------|

guitar 2

d#----------------------------------|
a#----------------------------------|
f#---------------------5-4------5-4-|
c#-----5-------2--------------------|
g#---7-------3-----5-7------5-7-----|
d#-5-------1------------------------|

we are at 3.38... last before outro.

guitar 1

d#------------------------------------|
a#------------------------------------|
f#-------------------7777777777777777-|
c#-77777777-33333333-7777777777777777-|
g#-77777777-33333333-5555555555555555-|
d#-55555555-11111111------------------|

guitar 2

d#--------------------------7-8-10-10-10-8-7-|
a#-------------------------------------------|
f#---------------------5-4-------------------|
c#-----5-------2-----------------------------|
g#---7-------3-----5-7-----------------------|
d#-5-------1---------------------------------|

HEARRRRRRRRRRRRRRRRRRRRRRRRRRRT

we begin the outro... (3.48)

guitar 1

d#---------------------------------------|
a#---------------------------------------|
f#-------------------7----2--------------|
c#-------------------7---------2---------|
g#-77777777-33333333-5--------------2----|
d#-55555555-11111111---------------------|

guitar 2

d#-------20-20-19-19-------|    |----------8-7-----8-7-|
a#-17-17-------------17-17-|    |----------------------|
f#-------------------------| x4 |-7----7-9-----7-9-----|
c#-------------------------|then|-7--------------------|
g#-------------------------|    |-5--------------------|
d#-------------------------|    |----------------------|

second time around (3.57)

guitar 1

d#---------------------------------------|
a#---------------------------------------|
f#-------------------7----2----5----4----|
c#-------------------7-------------------|
g#-77777777-33333333-5-------------------|
d#-55555555-11111111---------------------|

guitar 2

d#-------20-20-19-19-------|    |----------8-----------|
a#-17-17-------------17-17-|    |----------------------|
f#-------------------------| x4 |-7--------------------|
c#-------------------------|then|-7--------------------|
g#-------------------------|    |-5--------------------|
d#-------------------------|    |----------------------|

the almighty outro!!!!! all good things must come to an end... (4.06)

guitar 1

just repeat this chord as necessary for the remainder of the song...
listen for the rhythm, it's fairly simple.

d#-------|  and |-////\\\\--------|
a#-------| then |-////\\\\--------|
f#-------|  at  |-////\\\\--------|
c#---7---| the  |-////\\\\-7----7-|
g#---7---| very |-////\\\\------7-|
d#---5---| end  |-////\\\\------5-|
                 SLIDE HARD

guitar 2 fun ending!

d#---------------------5555555555555555-|
a#--------------------------------------|
f#-4-4-4-4-5-5-7-7-4-4------------------|
c#--------------------------------------|
g#--------------------------------------|
d#--------------------------------------|

guitar 2 cont'd (4.12)

start at 5 on high d# (e) string and just keep going until fret #20... 
then stop going up and remain there and kinda fade out, then play what 
guitar 1 played "at the very end" except not the slide.

================================================================================

COUNTERPARTS AND NUMBER THEM

Intro
    Moderately Fast Rock Q=118
    N.C.
   3/4
    Gtr I
    S S S S S S S S S S S S   S S S S S S S S S S S S
||--------------------------|---------------------------||
||o-------------------------|--------------------------o||
||--------------------------|---------------------------||
||------5-----4-----5-----4-|-----5-----4-----5-----4---||
||o-0h7---0h5---0h3---0h5---|-0h7---0h5---0h3---0h5----o||
||--------------------------|---------------------------||
|
|   Gtr II
|   S S S S S S S S S S S S   S S S S S S S S S S S S
||--------------------------|---------------------------||
||o-------------------------|--------------------------o||
||------------7-------------|---------------------------||
||------9-----------5-----7-|-----9-----7-----5-----7---||
||o-0h7---0h5---0h3---0h5---|-0h7---0h5---0h3---0h5----o||
||--------------------------|---------------------------||


  N.C.
  S S S S S S S S S S S S   S S S S S S S S S S S S
|-------------------------|-------------------------|
|-------------------------|-------------------------|
|-------------------------|-------------------------|
|-----5-----4-----5-----4-|-----5-----4-----5-----4-|
|-0h7---0h5---0h3---0h5---|-0h7---0h5---0h3---0h5---|
|-------------------------|-------------------------|
|
| S S S S S S S S S S S S   S S S S S S S S S S S S
|-------------------------|-------------------------|
|-------------------------|-------------------------|
|-------------------------|-------------------------|
|-----5-----4-----5-----4-|-----5-----4-----5-----4-|
|-0h7---0h5---5p0---0h5---|-0h7---0h5---5p0---0h5---|
|-------------------------|-------------------------|


  N.C.
  S S S S S S S S S S S S   S S S S S S S S S S S S
|-------------------------|-------------------------||
|-------------------------|-------------------------||
|-------------------------|-----------------------9-||
|-----5-----4-----5-----4-|-----5-----4-----5-----x-||
|-0h7---0h5---0h3---0h5---|-0h7---0h5---0h3---0-0-7-||
|-------------------------|-------------------------||
|
| S S S S S S S S S S S S   S S S S S S S S S S S S
|-------------------------|-------------------------||
|-------------------------|-------------------------||
|-----------7-------------|-------------------------||
|-----9-----------5-----7-|-----9-----7-----5-----7-||
|-0h7---0h5---0h3---0h5---|-0h7---0h5---0h3---0h5---||
|-------------------------|-------------------------||


 Pre-Verse
  N.C.                            Esus2       Em
 4/4
  W                                W           W
|-------------------------------|-----------|-------||
|-------------------------------|-----------|-------||
|-9-----------------------------|-11--------|-12----||
|-x-----------------------------|--x--------|--x----||
|-7-----------------------------|--9--------|-10----||
|-------------------------------|--0--------|--0----||
|
| S S S S S S S S S S S S S E S    W           W
|-------------------------------|-----------|-------||
|-------------------------------|-----------|-------||
|---------4-5-------------4-5---|-11--------|-12----||
|---5---7-----------5---7-------|--x--------|--x----||
|-7-------------7---------------|--9--------|-10----||
|-------------------------------|--0--------|--0----||


 Verse
  N.C.                              Cmaj7           Bsus4
  S S S S S S S S S S S S S S S S   S S S S S S S S S S S S S S S S
|---------------------------------|---------------------------------|
|---------------------------------|---------------------------------|
|-9-9---9-9-9---9-9-9---9-9-9---9-|-9-9---9-9-9---9-9-9---9-9-9-9-9-|
|-x-x---x-x-x---x-x-x---x-x-x---x-|-9-9---9-9-9---9-9-9---9-9-9-9-9-|
|-7-7---7-7-7---7-8-8---8-8-8---8-|-x-x---x-x-x---x-x-x---x-x-x-x-x-|
|---------------------------------|-8-8---8-8-8---8-7-7---7-7-7-7-7-|
|
| S S S S S S S S S S S S S S S S   S S S S S S S S S S S S S S S S
|---------------------------------|---------------------------------|
|---------------------------------|---------------------------------|
|---------------------------------|---------------------------------|
|-----4-5-7-5-4-0-----4-5-7-5-4-0-|-----4-5-7-5-4-0-----4-5-7-5-4-0-|
|-5-7-------------5-7-------------|-5-7-------------5-7-------------|
|---------------------------------|---------------------------------|


  N.C.                              Cmaj7           Bsus4
                                                PM|
  S S S S S S S S S S S S S S S S   S S S S S S S S S S S S S S S S
|---------------------------------|---------------------------------|
|---------------------------------|---------------------------------|
|-9-9---9-9-9---9-9-9---9-9-9---9-|-9-9---9-9-9-----9-9-9-9-9-9-9-9-|
|-x-x---x-x-x---x-x-x---x-x-x---x-|-9-9---9-9-9-----9-9-9-9-9-9-9-9-|
|-7-7---7-7-7---7-8-8---8-8-8---8-|-x-x---x-x-x-----x-x-x-x-x-x-x-x-|
|---------------------------------|-8-8---8-8-8-0-0-7-7-7-7-7-7-7-7-|
|
| S S S S S S S S S S S S S S S S   S S S S S S S S S S S S S S S S
|---------------------------------|---------------------------------|
|---------------------------------|---------------------------------|
|---------------------------------|---------------------------------|
|-----4-5-7-5-4-0-----4-5-7-5-4-0-|-----4-5-7-5-4-0-----4-5-7-5-4-0-|
|-5-7-------------5-7-------------|-5-7-------------5-7-------------|
|---------------------------------|---------------------------------|


  N.C.                              Cmaj7           Bsus4
  S S S S S S S S S S S S S S S S   S S S S S S S S S S S S S S S S
|---------------------------------|---------------------------------|
|---------------------------------|---------------------------------|
|-9-9---9-9-9---9-9-9---9-9-9---9-|-9-9---9-9-9---9-9-9---9-9-9-9-9-|
|-x-x---x-x-x---x-x-x---x-x-x---x-|-9-9---9-9-9---9-9-9---9-9-9-9-9-|
|-7-7---7-7-7---7-8-8---8-8-8---8-|-x-x---x-x-x---x-x-x---x-x-x-x-x-|
|---------------------------------|-8-8---8-8-8---8-7-7---7-7-7-7-7-|
|
| S S S S S S S S S S S S S S S S   S S S S S S S S S S S S S S S S
|---------------------------------|---------------------------------|
|---------------------------------|---------------------------------|
|---------------------------------|---------------------------------|
|-----4-5-7-5-4-0-----4-5-7-5-4-0-|-----4-5-7-5-4-0-----4-5-7-5-4-0-|
|-5-7-------------5-7-------------|-5-7-------------5-7-------------|
|---------------------------------|---------------------------------|


  N.C.                                 Cmaj7           Bsus4           Cmaj7
  S S S S S S S S  S  S S  S S S S S   H               Q..              S
|------------------------------------|------------------------------------||
|------------------------------------|------------------------------------||
|-9-9---9-9-9---9-10-10---10-9-9---9-|-9---------------9------------------||
|-x-x---x-x-x---x--x--x----x-x-x---x-|-9---------------9----------------9-||
|-7-7---7-7-7---7--8--8----8-8-8---8-|-x---------------x---------------10-||
|------------------------------------|-8---------------7----------------8-||
|
| S S S S S S S S  S  S S  S S S S S   S S S S S S S S S   S S S S S S  S
|------------------------------------|------------------------------------||
|------------------------------------|------------------------------------||
|------------------------------------|------------------------------------||
|-----4-5-7-5-4-0-------4--5-7-5-4-0-|-----4-5-7-5-4-0-4---5-7-5-4-4----9-||
|-5-7--------------5--7--------------|-5-7---------------------------0-10-||
|------------------------------------|-------------------------------0--8-||


 Chorus
  Cmaj7                                                                      E5
   +S   S  e  e  e  e    e    S  S S  S    +S   S  e  e  e  e    e    S  S S S
|---------------------------------------|--------------------------------------|
|---------------------------------------|--------------------------------------|
|---------------------------------------|--------------------------------------|
|--(9)--9--9--9--9-12----9---10--9----9-|--(9)--9--9--9--9-12----9---10--9---2-|
|-(10)-10-10-10-10-10---10---10-10---10-|-(10)-10-10-10-10-10---10---10-10---2-|
|--(8)--8--8--8--8--8----8----8--8----8-|--(8)--8--8--8--8--8----8----8--8---0-|
|
|                        PM|       PM                            PM|       PM
|  +S   S  e  e  e  S S  S S  S  S S  S    +S   S  e  e  e  S S  S S  S  S S S
|---------------------------------------|--------------------------------------|
|---------------------------------------|--------------------------------------|
|---------------------------------------|--------------------------------------|
|--(9)--9--9--9--9-12-9------12--9----9-|--(9)--9--9--9--9-12-9------12--9---2-|
|-(10)-10-10-10-10-------------------10-|-(10)-10-10-10-10-------------------2-|
|--(8)--8--8--8--8-------8-8-------8--8-|--(8)--8--8--8--8-------8-8-------8-0-|


  E5  N.C.                                                   Cmaj7
  +S  S E E E +E  E E S S   +S  S E   E   S S +S S E   E   S  S
|-------3-2-3-(3)-3-2-3-3-|-(3)-3-2---2---3-3-(3)3-2---2--------|
|-------------------------|-------------------------------------|
|-------------------------|-------------------------------------|
|-(2)---------------------|-----------------------------------9-|
|-(2)---------------------|--------------------------------0-10-|
|-(0)-0-------------------|--------------------------------0--8-|
|
| +S  S E E E +E  E E S S   +S  S S S S S S S  S S S S S S S  S
|-------------------------|-------------------------------------|
|-------8-7-------8-7-0-8-|-(8)-0-7p0-5p0-8p0--7p0-5p0-5s8-0----|
|-----------7-(7)---------|-------------------------------------|
|-(2)---------------------|-----------------------------------9-|
|-(2)---------------------|----------------------------------10-|
|-(0)-0-------------------|-----------------------------------8-|


    Cmaj7
     +S   S  e  e  e  e    e    S  S  S  S
||-----------------------------------------|
||o----------------------------------------|
||-----------------------------------------|
||---(9)--9-10--9-10-12----9----9-10--9--9-|
||o-(10)-10-10-10-10-10---10---10-10-10-10-|
||---(8)--8--8--8--8--8----8----8--8--8--8-|
|
|                          PM|        PM
|    +S   S  e  e  e  S S  S S  S  S  S  S
||-----------------------------------------|
||o----------------------------------------|
||-----------------------------------------|
||---(9)--9--9--9--9-12-9------12--9-----9-|
||o-(10)-10-10-10-10--------------------10-|
||---(8)--8--8--8--8-------8-8--------8--8-|


                                      E5
   +S   S  e  e  e  e    e    S  S  S S
|----------------------------------------|
|----------------------------------------|
|----------------------------------------|
|--(9)--9-10--9-10-12----9----9--9--9-2--|
|-(10)-10-10-10-10-10---10---10-10-10-2--|
|--(8)--8--8--8--8--8----8----8--8--8-0--|
|
|                        PM|        PM
|  +S   S  e  e  e  S S  S S  S  S  S S
|----------------------------------------|
|----------------------------------------|
|----------------------------------------|
|--(9)--9--9--9--9-12-9------12--9----2--|
|-(10)-10-10-10-10--------------------2--|
|--(8)--8--8--8--8-------8-8--------8-0--|


  E5  N.C.                                                   Cmaj7
  +S  S E E E +E  E E S S   +S  S E   E   S S +S S E   E   S  S
|-------3-2-3-(3)-3-2-3-3-|-(3)-3-2---2---3-3-(3)3-2---2---------||
|-------------------------|-------------------------------------o||
|-------------------------|--------------------------------------||
|-(2)---------------------|-----------------------------------9--||
|-(2)---------------------|--------------------------------0-10-o||
|-(0)-0-------------------|--------------------------------0--8--||
|
| +S  S E E E +E  E E S S   +S  S S S S S S S  S S S S S S S  S
|-------------------------|--------------------------------------||
|-------8-7-------8-7-0-8-|-(8)-0-7p0-5p0-8p0--7p0-5p0-5h7-0----o||
|-----------7-(7)---------|--------------------------------------||
|-(2)---------------------|-----------------------------------9--||
|-(2)---------------------|----------------------------------10-o||
|-(0)-0-------------------|-----------------------------------8--||


  Cmaj7
   +S   S  e  e  e  e  e  S  S S  S
|-----------------------------------|
|-----------------------------------|
|-----------------------------------|
|--(9)--9--9--9--9--9--9--9--9----9-|
|-(10)-10-10-10-10-10-10-10-10-0-10-|
|--(8)--8--8--8--8--8--8--8--8-0--8-|
|
|  +S   S  e  e  e  e  e  S  S S  S
|-----------------------------------|
|-----------------------------------|
|-----------------------------------|
|--(9)--9--9--9--9--9--9--9--9----9-|
|-(10)-10-10-10-10-10-10-10-10-0-10-|
|--(8)--8--8--8--8--8--8--8--8-0--8-|


   +S   S  e  e  e  e  e  S  S S  S    +S   S  e  e  e  e  e  S  S S  S
|-----------------------------------|-----------------------------------|
|-----------------------------------|-----------------------------------|
|-----------------------------------|-----------------------------------|
|--(9)--9--9--9--9--9--9--9--9----9-|--(9)--9--9--9--9--9--9--9--9----9-|
|-(10)-10-10-10-10-10-10-10-10-0-10-|-(10)-10-10-10-10-10-10-10-10-0-10-|
|--(8)--8--8--8--8--8--8--8--8-0--8-|--(8)--8--8--8--8--8--8--8--8-0--8-|
|
|  +S   S  e  e  e  e  e  S  S S  S    +S   S  e  e  e  e  e  S  S S  S
|-----------------------------------|-----------------------------------|
|-----------------------------------|-----------------------------------|
|-----------------------------------|-----------------------------------|
|--(9)--9--9--9--9--9--9--9--9----9-|--(9)--9--9--9--9--9--9--9--9----9-|
|-(10)-10-10-10-10-10-10-10-10-0-10-|-(10)-10-10-10-10-10-10-10-10-0-10-|
|--(8)--8--8--8--8--8--8--8--8-0--8-|--(8)--8--8--8--8--8--8--8--8-0--8-|


  Cmaj7
                                           5/4
   +S   S  e  e  E  S  S  S  S  S  S S  S    +W          +Q
|-----------------------------------------|--------------------||
|-----------------------------------------|--------------------||
|-----------------------------------------|--------------------||
|--(9)--9--9--9--9--9--9--9--9--9--9----9-|--(9)---------(9)\--||
|-(10)-10-10-10-10-10-10-10-10-10-10-0-10-|-(10)--------(10)\--||
|--(8)--8--8--8--8--8--8--8--8--8--8-0--8-|--(8)---------(8)\--||
|
|  +S   S  e  e  E  S  S  S  S  S  S S  S    +W          +Q
|-----------------------------------------|--------------------||
|-----------------------------------------|--------------------||
|-----------------------------------------|--------------------||
|--(9)--9--9--9--9--9--9--9--9--9--9----9-|--(9)---------(9)\--||
|-(10)-10-10-10-10-10-10-10-10-10-10-0-10-|-(10)--------(10)\--||
|--(8)--8--8--8--8--8--8--8--8--8--8-0--8-|--(8)---------(8)\--||


   Breakdown
    Faster Q=129
    E5
   4/4                          5/4
    PM-------------|                 PM----------|      PM
    S. S. S. S. S. S. +Q   +E.   +S. S. S. S. S. S. +E. T +E.. +Q
||-----------------------------|------------------------------------|
||o----------------------------|------------------------------------|
||-----------------------------|------------------------------------|
||-----------------------------|------------------------------------|
||o-2--2--2--2--2--2--(2)--(2)-|-(2)-2--2--2--2--2--(2)-2-(2)--(2)--|
||--0--0--0--0--0--0--(0)--(0)-|-(0)-0--0--0--0--0--(0)-0-(0)--(0)--|
|
|   PM-------------|                 PM----------|      PM
|   S. S. S. S. S. S. +Q   +E.   +S. S. S. S. S. S. +E. T +E.. +Q
||-----------------------------|------------------------------------|
||o----------------------------|------------------------------------|
||-----------------------------|------------------------------------|
||-----------------------------|------------------------------------|
||o-2--2--2--2--2--2--(2)--(2)-|-(2)-2--2--2--2--2--(2)-2-(2)--(2)--|
||--0--0--0--0--0--0--(0)--(0)-|-(0)-0--0--0--0--0--(0)-0-(0)--(0)--|


  PM-------------|            PM-|
  S. S. S. S. S. S. +Q.   +S  E. S
|-----------------------------------|
|-----------------------------------|
|-----------------------------------|
|-----------------------------------|
|-2--2--2--2--2--2--(2)---(2)-2--2--|
|-0--0--0--0--0--0--(0)---(0)-0--0--|
|
| PM-------------|
| S. S. S. S. S. S. +Q.   +S  Q
|-----------------------------------|
|-----------------------------------|
|-----------------------------------|
|-----------------------------2-----|
|-2--2--2--2--2--2--(2)---(2)-2-----|
|-0--0--0--0--0--0--(0)---(0)-0-----|


  Q=109
  C5/G
 6/8
   S  S  S  S  S  S  S  S  S  S  S  S    S  S  S  S  S  S  S  S  S  S  S  S
|-------------------------------------|--------------------------------------||
|-------------------------------------|-------------------------------------o||
|-12-12-12-11-11-11-12-12-12-11-11-11-|-12-12-12-11-11-11-12-12-12-11-11-11--||
|--x--x--x--x--x--x--x--x--x--x--x--x-|--x--x--x--x--x--x--x--x--x--x--x--x--||
|-10-10-10-10-10-10-10-10-10-10-10-10-|-10-10-10-10-10-10-10-10-10-10-10-10-o||
|-------------------------------------|--------------------------------------||
|
|  S  S  S  S  S  S  S  S  S  S  S  S    S  S  S  S  S  S  S  S  S  S  S  S
|-------------------------------------|--------------------------------------||
|-------------------------------------|-------------------------------------o||
|--5--5--5--5--5--5--5--5--5--5--5--5-|--5--5--5--5--5--5--5--5--5--5--5--5--||
|--5--5--5--5--5--5--5--5--5--5--5--5-|--5--5--5--5--5--5--5--5--5--5--5--5--||
|--3--3--3--3--3--3--3--3--3--3--3--3-|--3--3--3--3--3--3--3--3--3--3--3--3-o||
|--3--3--3--3--3--3--3--3--3--3--3--3-|--3--3--3--3--3--3--3--3--3--3--3--3--||


 Bridge
  N.C.
  Gtr III
   S  S S S S  S S S S  S S S    S  S S S S  S S  S S  S S S
|-----------------------------|------------------------------|
|-----------------------------|------------------------------|
|-------9------------9--------|-------9----------------------|
|--------------9------------9-|--------------9------9------9-|
|--0h=7---0h7----0h7----0h7---|--0h=7---0h7----0h=7----0h7---|
|-----------------------------|------------------------------|
|
| Gtr IV
|  S  S S S S  S S S S  S S S    S  S S S S  S S  S S  S S S
|---------0--------0--------0-|---------0--------10p0-10p0---|
|-------0---0----0---0----0---|-------0---0----0-----------0-|
|----12-------11-------11-----|----12-------11---------------|
|-14--------------------------|-14---------------------------|
|-----------------------------|------------------------------|
|-----------------------------|------------------------------|


  N.C.
   S  S S S S S S S S S S S   S S S S S S S S S S S S
|---------------------------|-------------------------|
|---------------------------|-------------------------|
|-------7-----------7-------|-----7-------------------|
|-------------7-----------7-|-----------7-----7-----7-|
|--0h=5---0h5---0h5---0h5---|-0h5---0h5---0h5---0h5---|
|---------------------------|-------------------------|
|
|  S  S S S S S S S S S S S   S S S S S S S S S S S S
|---------0-------7p0-7p0---|-7p0-----0-7p0---0-7p0---|
|-------0---0---0---------0-|-----0-------------------|
|----11-------9-------------|-------9-------9-------9-|
|-12------------------------|-------------------------|
|---------------------------|-------------------------|
|---------------------------|-------------------------|


  N.C.
    S  S S S S  S S  S S  S S S    S  S S S S  S S  S S  S S S
|-------------------------------|------------------------------|
|-------------------------------|------------------------------|
|--------9-------------9--------|-------9----------------------|
|---------------9-------------9-|--------------9------9------9-|
|---0h=7---0h7----0h=7----0h7---|--0h=7---0h7----0h=7----0h7---|
|-------------------------------|------------------------------|
|
|   S  S S S S  S S  S S  S S S    S  S S S S  S S  S S  S S S
|----------0--------10p0-10p0---|---------0--------10p0-10p0---|
|--------0---0----0-----------0-|-------0---0----0-----------0-|
|-----12-------11---------------|----12-------11---------------|
|-/14---------------------------|-14---------------------------|
|-------------------------------|------------------------------|
|-------------------------------|------------------------------|


  N.C.                                     D5      N.C.
   S  S S S S S S S S S S S   S S S E.     S S S S E
|---------------------------|------------------------||
|---------------------------|------------------------||
|-------7-----------7-------|-----7--------7-7-7-7---||
|-------------7-----------7-|-------0------7-7-7-7---||
|--0h=5---0h5---0h5---0h5---|-0h5---0------5-5-5-5---||
|---------------------------|------------------------||
|
|  S  S S S S S S S S S S S   S S S S  S S S S S S E
|---------0-------7p0-7p0---|-7p0------0-7p0-0-0-0---||
|-------0---0---0---------0-|-----0----------0-0-0---||
|----11-------9-------------|-------9----------------||
|-12------------------------|------------------------||
|---------------------------|------------------------||
|---------------------------|------------------------||


 Interlude
  Esus2
  Gtr I
            PM---|           PM--|
   E  +S    S  S  S  E  +S   S S S    E  E    E    E.     E.
|-12-(12)\----------12-(12)\-------|-------------------------------|
|-12-(12)\----------12-(12)\-------|-------------------------------|
|-12-(12)\----------12-(12)\-------|-12-11---12---12-----11--------|
|----------------------------------|--x--x----x----x------x--------|
|----------------------------------|-10--9---10---10------9--------|
|-----------0--0--0----------0-0-0-|-------------------------------|
|
| Gtr II
|                            PM--|         PM---|
|  E   S    S  S  S  E   S   S S S    E  S S  S S  E   S  S   S  S
|----------------------------------|-------------------------------|
|----------------------------------|-------------------------------|
|-11--11---11-11-11-11--11---------|-11-11--------11--11-11--11-11-|
|--9---9----9--9--9--9---9---------|--9--9---------9---9--9---9--9-|
|--7---7----7--7--7--7---7---------|--7--7---------7---7--7---7--7-|
|----------------------------0-0-0-|-------0--0-0------------------|


  C5/G                        B5/F#          C5D5/A
         PM--|        PM--|          PM--|
  E +S   S S S E +S   S S S   E +S   S S S E.  E.
|---------------------------|---------------------|
|---------------------------|---------------------|
|-5-(5)\-------5-(5)\-------|-4-(4)\--------------|
|-5-(5)\-------5-(5)\-------|-4-(4)\-------5---7--|
|-3-(3)\-------3-(3)\-------|-2-(2)\-------5---7--|
|--------0-0-0--------0-0-0-|--------0-0-0-3---5--|
|
| E  S   S S S E  S   S S S   E  S   S S S S E E.
|---------------------------|---------------------|
|---------------------------|---------------------|
|-5--5---5-5-5-5--5---5-5-5-|-4--4---4-4-4-4s5-7--|
|-5--5---5-5-5-5--5---5-5-5-|-4--4---4-4-4-4s5-7--|
|-3--3---3-3-3-3--3---3-3-3-|-2--2---2-2-2-2s3-5--|
|-3--3---3-3-3-3--3---3-3-3-|-2--2---2-2-2-2s3-5--|


  Esus2
            PM---|           PM--|
   E  +S    S  S  S  E  +S   S S S    E  E     e     E.     E.
|----------------------------------|---------------------------------|
|-12-(12)\----------12-(12)\-------|---------------------------------|
|-12-(12)\----------12-(12)\-------|-12-11----12----12-----11--------|
|----------------------------------|--x--x-----x-----x------x--------|
|----------------------------------|-10--9----10----10------9--------|
|-----------0--0--0----------0-0-0-|---------------------------------|
|
|                            PM--|
|  E   S    S  S  S  E   S   S S S    E  S  S  S  S  E   S  S   S  S
|----------------------------------|---------------------------------|
|----------------------------------|---------------------------------|
|-11--11---11-11-11-11--11---------|-11-11-11-11-11-11--11-11--11-11-|
|--9---9----9--9--9--9---9---------|--9--9--9--9--9--9---9--9---9--9-|
|--7---7----7--7--7--7---7---------|--7--7--7--7--7--7---7--7---7--7-|
|----------------------------0-0-0-|---------------------------------|


  C5/G                        B5/F#            D5/A
         PM--|        PM--|          PM--|
  E +S   S S S E +S   S S S   E +S   S S S E.  E.
|---------------------------|--------------------------|
|---------------------------|--------------------------|
|-5-(5)\-------5-(5)\-------|-4-(4)\-------------------|
|-5-(5)\-------5-(5)\-------|-4-(4)\-------5---7-------|
|-3-(3)\-------3-(3)\-------|-2-(2)\-------5---7-------|
|--------0-0-0--------0-0-0-|--------0-0-0-3---5-------|
|
| E  S   S S S E  S   S S S   E  S   S S S S E S  S S
|---------------------------|--------------------------|
|---------------------------|--------------------------|
|-5--5---5-5-5-5--5---5-5-5-|-4--4---4-4-4-4s5-7--7-7--|
|-5--5---5-5-5-5--5---5-5-5-|-4--4---4-4-4-4s5-7--7-7--|
|-3--3---3-3-3-3--3---3-3-3-|-2--2---2-2-2-2s3-5--5-5--|
|-3--3---3-3-3-3--3---3-3-3-|-2--2---2-2-2-2s3-5--5-5--|


  N.C.
   S  S  S  S  S  S  S  S  S  S  S  S    S  S  S  S  S  S  S  S  S  S  S  S
|-------------------------------------|-------------------------------------|
|-------------------------------------|-------------------------------------|
|-17-17-17-16-16-16-17-17-17-19-19-19-|-17-17-17-16-16-16-17-17-17-16-16-16-|
|--x--x--x--x--x--x--x--x--x--x--x--x-|--x--x--x--x--x--x--x--x--x--x--x--x-|
|-15-15-15-14-14-14-15-15-15-17-17-17-|-15-15-15-14-14-14-15-15-15-14-14-14-|
|-------------------------------------|-------------------------------------|
|
|  S  S  S  S  S  S  S  S  S  S  S  S    S  S  S  S  S  S  S  S  S  S  S  S
|-------------------------------------|-------------------------------------|
|-------------------------------------|-------------------------------------|
|--9--9--9--7--7--7--9--9--9--7--7--7-|--9--9--9--7--7--7--9--9--9--7--7--7-|
|--x--x--x--x--x--x--x--x--x--x--x--x-|--x--x--x--x--x--x--x--x--x--x--x--x-|
|--7--7--7--5--5--5--7--7--7--5--5--5-|--7--7--7--5--5--5--7--7--7--5--5--5-|
|-------------------------------------|-------------------------------------|


  C5/G                                  B5/F#                C5/G  D5/A
   S  S  S  S  S  S  S  S  S  S  S  S    S  S  S  S  S  S  S  S  S  S   S  S
|-------------------------------------|--------------------------------------|
|-------------------------------------|--------------------------------------|
|-14-14-14-16-16-16-17-17-17-16-16-16-|-14-14-14-12-12-12-11-11-11-12--12-12-|
|--x--x--x--x--x--x--x--x--x--x--x--x-|--x--x--x--x--x--x--x--x--x--x---x--x-|
|-12-12-12-14-14-14-15-15-15-14-14-14-|-12-12-12-10-10-10--9--9--9-10--10-10-|
|-------------------------------------|--------------------------------------|
|
|  E     S  S  S  S  E     S  S  S  S    E     S  S  S  S  S  E     E.
|-------------------------------------|--------------------------------------|
|-------------------------------------|--------------------------------------|
|--5-----5--5--5--5--5-----5--5--5--5-|--4-----4--4--4--4--4s=5-----7--------|
|--5-----5--5--5--5--5-----5--5--5--5-|--4-----4--4--4--4--4s=5-----7--------|
|--3-----3--3--3--3--3-----3--3--3--3-|--2-----2--2--2--2--2s=3-----5--------|
|--3-----3--3--3--3--3-----3--3--3--3-|--2-----2--2--2--2--2s=3-----5--------|



|-------------------------------------|-------------------------------------|
|-------------------------------------|-------------------------------------|
|-17-17-17-16-16-16-17-17-17-19-19-19-|-17-17-17-16-16-16-17-17-17-16-16-16-|
|--x--x--x--x--x--x--x--x--x--x--x--x-|--x--x--x--x--x--x--x--x--x--x--x--x-|
|-15-15-15-14-14-14-15-15-15-17-17-17-|-15-15-15-14-14-14-15-15-15-14-14-14-|
|-------------------------------------|-------------------------------------|
|
|  
|-------------------------------------|-------------------------------------|
|-------------------------------------|-------------------------------------|
|--9--9--9--7--7--7--9--9--9--7--7--7-|--9--9--9--7--7--7--9--9--9--7--7--7-|
|--x--x--x--x--x--x--x--x--x--x--x--x-|--x--x--x--x--x--x--x--x--x--x--x--x-|
|--7--7--7--5--5--5--7--7--7--5--5--5-|--7--7--7--5--5--5--7--7--7--5--5--5-|
|-------------------------------------|-------------------------------------|



|-------------------------------------|-------------||
|-------------------------------------|-------------||
|-14-14-14-16-16-16-17-17-17-16-16-16-|-14----12----||
|--x--x--x--x--x--x--x--x--x--x--x--x-|--x-----x----||
|-12-12-12-14-14-14-15-15-15-14-14-14-|-12----10----||
|-------------------------------------|-------------||
|
|  
|-------------------------------------|-------------||
|-------------------------------------|-------------||
|--5-----5--5--5--5--5-----5--5--5--5-|--4-----5----||
|--5-----5--5--5--5--5-----5--5--5--5-|--4-----5----||
|--3-----3--3--3--3--3-----3--3--3--3-|--2-----3----||
|--3-----3--3--3--3--3-----3--3--3--3-|--2-----3----||


 Outro
  


|---------------------------|-------------*|
|---------------------------|-------------*|
|---------------------------|-9-(9)\------*|
|-----5-----4-----5---------|-x-----------*|
|-0h7---0h5---0h3---0h5-(5)-|-7-(7)\------*|
|---------------------------|-------------*|
|
| 
|---------------------------|-------------*|
|---------------------------|-------------*|
|-----------7---------------|-9-(9)\------*|
|-----9-----------5---------|-x-----------*|
|-0h7---0h5---0h3---0h5--0--|-7-(7)\------*|
|---------------------------|-------------*|


========================================================================

ADELLEDA

Eb--15p14-------------------------------------------------------------
Bb-----------------------------------------------10-------------------
Gb-------------------12p11-------------11h12p11---------11h12p11------
Db----------5~~~~----------9~~~---------------12----------------12?-5-
Ab----------5~~~~----------9~~~-------------------------------------5-
Eb----------3~~~~--------- 7~~~-------------------------------------3-

Eb------------------------------------------------------------------
Bb---0--------------------------------------------------------------
Gb-?12p11--------11h12p11----10---11h12p11--------------------------
Db----------9--------------12---------------12----------------------
Ab----------9-------------------------------------------------------
Eb----------7-------------------------------------------------------

Eb------------------------------------------------------------------
Bb------------------------------------------------------------------
Gb------------------------------------------------------------------
Db?444-555-777-555-444-555-777-555-444-555-777-555-444-555-777-555--
Ab------------------------------------------------------------------
Eb------------------------------------------------------------------
This riff is played over the first two bars...
Eb-----------------------------------------------------------------
Bb-----------------------------------------------------------------
Gb-----------------------------------------------------------------
Db--444-555-444-555-777-555-444-555-777-555-444-555-(last 2 bars x2)
Ab-----------------------------------------------------------------
Eb-----------------------------------------------------------------

Eb-----------------------------------------------------------------
Bb-----------------------------------------------------------------
Gb--------------11----- 11--11----9/-11--11111111------------------
Db---------------x-------x--x-----x/-x---x-x-x-x---x2--------------
Ab--then----7-5--9-------9?-9-----7/-9---9-9-9-9-------------------
Eb---------------0?-0-0--0?-0--0--0--------------------------------

Eb-----------------------------------------------------------------
Bb-----------------------------------------------------------------
Gb---4-----4~~-------4------2~~-11----11-?10/-11-11111111----------
Db---4-4-4-4~~-4--44-4--4-4-4~~-x-----x----x/-x--x-x-x-x---x2------
Ab---2-2-2-2~~-2--22-2--2-2-2~~-9-----9----8/-9--9-9-9-9-----------
Eb------------------------------0-0-0-0--0-0-----------------------
This is what?s played during the ?verse?
Eb-----------------------------------------------------------------
Bb-------7-----------7----7-------------------------10p8-----------
Gb-----7---7---7---7---7----7---------------------------11p9-11p5--
Db---5-------5----5-----------play verse twice then--------------9~
Ab-----------------------------------------------------------------
Eb-----------------------------------------------------------------

Eb-----------------------------------------------------------------
Bb--------------7h8p7--10----8p7h8p7--------------8p7--------------
Gb-------------------7------------------9p7-9p7---------------(x2)-
Db--5-5-5---999-----------555-------222----7---555-----------------
Ab--5-5-5---999-----------555-------222--------555--------2~~------
Eb--3-3-3---777-----------333-------000--------333-----0-----------

Eb-----------------------------------------------------------------
Bb-----------------------------------------------------------------
Gb--------9/-11-12--14-12--11--12-14-12---77-7-77-7-77-7-77-7------
Db--2--5?-x/-x--x---x--x---x---x--x--x----xx-x-xx-x-xx-x-xx-x------
Ab?-2--5?-7/-9--10--12-10--9--10--12-10---55-5-55-5-55-5-55-5------
Eb--0--3-----------------------------------------------------------

Eb-----------------------------------------------------------------
Bb---------------------------------play top part-------------------
Gb-12-12--11-12--14--12-11--12------again-then..-16-16-14-16-14----
Db-x--x---x--x---x---x--x---x?(x2)----------------x-x--x--x--x-----
Ab?10-10--9--10--12-10--9--10--------------------14-4--12-14-12----
Eb-----------------------------------------------------------------

Eb-----------------------------------------------------------------
Bb-----------------11h12-12-12-12-12-12-12-11h12-11-11-11-11-11-11-
Gb--play---4-4-2-4-------------------------------------------------
Db--verse--4-4-2-4-------------------------------------------------
Ab--then..-2-2-0-2-------------------------------------------------
Eb-----------------------------------------------------------------

Eb-----------------------------------------------------------------
Bb-----------------------------------------------------------------
Gb-13-13-12-12-12-12?(for the next singing-14--part, just fool-----
Db--------------------around with -5--and---x----------------------
Ab---------------------------------5-------12----------------------
Eb---------------------------------3-------------------------------

Eb-----------------------------------------------------------------
Bb-----------------------------------------------------------------
Gb-----------------------------------------------------------------
Db-----------------------------------------------------------------
Ab?--------(some electronic noises...)-----------------------------
Eb----------------------------------------------------------------

Eb--15-16?15/13--11?15-16-15/13-11/13-11-/15-15-16-18-16-15-16-15~~
Bb-----------------------------------------------------------------
Gb-----------------------------------------------------------------
Db-----------------------------------------------------------------
Ab-----------------------------------------------------------------
Eb-----------------------------------------------------------------

========================================================================

A DAGGER THROUGH THE HEART OF ST. ANGELES

INTRO

guitar 1 (or right speaker)

d#--------------3p2p0-----3p2p0--------------3p2p0-----3p2p0-|
a#-555-555-3p1p0-----3p1p0--------------3p1p0-----3p1p0------|
f#-444-444----------------------555-555----------------------|
c#-222-222----------------------555-555----------------------| x4
g#------------------------------333-333----------------------|
d#-----------------------------------------------------------|

guitar 2 (or left speaker)

d#--------------------------------------------------------|
a#--------------------------------------------------------|
f#-999-999------------------------------------------------|
c#-999-999-9----10p9--9----10p9-101010-101010-9----10p9---| x4
g#-777-777--1010----10-1010-----101010-101010--1010----10-|
d#------------------------------8-8-8--8-8-8--------------|

words start halfway through this secion

guitar 1 (right)

d#-0-------3---2-/14----15p14~~~~-----------------------------|
a#------------------------------------------------------------|
f#-----2------------------------------------------------------|
c#------------------------------------------------------------|
g#---------------------------------10101010-10101010-10101010-|
d#---------------------------------10101010-9-9-9-9--8-8-8-8--|

guitar 2 (left)

d#-----------------------------------------------|
a#-----------------------------------------------|
f#-----------------------------------------------|
c#-----------------------------------------------|
g#-------------99999999999999999999/999999999999-|
d#-------------99998888777766665555/999988887777-|

verse begins (I think)

guitar 1 (right)                           guitar 2 (left)
     
d#-------------------------------------|    d#-----------|
a#-------------------------------------|    a#-----------| 
f#-9-8-8-8-9-8-8-8-11h12p11--11h12p11--| x2 f#-99888888h-| x4
c#-9-9-9-9-9-9-9-9--------12--------12-|    c#-99999999--|
g#-7-7-7-7-7-7-7-7---------------------|    g#-77777777--|
d#-------------------------------------|    d#-----------|
the first part is twice as long, so you are at the same point on
both guitars as of now. (that's why one is x2 and the other x4)

GUITAR 1: play the quick thing only the first time.
GUITAR 2: the hammer-down on f# string is for going from 8 to 9
          each time

verse continues... i guess.

guitar 1 (right)  guitar 2 (left

d#--------|    d#-8-7-10---12-10-14-10h12p10---8-7---------------|
a#--------|    a#------------------------------------------------|
f#-----9--| x8 f#------------------------------------99-99-99-99-| x4
c#-10--9--|    c#------------------------------------99-99-99-99-|
g#-10--7--|    g#------------------------------------77-77-77-77-|
d#-8------|    d#------------------------------------------------|

same as above, you are at the same point on both guitars as of now.

GUITAR 1: play those two chords 8 times with different tempos.
          listen to the song.
GUITAR 2: the power chords are during the "freedom ware your scars 
          of desire" part.

"Yeah... Yeah... Yeah..." (aka, 1 minute 25)

guitar 1 (right)

d#--------------------------|-------------------------|
a#--------------------------|-------------------------|
f#-9---9---9----------------|-------------------------|
c#-9---9---9---1010-1010-10-|-10p9--12p9--9h10--10-10-|
g#--------------------------|-------------------10-10-|
d#--------------------------|-------------------8--8--|

guitar 2 (left)

d#--------------------------|---------------------|
a#--------------------------|---------------------|
f#-9---9---9----------------|---------------------|
c#-9---9---9---1010-1010-10-|---------------10-10-|
g#-7---7---7---1010-1010-10-|---------------10-10-|
d#-------------8-8--8-8--8--|-8p7-10p7-7h8--8--8--|

BOTH GUITARS: play the first part once, and the second part 4 times.

right before the slow part

guitar 1 (right)         guitar 2 (left)

d#----------------|    d#----------------|    |------------------------|
a#----------------|    a#----------------|    |------------------------|
f#----------------| x8 f#----------------| x4 |------------------------| x4
c#-xxxxxxxx-10-10-|    c#-xxxxxxxx-10-10-|then|------------------------|
g#-xxxxxxxx-10-10-|    g#-xxxxxxxx-10-10-|    |----------------/10-10\-|
d#-xxxxxxxx-8--8--|    d#-xxxxxxxx-8--8--|    |-10p9-12p9-9h10---------|

both parts are at the same point.

right here, both guitars play in both speakers until the last section, 
which starts when George screams after the mumbling. Then they split up again.

Guitar 1 (right) first let power chord from last section ring 
                 for 4 bars before playing this part

d#---------------------------------------------------------------|
a#---------------------------------------------------------------|
f#--/12-12-1212-121211-11-11121212-------------------------------| x1
c#--------------------------------10-101010-101010-101010-101010-|  |
g#---------------------------------------------------------------|  |
d#---------------------------------------------------------------|  |
                                          let the last 10 ring ^  <--
Guitar 2 (left)                               for 8 bars 

d#------------------------------------------------------|
a#------------------------------------------------------|
f#------------------------------------------------------|
c#------------------------------------------------------| x2
g#-10-10101010-1010109-999-10101010---------------------|
d#---------------------------------8-8888-8888-8888-888-|

the guitars are at the same point after the 8 bars of ringing from 
guitar 1's part are done

Guitar 1 (right)

d#----------------------------------|--------------------|
a#----------------------------------|-8---8----10-10-8---| 1st part
f#-7---7-------7---7---7------------|---------7--7--7----| once, then
c#---------9---------------9---9----|--------------------| 2nd part
g#----------------------------------|--------------------| 4 times
d#----------------------------------|--------------------|

guitar 2 (left)

ok with this part right here originally i had the "x"s on the c# [lower] line but a
 guy mailed me to say that it should be on the f# (higher) line so you choose

d#----------------------------------|
a#----------------------------------|
f#--(x)-----(x)------(x)-----(x)----| x8
c#--[x]-----[x]------[x]-----[x]----|
g#-----10------10-------10------10--|
d#-8-------7-------10-------8-------|

both parts are lined up, things are getting quiet, the mumbling begins

guitar 1 (right)

d#-------------------|    |---10----10---|    |--10-----|
a#-8--8h10p8--8h10p8-|    |--8-----8-----|    |--8------| "directly 
f#-------------------| x4 |--------------| x4 |---------| through the
c#--10------10-------|then|--------------|then|---------| heart of st.
g#-------------------|    |--------------|    |---------| angeles..."
d#-------------------|    |--------------|    |---------|

guitar 2 (left)

d#-------------------|    |---------------------|    
a#-------------------|    |---------------------|    
f#-------------------| x4 |---------------------| x4 
c#-------------------|then|---------------------|then
g#-10-9-10---10-9-10-|    |-10-9-10---10-9-10---|    
d#-------------------|    |---------8---------8-|

guitar 2 cont'd

|--------------------------------|
|--------------------------------|
|--------------------------------| by now George has just finished
|--------------------------------| mumbling the title.
|-10-9-10---10-9-10---10-9-------|
|--------------------------------|

GEORGE SCREAMS! guitars are back to their respective speakers. things pick up

guitar 1 (right)

d#-------------------------| played in  |------------------| and thats
a#-------------------------| different  |------------------| the end of 
f#------4444-9-9-9-9--6666-| rhythms    |------------------| guitar 1.
c#-2222-5555-10101010-7777-| but play   |-1010101010101010-| guitar 2 
g#-2222-5555-10101010-7777-| it 8 times |-1010101010101010-| is from here
d#-0000-3333-8-8-8-8--5555-| then this  |-8-8-8-8-8-8-8-8--| on down.

guitar 2 (Left) from here on to the end. get this crazy solo, play 
it fast, and for every number below play the note twice I think. I 
left it spaced so you could read it easier (hopefully).

d#-----------------3-2-3-5-3-2-3-2-----------------7-6-------------|
a#-0-1-3-1-0-1-3-1-----------------3-1-0-1-3-1-0-1-----8-7-8-7-5-4-|
f#-----------------------------------------------------------------|
c#-----------------------------------------------------------------|
g#-----------------------------------------------------------------|
d#-----------------------------------------------------------------|
                                                 slide hard below
|-7-6-------5-----------------------------------------------------|
|-----8-7-8---8-7-3-1-0---0-1-0-1-3-1-0---0-1-0-1-3-3-1-1-0-///---|
|-----------------------2---------------2-------------------------|
|---------------------------------------------------------------2-|
|---------------------------------------------------------------2-|
|---------------------------------------------------------------0-|

|-------------------------|    |---------------------------|
|-------------------------|    |---------------------------|
|------4444-9-9-9-9--6666-| x2 |------4444-9-9-9-9---------| x2
|-2222-5555-10101010-7777-|then|-2222-5555-10101010-999/10-|then
|-2222-5555-10101010-7777-|    |-2222-5555-10101010-999/10-|
|-0000-3333-8-8-8-8--5555-|    |-0000-3333-8-8-8-8--777/8--|

|------------------|        |--------------------|
|------------------|        |--------------------|
|------------------|quiet...|--------------------| and you're done..
|-1010101010101010-|        |-10---10---10-------|
|-1010101010101010-|        |-10---10---10-------|
|-8-8-8-8-8-8-8-8--|        |-8----8----8--------|

========================================================================

POLAROIDS OF POLAR BEARS

Interlude

    Gtr III
||-----------7-----|-(7)---(7)--|-----------------|----------------||
||o----------------|------------|---------8-------|--(8)----(8)---o||
||------5----------|------------|-----------------|----------------||
||--5S7---7-(7)----|-(7)---(7)--|---10--(10)------|-(10)---(10)----||
||o----------------|------------|-8-(8)--(8)------|--(8)----(8)---o||
||-----------------|------------|-----------------|----------------||


  Q=70
  N.C.
 4/4
  TP  TP   TP    TP                         TP
|-7---8---10--|-12---(12)----(12)-|-(12)----7----|
|-------------|-------10-----(10)-|-(10)---------|
|-------------|-------------------|--------------|
|-------------|-------------------|--------------|
|-------------|-------------------|--------------|
|-------------|-------------------|--------------|


  N.C.
                              2/4
  TP    TP      TP  TP
|-8----10----|-12--13--15----|-(15)----|
|------------|---------------|---------|
|------------|---------------|---------|
|------------|---------------|---------|
|------------|---------------|---------|
|------------|---------------|---------|


   Intro
    Q=60
    N.C.
   4/4
                                                               4x
||----------7-----(7)-7--------|------------------------8p7----||
||o-----------0-----------8----|----------8-----------------8-o||
||------5----------------------|-------------------------------||
||--5S7---7-----7--7----7---10-|-----10-----10-----10----------||
||o----------------------------|-8-8----8------8-8----8-------o||
||-----------------------------|-------------------------------||


  N.C.
|----------7--(7)----|-(7)----|
|--------------------|--------|
|-----5--------------|--------|
|-5S7---7-(7)-(7)----|-(7)----|
|--------------------|--------|
|--------------------|--------|


 Verse 1
  Q=120
  F5                Fsus2
  Gtr I
|-----------------|-------------------------|
|-----------------|--8--8--8--8--8--8--8--8-|
|-----------------|-10-10-10-10-10-10-10-10-|
|-----------------|-10-10-10-10-10-10-10-10-|
|-----------------|--8--8--8--8--8--8--8--8-|
|-----------------|-------------------------|
|
| Gtr II
|-----------------|-------------------------|
|-----------------|-------------------------|
|-----------------|-------------------------|
|-3-3-3-3-3-3-3-3-|--3--3--3--3--3--3--3--3-|
|-3-3-3-3-3-3-3-3-|--3--3--3--3--3--3--3--3-|
|-1-1-1-1-1-1-1-1-|--1--1--1--1--1--1--1--1-|


|------------------|-------------------------|
|--8---------------|--8--8--8--8--8--8--8--8-|
|-10---------------|-10-10-10-10-10-10-10-10-|
|-10---------------|-10-10-10-10-10-10-10-10-|
|--8---------------|--8--8--8--8--8--8--8--8-|
|------------------|-------------------------|
|
|------------------|-------------------------|
|------------------|-------------------------|
|------------------|-------------------------|
|--3-3-3-3-3-3-3-3-|--3--3--3--3--3--3--3--3-|
|--3-3-3-3-3-3-3-3-|--3--3--3--3--3--3--3--3-|
|--1-1-1-1-1-1-1-1-|--1--1--1--1--1--1--1--1-|


  A5
|-------------------------------------|-------------------------------------|
|-------------------------------------|-------------------------------------|
|-------------------------------------|-------------------------------------|
|--7--7----7-7-7--7--7--7----7-7-7--7-|--7--7----7-7-7--7--7--7----7-7-7--7-|
|--7--7----7-7-7--7--7--7----7-7-7--7-|--7--7----7-7-7--7--7--7----7-7-7--7-|
|--5--5----5-5-5--5--5--5----5-5-5--5-|--5--5----5-5-5--5--5--5----5-5-5--5-|
|
|-------------------------------------|-------------------------------------|
|-------------------------------------|-------------------------------------|
|-16-16---16-----16-16-16---16-----16-|-16-16---16-----16-16-16---16-----16-|
|-------------------------------------|-------------------------------------|
|-14-14-0-14-----14-14-14-0-14-----14-|-14-14-0-14-----14-14-14-0-14-----14-|
|-------------------------------------|-------------------------------------|


  Fsus2
                    Gtr IV  Gtr I
                    TP
|-------------------------|--------------------------------------|
|-------------------------|--------------------------------------|
|-------------------------|--------------------------------------|
|--3--3--3--3--3--3-x\----|--3--3--3--3--3--3--3--3--3--3--3--3--|
|--3--3--3--3--3--3-x\----|--3--3--3--3--3--3--3--3--3--3--3--3--|
|--1--1--1--1--1--1-x\----|--1--1--1--1--1--1--1--1--1--1--1--1--|
|
|                   Gtr IV  Gtr II
|                   TP
|-------------------------|--------------------------------------|
|--8--8--8--8--8--8-------|--8--8--8--8--8--8--8--8--8--8--8--8--|
|-10-10-10-10-10-10-------|-10-10-10-10-10-10-10-10-10-10-10-10--|
|-10-10-10-10-10-10-x\----|-10-10-10-10-10-10-10-10-10-10-10-10--|
|--8--8--8--8--8--8-x\----|--8--8--8--8--8--8--8--8--8--8--8--8--|
|-------------------x\----|--------------------------------------|


  A5
|-------------------------------------|-------------------------------------|
|-------------------------------------|-------------------------------------|
|-------------------------------------|-------------------------------------|
|--7--7----7-7-7--7--7--7----7-7-7--7-|--7--7----7-7-7--7--7--7----7-7-7--7-|
|--7--7----7-7-7--7--7--7----7-7-7--7-|--7--7----7-7-7--7--7--7----7-7-7--7-|
|--5--5----5-5-5--5--5--5----5-5-5--5-|--5--5----5-5-5--5--5--5----5-5-5--5-|
|
|-------------------------------------|-------------------------------------|
|-------------------------------------|-------------------------------------|
|-16-16---16-----16-16-16---16-----16-|-16-16---16-----16-16-16---16-----16-|
|-------------------------------------|-------------------------------------|
|-14-14-0-14-----14-14-14-0-14-----14-|-14-14-0-14-----14-14-14-0-14-----14-|
|-------------------------------------|-------------------------------------|


  F5
|-------------------------------------|-------------------------------------|
|-------------------------------------|-------------------------------------|
|-------------------------------------|-------------------------------------|
|--3--3--3--3--3--3--3--3--3--3--3--3-|--3--3--3--3--3--3--3--3--3--3--3--3-|
|--3--3--3--3--3--3--3--3--3--3--3--3-|--3--3--3--3--3--3--3--3--3--3--3--3-|
|--1--1--1--1--1--1--1--1--1--1--1--1-|--1--1--1--1--1--1--1--1--1--1--1--1-|
|
|--8--8--8--8--8--8--8--8--8--8--8--8-|--8--8--8--8--8--8--8--8--8--8--8--8-|
|--8--8--8--8--8--8--8--8--8--8--8--8-|--8--8--8--8--8--8--8--8--8--8--8--8-|
|-10-10-10-10-10-10-10-10-10-10-10-10-|-10-10-10-10-10-10-10-10-10-10-10-10-|
|-10-10-10-10-10-10-10-10-10-10-10-10-|-10-10-10-10-10-10-10-10-10-10-10-10-|
|--8--8--8--8--8--8--8--8--8--8--8--8-|--8--8--8--8--8--8--8--8--8--8--8--8-|
|-------------------------------------|-------------------------------------|


   Verse 2
    A5
                                        ~~
||----------------------------------------|
||o---------------------------------------|
||----------------------9p7----------7----|
||---7--7-x--7--7--7--7-----10-9-10----10-|
||o--7--7-x--7--7--7--7-------------------|
||---5--5-x--5--5--5--5-------------------|
|
|                                       ~~
||----------------------------------------|
||o---------------------------------------|
||--14-14-x-14-14-14-14-9p7----7--9h10p=9-|
||--------------------------10------------|
||o-12-12-x-12-12-12-12-------------------|
||----------------------------------------|


  F5
                                         4x
|----------------------------------------||
|---------------------------------------o||
|----------------------------------------||
|--3--3-x--3--3--3--3--3--3--3--5--5--5--||
|--3--3-x--3--3--3--3--3--3--3--5--5--5-o||
|--1--1-x--1--1--1--1--1--1--1--3--3--3--||
|
|                                        4x
|----------------------------------------||
|---------------------------------------o||
|-10-10-x-10-10-10-10-10-10-10-12-12-12--||
|----------------------------------------||
|--8--8-x--8--8--8--8--8--8--8-10-10-10-o||
|----------------------------------------||


                            Asus2                                         A5
|-------------------------|--7--7--7--7--7--7--7--7-|--7-----7-----7---------|
|-------------------------|-10-10-10-10-10-10-10-10-|-10----10----10---------|
|-------------------------|--9--9--9--9--9--9--9--9-|--9-----9-----9---------|
|-------------------------|--7--7--7--7--7--7--7--7-|--7-----7-----7----x--7-|
|-------------------------|-------------------------|-------------------x--7-|
|-------------------------|-------------------------|-------------------x--5-|
|
|--7--7--7--7--7--7--7--7-|--7--7--7--7--7--7--7--7-|-----7-----7-----7-x--7-|
|-10-10-10-10-10-10-10-10-|-10-10-10-10-10-10-10-10-|----10----10----10-x-10-|
|--9--9--9--9--9--9--9--9-|--9--9--9--9--9--9--9--9-|-----9-----9-----9-x--9-|
|--7--7--7--7--7--7--7--7-|--7--7--7--7--7--7--7--7-|-----7-----7-----7-x--7-|
|--0--0--0--0--0--0--0--0-|--0--0--0--0--0--0--0--0-|-----0-----0-----0-x--0-|
|-------------------------|-------------------------|------------------------|


      F5
|----------------------------|----------------------------|
|----------------------------|----------------------------|
|----------------------------|----------------------------|
|-x-x--3--3-x-x--3--3-x-x--3-|-x-x--3--3-x-x--3--3-x-x--3-|
|-x-x--3--3-x-x--3--3-x-x--3-|-x-x--3--3-x-x--3--3-x-x--3-|
|-x-x--1--1-x-x--1--1-x-x--1-|-x-x--1--1-x-x--1--1-x-x--1-|
|
|----------------------------|----------------------------|
|-x-x--8--8-x-x--8--8-x-x--8-|-x-x--8--8-x-x--8--8-x-x--8-|
|-x-x-10-10-x-x-10-10-x-x-10-|-x-x-10-10-x-x-10-10-x-x-10-|
|-x-x-10-10-x-x-10-10-x-x-10-|-x-x-10-10-x-x-10-10-x-x-10-|
|-x-x--8--8-x-x--8--8-x-x--8-|-x-x--8--8-x-x--8--8-x-x--8-|
|----------------------------|----------------------------|


   Pre-Chorus
    Q=115
                   N.C.(Am)
    ~~~~~~~~~~~                             ~~~~~~~~~~~~~~~~~~~~~~~~~~~~~~~~~~~~~~
||--------------------------------------------|-----------------------------------|
||o-------------------------------------------|-----------------------------------|
||--------------------------------------------|-----------------------------------|
||--------------------------------3h5p==3-/10-|-(10)---9------/10--------9------9-|
||o-------------------------3h5p3-------------|-----------------------------------|
||--3--------5-----3h5p===3-------------------|-----------------------------------|
|
|   PM|        PM|                                PM-|          PM|        PM|
||--------------------------------------------|-----------------------------------|
||o-------------------------------------------|-----------------------------------|
||------0h12-------0h==12------------------12-|--------0h12---------0h12-------12-|
||-----------9--------------9---------------9-|-------------9------------9------9-|
||o-0-0--------0-0----------------0---0-------|---0--0----------0-0--------0-0----|
||--------------------------------------------|-----------------------------------|


      F5
                                                            3x
|----------------------------|------------------------------||
|----------------------------|-----------------------------o||
|----------------------------|------------------------------||
|-x-x--3--3-x-x--3--3-x-x--3-|-x-x--3--3-x-x--3--3-x-x--3---||
|-x-x--3--3-x-x--3--3-x-x--3-|-x-x--3--3-x-x--3--3-x-x--3--o||
|-x-x--1--1-x-x--1--1-x-x--1-|-x-x--1--1-x-x--1--1-x-x--1---||
|
|                                                           3x
|----------------------------|------------------------------||
|----------------------------|-----------------------------o||
|-x-x-10-10-x-x-10-10-x-x-10-|-x-x-10-10-x-x-10-10-x-x-10---||
|-x-x-10-10-x-x-10-10-x-x-10-|-x-x-10-10-x-x-10-10-x-x-10---||
|-x-x--8--8-x-x--8--8-x-x--8-|-x-x--8--8-x-x--8--8-x-x--8--o||
|----------------------------|------------------------------||


  Fsus2                        F5
|----------------------------|----------------------------|
|----------------------------|----------------------------|
|----------------------------|----------------------------|
|----------------------------|--3--3--3--3--3--3--3--3--3-|
|----------------------------|--3--3--3--3--3--3--3--3--3-|
|----------------------------|--1--1--1--1--1--1--1--1--1-|
|
|--8--8--8--8--8--8--8--8--8-|--8--8--8--8--8--8--8--8--8-|
|--8--8--8--8--8--8--8--8--8-|--8--8--8--8--8--8--8--8--8-|
|-10-10-10-10-10-10-10-10-10-|-10-10-10-10-10-10-10-10-10-|
|-10-10-10-10-10-10-10-10-10-|-10-10-10-10-10-10-10-10-10-|
|--8--8--8--8--8--8--8--8--8-|--8--8--8--8--8--8--8--8--8-|
|----------------------------|----------------------------|


|----------------------------|----------------------------|
|----------------------------|----------------------------|
|----------------------------|----------------------------|
|--3--3--3--3--3--3--3--3--3-|--3--3--3--3--3--3--3--3--3-|
|--3--3--3--3--3--3--3--3--3-|--3--3--3--3--3--3--3--3--3-|
|--1--1--1--1--1--1--1--1--1-|--1--1--1--1--1--1--1--1--1-|
|
|--8--8--8--8--8--8--8--8--8-|--8--8--8--8--8--8--8--8--8-|
|--8--8--8--8--8--8--8--8--8-|--8--8--8--8--8--8--8--8--8-|
|-10-10-10-10-10-10-10-10-10-|-10-10-10-10-10-10-10-10-10-|
|-10-10-10-10-10-10-10-10-10-|-10-10-10-10-10-10-10-10-10-|
|--8--8--8--8--8--8--8--8--8-|--8--8--8--8--8--8--8--8--8-|
|----------------------------|----------------------------|


 Chorus
  A5                G5
 4/4
  Gtr I
|-------------------------------------|
|-------------------------------------|
|-------------------------------------|
|--7--7--7--7--7--7--5--5--5--5--5--5-|
|--7--7--7--7--7--7--5--5--5--5--5--5-|
|--5--5--5--5--5--5--3--3--3--3--3--3-|
|
| Gtr II
|-------------------------------------|
|-------------------------------------|
|-17-17-17-17-17-17-14-14-14-14-14-14-|
|-------------------------------------|
|-15-15-15-15-15-15-12-12-12-12-12-12-|
|-------------------------------------|


  F5                                    A5                G5
|-------------------------------------|-------------------------------------|
|-------------------------------------|-------------------------------------|
|-------------------------------------|-------------------------------------|
|--3--3--3--3--3--3--3--3--3--3--3--3-|--7--7--7--7--7--7--5--5--5--5--5--5-|
|--3--3--3--3--3--3--3--3--3--3--3--3-|--7--7--7--7--7--7--5--5--5--5--5--5-|
|--1--1--1--1--1--1--1--1--1--1--1--1-|--5--5--5--5--5--5--3--3--3--3--3--3-|
|
|-------------------------------------|-------------------------------------|
|-------------------------------------|-------------------------------------|
|-12-12-12-12-12-12-12-12-12-12-12-12-|-17-17-17-17-17-17-14-14-14-14-14-14-|
|-------------------------------------|-------------------------------------|
|-10-10-10-10-10-10-10-10-10-10-10-10-|-15-15-15-15-15-15-12-12-12-12-12-12-|
|-------------------------------------|-------------------------------------|


  F5F5                               A5                G5
|----------------------------------|-------------------------------------|
|----------------------------------|-------------------------------------|
|----------------------------------|-------------------------------------|
|--3--3--3--3--3--3--3--3--3-3-3-3-|--7--7--7--7--7--7--5--5--5--5--5--5-|
|--3--3--3--3--3--3--3--3--3-3-3-3-|--7--7--7--7--7--7--5--5--5--5--5--5-|
|--1--1--1--1--1--1--1--1--1-1-1-1-|--5--5--5--5--5--5--3--3--3--3--3--3-|
|
|----------------------------------|-------------------------------------|
|----------------------------------|-------------------------------------|
|-12-12-12-12-12-12-10-10-10-9-9-9-|-17-17-17-17-17-17-14-14-14-14-14-14-|
|----------------------------------|-------------------------------------|
|-10-10-10-10-10-10--8--8--8-7-7-7-|-15-15-15-15-15-15-12-12-12-12-12-12-|
|----------------------------------|-------------------------------------|


  F5
|--------------------------------------|
|--------------------------------------|
|--------------------------------------|
|--3--3--3--3--3--3--3--3--3--3--3--3--|
|--3--3--3--3--3--3--3--3--3--3--3--3--|
|--1--1--1--1--1--1--1--1--1--1--1--1--|
|
|--------------------------------------|
|--------------------------------------|
|-12-12-12-12-12-12-12-12-12-12-12-12--|
|--------------------------------------|
|-10-10-10-10-10-10-10-10-10-10-10-10--|
|--------------------------------------|


  A5A5              G5                  F5
|-------------------------------------|-------------------------------------|
|-------------------------------------|-------------------------------------|
|-------------------------------------|-------------------------------------|
|--7--7--7--7--7--7--5--5--5--5--5--5-|--3--3--3--3--3--3--3--3--3--3--3--3-|
|--7--7--7--7--7--7--5--5--5--5--5--5-|--3--3--3--3--3--3--3--3--3--3--3--3-|
|--5--5--5--5--5--5--3--3--3--3--3--3-|--1--1--1--1--1--1--1--1--1--1--1--1-|
|
|-------------------------------------|-------------------------------------|
|-------------------------------------|-------------------------------------|
|-17-17-17-17-17-17-14-14-14-14-14-14-|-17-17-17-17-17-17-17-17-17-17-17-17-|
|-------------------------------------|-------------------------------------|
|-15-15-15-15-15-15-12-12-12-12-12-12-|-15-15-15-15-15-15-15-15-15-15-15-15-|
|-------------------------------------|-------------------------------------|


|--------------------------------------|
|--------------------------------------|
|--------------------------------------|
|--3--3--3--3--3--3--3--3--3--3--3--3--|
|--3--3--3--3--3--3--3--3--3--3--3--3--|
|--1--1--1--1--1--1--1--1--1--1--1--1--|
|
|--------------------------------------|
|--------------------------------------|
|-17-17-17-17-17-17-17-17-17-17-17-17--|
|--------------------------------------|
|-15-15-15-15-15-15-15-15-15-15-15-15--|
|--------------------------------------|


   Bridge
    Q=110
    A5
||----------------------------------------|
||o---------------------------------------|
||----------------------------------------|
||--7--7-(7)-7-7--7--7-(7)-7-7--7-(7)(7)--|
||o-7--7-(7)-7-7--7--7-(7)-7-7--7-(7)(7)--|
||--5--5-(5)-5-5--5--5-(5)-5-5--5-(5)(5)--|
|
||----------------------------------------|
||o---------------------------------------|
||--9h10h12p10p9--9h10h12p10p9--9h10h12---|
||----------------------------------------|
||o---------------------------------------|
||----------------------------------------|


|-----------------------------------------||
|----------------------------------------o||
|-----------------------------------------||
|-7--7-(7)-7-7--7--7-(7)-7-7--7-(7)(7)----||
|-7--7-(7)-7-7--7--7-(7)-7-7--7-(7)(7)---o||
|-5--5-(5)-5-5--5--5-(5)-5-5--5-(5)(5)----||
|
|-----------------------------------------||
|----------------------------------------o||
|-9h10h12p10p9--9h10h12p10p9--9h10h12-----||
|-----------------------------------------||
|----------------------------------------o||
|-----------------------------------------||


    A5
||-------------------------------------------|
||o------------------------------------------|
||---------------16---16----16---16----------|
||--7-(7)-7-(7)------------------------------|
||o-7-(7)-7-(7)0-14-0-14--0-14-0-14----------|
||--5-(5)-5-(5)------------------------------|
|
||-------------------------------------------|
||o------------------------------------------|
||--9h10h12p10p9----9h10h12p10p9----9h10h12--|
||-------------------------------------------|
||o------------------------------------------|
||-------------------------------------------|


  A5
|--------------------------------------------||
|-------------------------------------------o||
|--------------16---16----16---16------------||
|-7-(7)-7-(7)--------------------------------||
|-7-(7)-7-(7)0-14-0-14--0-14-0-14-----------o||
|-5-(5)-5-(5)--------------------------------||
|
|--------------------------------------------||
|-------------------------------------------o||
|-9h10h12p10p9----9h10h12p10p9----9h10h12----||
|--------------------------------------------||
|-------------------------------------------o||
|--------------------------------------------||


                              Q=60
  N.C.                          Fsus2  D
                                      11/16
|------------------------------------|------------|
|-----------------------------x--8---|------------|
|-9-10-12-10-9-10-9----9-10-9-x-10-x-|--7-----(7)-|
|-------------------12--------x-10---|------------|
|-----------------------------x--8-x-|--5-----(5)-|
|------------------------------------|------------|
|
|------------------------------------|------------|
|-----------------------------x--8---|------------|
|-9-10-12-10-9-10-9-10-9----9-x-10-x-|-12----(12)-|
|------------------------12---x-10---|------------|
|-----------------------------x--8-x-|-10----(10)-|
|------------------------------------|------------|


  A       C                               E       G
 4/4
|-------------------------|-------------|-------------------------|---------|
|-------------------------|-------------|-------------------------|---------|
|-14-(14)-14-(14)-(14)----|-(14)--------|--9--(9)-12-(12)-(12)----|-(12)----|
|-------------------------|-------------|-------------------------|---------|
|-12-(12)-12-(12)-(12)----|-(12)--------|--7--(7)-10-(10)-(10)----|-(10)----|
|-------------------------|-------------|-------------------------|---------|
|
|-------------------------|-------------|-------------------------|---------|
|-------------------------|-------------|-------------------------|---------|
|-14-(14)-17-(17)-(17)----|-(17)--------|-14-(14)-12-(12)-(12)----|-(12)----|
|-------------------------|-------------|-------------------------|---------|
|-12-(12)-15-(15)-(15)----|-(15)--------|-12-(12)-10-(10)-(10)----|-(10)----|
|-------------------------|-------------|-------------------------|---------|


  E       G
|-------------------------|-------------|
|-------------------------|-------------|
|--9--(9)-12-(12)-(12)----|-(12)--------|
|-------------------------|-------------|
|--7--(7)-10-(10)-(10)----|-(10)--------|
|-------------------------|-------------|
|
|-------------------------|-------------|
|-------------------------|-------------|
|-14-(14)-17-(17)-(17)----|-(17)--------|
|-------------------------|-------------|
|-12-(12)-15-(15)-(15)----|-(15)--------|
|-------------------------|-------------|


  G  E D    E C
|-----------------------------|---------|
|-----------------------------|---------|
|-12S9---7S=9--5--(5)--(5)----|--(5)----|
|-----------------------------|---------|
|-10S7---5S=7--3--(3)--(3)----|--(3)----|
|-----------------------------|---------|
|
|-----------------------------|---------|
|-----------------------------|---------|
|-14---(14)---12-(12)-(12)----|-(12)----|
|-----------------------------|---------|
|-12---(12)---10-(10)-(10)----|-(10)----|
|-----------------------------|---------|


 Build-Up
  A5    B5    C5    F5
  PM----------------------|
|-------------------------------------------|
|-------------------------------------------|
|-------4-4-4-5-5-5-------------------------|
|-2-2-2-4-4-4-5-5-5--3--3--3-3--3---3----3--|
|-0-0-0-2-2-2-3-3-3--3--3--3-3--3---3----3--|
|--------------------1--1--1-1--1---1----1--|
|
| PM--|              PM---|
|-------7-----------------------------------|
|----------------------------8-(8)-(8)--(8)-|
|-----5---4h5-------------------------------|
|-5-7---------7-----10-10-10-------10--(10)-|
|--------------------8--8--8----8--(8)---8--|
|-------------------------------------------|


    PM---|                   PM---|
|---------------------------------------------------|
|---------------------------------------------------|
|---------------------------------------------------|
|---3--3--3-3--3---3----3----3--3--3-3--3---3----3--|
|---3--3--3-3--3---3----3----3--3--3-3--3---3----3--|
|---1--1--1-1--1---1----1----1--1--1-1--1---1----1--|
|
|   PM---|                   PM---|
|---------------------------------------------------|
|-----------8-(8)-(8)--(8)-----------8-(8)-(8)--(8)-|
|---------------------------------------------------|
|--10-10-10-------10--(10)--10-10-10-------10--(10)-|
|---8--8--8----8--(8)---8----8--8--8----8--(8)---8--|
|---------------------------------------------------|


  A5    B5    C5    F5
  PM----------------------|
|-------------------------------------------|
|-------------------------------------------|
|-------4-4-4-5-5-5-------------------------|
|-2-2-2-4-4-4-5-5-5--3--3--3-3--3---3----3--|
|-0-0-0-2-2-2-3-3-3--3--3--3-3--3---3----3--|
|--------------------1--1--1-1--1---1----1--|
|
| PM--|              PM---|
|-------7-----------------------------------|
|----------------------------8-(8)-(8)--(8)-|
|-----5---4h5-------------------------------|
|-5-7---------7-----10-10-10-------10--(10)-|
|--------------------8--8--8----8--(8)---8--|
|-------------------------------------------|


    PM---|                   PM---|
|-----------------------------------------------|
|-----------------------------------------------|
|-----------------------------------------------|
|---3--3--3-3--3---3----3----3--3--3-3---3-3-3--|
|---3--3--3-3--3---3----3----3--3--3-3---3-3-3--|
|---1--1--1-1--1---1----1----1--1--1-1---1-1-1--|
|
|   PM---|                   PM---|
|------------------------------------7h8p7------|
|-----------8-(8)-(8)--(8)-----------------8----|
|-----------------------------------------------|
|--10-10-10-------10--(10)--10-10-10------------|
|---8--8--8----8--(8)---8----8--8--8------------|
|-----------------------------------------------|


  A5    B5    C5    F5
  PM----------------------|
|-------------------------------------------|
|-------------------------------------------|
|-------4-4-4-5-5-5-------------------------|
|-2-2-2-4-4-4-5-5-5--3--3--3-3--3---3----3--|
|-0-0-0-2-2-2-3-3-3--3--3--3-3--3---3----3--|
|--------------------1--1--1-1--1---1----1--|
|
| PM--|              PM---|
|-------7-----------------------------------|
|----------------------------8-(8)-(8)--(8)-|
|-----5---4h5-------------------------------|
|-5-7---------7-----10-10-10-------10--(10)-|
|--------------------8--8--8----8--(8)---8--|
|-------------------------------------------|


    PM---|                   PM---|
|---------------------------------------------------|
|---------------------------------------------------|
|---------------------------------------------------|
|---3--3--3-3--3---3----3----3--3--3-3--3---3----3--|
|---3--3--3-3--3---3----3----3--3--3-3--3---3----3--|
|---1--1--1-1--1---1----1----1--1--1-1--1---1----1--|
|
|   PM---|                   PM---|
|---------------------------------------------------|
|-----------8-(8)-(8)--(8)-----------8-(8)-(8)--(8)-|
|---------------------------------------------------|
|--10-10-10-------10--(10)--10-10-10-------10--(10)-|
|---8--8--8----8--(8)---8----8--8--8----8--(8)---8--|
|---------------------------------------------------|


  A5    B5    C5    F5
  PM----------------------|
|-------------------------------------------|--------------------|
|-------------------------------------------|--------------------|
|-------4-4-4-5-5-5-------------------------|--------------------|
|-2-2-2-4-4-4-5-5-5--3--3--3-3--3---3----3--|--(3)----3--3--3----|
|-0-0-0-2-2-2-3-3-3--3--3--3-3--3---3----3--|--(3)----3--3--3----|
|--------------------1--1--1-1--1---1----1--|--(1)----1--1--1----|
|
| PM--|              PM---|
|-------7-----------------------------------|---------8--8--8----|
|----------------------------8-(8)-(8)--(8)-|--(8)----8--8--8----|
|-----5---4h5-------------------------------|--------10-10-10----|
|-5-7---------7-----10-10-10-------10--(10)-|-(10)---10-10-10----|
|--------------------8--8--8----8--(8)---8--|--(8)----8--8--8----|
|-------------------------------------------|--------------------|


   Outro
    A5    B5    C5       F5
                               PM|
||---------------------------------------------|
||o--------------------------------------------|
||--------4-4-4--5--5--5-----------------------|
||--2-2-2-4-4-4--5--5--5--3--3-3-3--3--3--3--3-|
||o-0-0-0-2-2-2--3--3--3--3--3-3-3--3--3--3--3-|
||------------------------1--1-1-1--1--1--1--1-|
|
||---------------------------------------------|
||o--------------------------------------------|
||-----------------------12-12-x-x-12-12-12-12-|
||--7-7-7-9-9-9-10-10-10-----------------------|
||o-7-7-7-9-9-9-10-10-10-10-10-x-x-10-10-10-10-|
||--5-5-5-7-7-7--8--8--8-----------------------|
|
|     Gtr III
||---------------------------------------------|
||o--------------------------------------------|
||---------------------------------------------|
||---------------------------------------------|
||o--------------------------------------------|
||---------------------------------------------|


                                                              A5    B5    C5
              PM|                         PM|
                                                           4x
|----------------------------------------------------------||------------------------*|
|---------------------------------------------------------o||------------------------*|
|----------------------------------------------------------||-------4-4-4--5---------*|
|-(3)----3--3-3-3--3--3--3--3-(3)----3--3-3-3--3--3--3--3--||-2-2-2-4-4-4--5---------*|
|-(3)----3--3-3-3--3--3--3--3-(3)----3--3-3-3--3--3--3--3-o||-0-0-0-2-2-2--3---------*|
|-(1)----1--1-1-1--1--1--1--1-(1)----1--1-1-1--1--1--1--1--||------------------------*|
|
|                                                          4x
|----------------------------------------------------------||------------------------*|
|---------------------------------------------------------o||------------------------*|
|--x--x-12-12-x-x-12-12-12-12--x--x-12-12-x-x-12-12-12-12--||------------------------*|
|----------------------------------------------------------||-7-7-7-9-9-9-10---------*|
|--x--x-10-10-x-x-10-10-10-10--x--x-10-10-x-x-10-10-10-10-o||-7-7-7-9-9-9-10---------*|
|----------------------------------------------------------||-5-5-5-7-7-7--8---------*|
|
|                                                          4x
|----------------------------------------------------------||------------------------*|
|---------------------------------------------------------o||----------------8-------*|
|----------------------------------------------------------||------------------------*|
|----------------------------------------------------------||------------------10----*|
|---------------------------------------------------------o||--------------8---------*|
|----------------------------------------------------------||------------------------*|

================================================================================

WATERWINGS( AND OTHER POOL SIDE FASHION FAUX PAS)

Verse 1 & 2
   Q=116
               $
               E5                       G5                  D5
  4/4
   Gtr I
      PM--|
   Q  S S S  S  +S   S  E  S  S  S  S    +S   S  E  S  S  S  E  S  E  S  S  S  S
*|------------------------------------|------------------------------------------|
*|------------------------------------|------------------------------------------|
*|-----------9--(9)--9--9--9--9--9-12-|-(12)-12-12-12-12-12--7--7--7--7--7--7--7-|
*|-----------9--(9)--9--9--9--9--9-12-|-(12)-12-12-12-12-12--7--7--7--7--7--7--7-|
*|-----------7--(7)--7--7--7--7--7-10-|-(10)-10-10-10-10-10--5--5--5--5--5--5--5-|
*|----0-0-0---------------------------|------------------------------------------|
|
|  Gtr II
|     PM--|
|  Q  S S S  S  +S   S  E  S  S  S  S    +S   S  E  S  S  S  E  S  E  S  S  S  S
*|------------------------------------|------------------------------------------|
*|------------------------------------|------------------------------------------|
*|----------12-(12)-12-12-12-12-12-14-|-(14)-14-14-14-14-14-11-11-11-11-11-11-11-|
*|------------------------------------|------------------------------------------|
*|----------10-(10)-10-10-10-10-10-12-|-(12)-12-12-12-12-12--9--9--9--9--9--9--9-|
*|----0-0-0---------------------------|------------------------------------------|


                   E5                G5
             PM--|
   +S   S  E S S S  E  S  E  S  S  S  S
|---------------------------------------|
|---------------------------------------|
|--(7)--7--7--------9--9--9--9--9--9-12-|
|--(7)--7--7--------9--9--9--9--9--9-12-|
|--(5)--5--5--------7--7--7--7--7--7-10-|
|------------0-0-0----------------------|
|
|            PM--|
|  +S   S  E S S S  E  S  E  S  S  S  S
|---------------------------------------|
|---------------------------------------|
|-(11)-11-11-------12-12-12-12-12-12-14-|
|---------------------------------------|
|--(9)--9--9-------10-10-10-10-10-10-12-|
|------------0-0-0----------------------|


                      D5
   +S   S  E  S  S  S  E  S  E  S  S  S  S
|------------------------------------------|
|------------------------------------------|
|-(12)-12-12-12-12-12--7--7--7--7--7--7--7-|
|-(12)-12-12-12-12-12--7--7--7--7--7--7--7-|
|-(10)-10-10-10-10-10--5--5--5--5--5--5--5-|
|------------------------------------------|
|
|  +S   S  E  S  S  S  E  S  E  S  S  S  S
|------------------------------------------|
|------------------------------------------|
|-(14)-14-14-14-16-16-11-11-11-11-11-11-11-|
|------------------------------------------|
|-(12)-12-12-12-14-14--9--9--9--9--9--9--9-|
|------------------------------------------|


                   E5                C5                D5
             PM--|
   +S   S  E S S S  E  S  E  S  S  S S   +S  S E S S S  E  S  E  S  S  S  S
|--------------------------------------|------------------------------------|
|--------------------------------------|------------------------------------|
|--(7)--7--7--------9--9--9--9--9--9-5-|-(5)-5-5-5-5-5--7--7--7--7--7--7--7-|
|--(7)--7--7--------9--9--9--9--9--9-5-|-(5)-5-5-5-5-5--7--7--7--7--7--7--7-|
|--(5)--5--5--------7--7--7--7--7--7-3-|-(3)-3-3-3-3-3--5--5--5--5--5--5--5-|
|------------0-0-0---------------------|------------------------------------|
|
|            PM--|
|  +S   S  E S S S  E  S  E  S  S  S S   +S  S E S S S  E  S  E  S  S  S  S
|--------------------------------------|------------------------------------|
|--------------------------------------|------------------------------------|
|-(11)-11-11-------12-12-12-12-12-12-9-|-(9)-9-9-9-9-9-11-11-11-11-11-11-11-|
|--------------------------------------|------------------------------------|
|--(9)--9--9-------10-10-10-10-10-10-7-|-(7)-7-7-7-7-7--9--9--9--9--9--9--9-|
|------------0-0-0---------------------|------------------------------------|


                                 To Coda
                   E5                G5
             PM--|
   +S   S  E S S S  E  S  E  S  S  S  S
|---------------------------------------|
|---------------------------------------|
|--(7)--7--7--------9--9--9--9--9--9-12-|
|--(7)--7--7--------9--9--9--9--9--9-12-|
|--(5)--5--5--------7--7--7--7--7--7-10-|
|------------0-0-0----------------------|
|
|            PM--|
|  +S   S  E S S S  E  S  E  S  S  S  S
|---------------------------------------|
|---------------------------------------|
|-(11)-11-11-------12-12-12-12-12-12-14-|
|---------------------------------------|
|--(9)--9--9-------10-10-10-10-10-10-12-|
|------------0-0-0----------------------|


                      D5             D5
   +S   S  E  S  S  S  E S S S S S S  S
|----------------------------------------|
|----------------------------------------|
|-(12)-12-12-12-12-12--7--------------7--|
|-(12)-12-12-12-12-12--7--------------7--|
|-(10)-10-10-10-10-10--5--------------5--|
|------------------------0-0-0-0-0-0-----|
|
|  +S   S  E  S  S  S  E S S S S S S  S
|----------------------------------------|
|----------------------------------------|
|-(14)-14-14-14-14-14-11-------------11--|
|----------------------------------------|
|-(12)-12-12-12-12-12--9--------------9--|
|------------------------0-0-0-0-0-0-----|


                   D5       D5       D5              D5 E5
                                         2/4
   +S  S S S S S S  E  S  S  E  S  S  S    +S   S  S  E  S  S  S
|---------------------------------------|------------------------|
|---------------------------------------|------------------------|
|--(7)--------------7--------7--------7-|--(7)--------7--9--9--9-|
|--(7)--------------7--------7--------7-|--(7)--------7--9--9--9-|
|--(5)--------------5--------5--------5-|--(5)--------5--7--7--7-|
|------0-0-0-0-0-0-----0--0-----0--0----|-------0--0-------------|
|
|  +S  S S S S S S  E  S  S  E  S  S  S    +S   S  S  E  S  S  S
|---------------------------------------|------------------------|
|---------------------------------------|------------------------|
|-(11)-------------14-14-14-16-16-16-19-|-(19)-19-19-19-21-21-21-|
|---------------------------------------|------------------------|
|--(9)-------------12-12-12-14-14-14-17-|-(17)-17-17-17-19-19-19-|
|------0-0-0-0-0-0----------------------|------------------------|


   Pre-Chorus
        E        E    E              E        E    E
   4/4
    PM|    PM--|    PM           PM|    PM--|    PM
    E E  E S S S  E S  E  S  S   E E  E S S S  E S  E  S S
||-----------------------------|---------------------------|
||o----------------------------|---------------------------|
||-------9--------9----9--9--9-|------9--------9----9--9---|
||-----------------------------|-------------------------0-|
||o------7--------7----7--7--7-|------7--------7----7--7---|
||--0-0----0-0-0----0----------|-0-0----0-0-0----0---------|
|
|   PM|    PM--|    PM           PM|    PM--|    PM
|   E E  E S S S  E S  E  S  S   E E  E S S S  E S  E  S S
||-----------------------------|---------------------------|
||o----------------------------|---------------------------|
||------12-------12---12-12-12-|-----12-------12---12-12---|
||-----------------------------|-------------------------2-|
||o-----10-------10---10-10-10-|-----10-------10---10-10---|
||--0-0----0-0-0----0----------|-0-0----0-0-0----0---------|


  N.C.(D)
  +S  S S S S S S S S S S S S S S S   +S  S S S S S S S S S S S S S S S  3x
|-----------------------------------|------------------------------------||
|-----------------------------------|-----------------------------------o||
|-----------------------------------|------------------------------------||
|-(0)-0-5p0-4p0-5p0-7p0-5p0-4h5p4-0-|-(0)-0-5p0-4p0-5p0-7p0-5p0-4h5p4p0--||
|-----------------------------------|-----------------------------------o||
|-----------------------------------|------------------------------------||
|
| +S  S S S S S S S S S S S S S S S   +S  S S S S S S S S S S S S S S S  3x
|-----------------------------------|------------------------------------||
|-----------------------------------|-----------------------------------o||
|-----------------------------------|------------------------------------||
|-(2)p0-5p0-4p0-5p0-7p0-5p0-4h5p0-2-|-(2)p0-5p0-4p0-5p0-7p0-5p0-4h5p4p0--||
|-----------------------------------|-----------------------------------o||
|-----------------------------------|------------------------------------||


      E        E                   E        E    D5    E5
  PM|    PM--|    PM           PM|    PM--|
  E E  E S S S  E S  E  S  S   E E  E S S S  E S S S S S
|----------------------------|---------------------------|
|----------------------------|---------------------------|
|------9--------9----9--9--9-|------9--------9---7-7---9-|
|----------------------------|-------------------7-7---9-|
|------7--------7----7--7--7-|------7--------7---5-5---7-|
|-0-0----0-0-0----0----------|-0-0----0-0-0----0---------|
|
| PM|    PM--|    PM           PM|    PM--|
| E E  E S S S  E S  E  S  S   E E  E S S S  E S S S S S
|----------------------------|---------------------------|
|----------------------------|---------------------------|
|-----12-------12---12-12-12-|-----12-------12---7-7---9-|
|----------------------------|-------------------7-7---9-|
|-----10-------10---10-10-10-|-----10-------10---5-5---7-|
|-0-0----0-0-0----0----------|-0-0----0-0-0----0---------|


                              C5
    +S  S E S S E S S E S S S S
||--------0-----0-----0-----0----|
||o-------0-----0-----0-----0----|
||--(9)-9-9-9-9-9-9-9-9-9-9-9-5--|
||--(9)-9-9-9-9-9-9-9-9-9-9-9-5--|
||o-(7)-7-7-7-7-7-7-7-7-7-7-7-3--|
||-------------------------------|
|
|   +S  S E S S E S S E S S S S
||-------------------------------|
||o------------------------------|
||--(9)-9-9-9-9-9-9-9-9-9-9-9-5--|
||--(9)-9-9-9-9-9-9-9-9-9-9-9-5--|
||o-(7)-7-7-7-7-7-7-7-7-7-7-7-3--|
||-------------------------------|


                            D5
  +S  S E S S E S S E S S S S   +S  S E S S E S S E S S S S
|-------0-----0-----0-----0---|-------0-----0-----0-----0---|
|-------0-----0-----0-----0---|-------0-----0-----0-----0---|
|-(5)-5-5-5-5-5-5-5-5-5-5-5-7-|-(7)-7-7-7-7-7-7-7-7-7-7-7-7-|
|-(5)-5-5-5-5-5-5-5-5-5-5-5-7-|-(7)-7-7-7-7-7-7-7-7-7-7-7-7-|
|-(3)-3-3-3-3-3-3-3-3-3-3-3-5-|-(5)-5-5-5-5-5-5-5-5-5-5-5-5-|
|-----------------------------|-----------------------------|
|
| +S  S E S S E S S E S S S S   +S  S E S S E S S E S S S S
|-----------------------------|-----------------------------|
|-----------------------------|-----------------------------|
|-(5)-5-5-5-5-5-5-5-5-5-5-5-7-|-(7)-7-7-7-7-7-7-7-7-7-7-7-7-|
|-(5)-5-5-5-5-5-5-5-5-5-5-5-7-|-(7)-7-7-7-7-7-7-7-7-7-7-7-7-|
|-(3)-3-3-3-3-3-3-3-3-3-3-3-5-|-(5)-5-5-5-5-5-5-5-5-5-5-5-5-|
|-----------------------------|-----------------------------|


                            E5
  +S  S E S S E S S E S S S S  3x
|-------0-----0-----0-----0----||
|-------0-----0-----0-----0---o||
|-(7)-7-7-7-7-7-7-7-7-7-7-7-9--||
|-(7)-7-7-7-7-7-7-7-7-7-7-7-9--||
|-(5)-5-5-5-5-5-5-5-5-5-5-5-7-o||
|------------------------------||
|
| +S  S E S S E S S E S S S S  3x
|------------------------------||
|-----------------------------o||
|-(7)-7-7-7-7-7-7-7-7-7-7-7-9--||
|-(7)-7-7-7-7-7-7-7-7-7-7-7-9--||
|-(5)-5-5-5-5-5-5-5-5-5-5-5-7-o||
|------------------------------||


                            C5                            D5
  +S  S E S S E S S E S S S S   +S  S E S S E S S E S S S S
|-------0-----0-----0-----0---|-------0-----0-----0-----0---|
|-------0-----0-----0-----0---|-------0-----0-----0-----0---|
|-(9)-9-9-9-9-9-9-9-9-9-9-9-5-|-(5)-5-5-5-5-5-5-5-5-5-5-5-7-|
|-(9)-9-9-9-9-9-9-9-9-9-9-9-5-|-(5)-5-5-5-5-5-5-5-5-5-5-5-7-|
|-(7)-7-7-7-7-7-7-7-7-7-7-7-3-|-(3)-3-3-3-3-3-3-3-3-3-3-3-5-|
|-----------------------------|-----------------------------|
|
| +S  S E S S E S S E S S S S   +S  S E S S E S S E S S S S
|-----------------------------|-----------------------------|
|-----------------------------|-----------------------------|
|-(9)-9-9-9-9-9-9-9-9-9-9-9-5-|-(5)-5-5-5-5-5-5-5-5-5-5-5-7-|
|-(9)-9-9-9-9-9-9-9-9-9-9-9-5-|-(5)-5-5-5-5-5-5-5-5-5-5-5-7-|
|-(7)-7-7-7-7-7-7-7-7-7-7-7-3-|-(3)-3-3-3-3-3-3-3-3-3-3-3-5-|
|-----------------------------|-----------------------------|


  +S  S E S S E S S E S S S S   +S  S E S S E S S E S S S S
|-------0-----0-----0-----0---|-------0-----0-----0-----0------|
|-------0-----0-----0-----0---|-------0-----0-----0-----0------|
|-(7)-7-7-7-7-7-7-7-7-7-7-7-7-|-(7)-7-7-7-7-7-7-7-7-7-7-7------|
|-(7)-7-7-7-7-7-7-7-7-7-7-7-7-|-(7)-7-7-7-7-7-7-7-7-7-7-7------|
|-(5)-5-5-5-5-5-5-5-5-5-5-5-5-|-(5)-5-5-5-5-5-5-5-5-5-5-5------|
|-----------------------------|--------------------------------|
|
| +S  S E S S E S S E S S S S   +S  S E S S E S S E S S S S
|-----------------------------|--------------------------------|
|-----------------------------|--------------------------------|
|-(7)-7-7-7-7-7-7-7-7-7-7-7-7-|-(7)-7-7-7-7-7-7-7-7-7-7-7------|
|-(7)-7-7-7-7-7-7-7-7-7-7-7-7-|-(7)-7-7-7-7-7-7-7-7-7-7-7------|
|-(5)-5-5-5-5-5-5-5-5-5-5-5-5-|-(5)-5-5-5-5-5-5-5-5-5-5-5------|
|-----------------------------|--------------------------------|


                                                      D.S. al Coda
  E5                                                              E5
  S S S S S S S S S S S S S S S S   S S S S S S S S S S S S S S S  S
|---------------------------------|----------------------------------|
|---------------------------------|----------------------------------|
|-9-9-9-9-9-9-9-9-9-9-9-9-9-9-9-9-|-9-9-9-9-9-9-9-9-9-9-9-9--------9-|
|-9-9-9-9-9-9-9-9-9-9-9-9-9-9-9-9-|-9-9-9-9-9-9-9-9-9-9-9-9--------9-|
|-7-7-7-7-7-7-7-7-7-7-7-7-7-7-7-7-|-7-7-7-7-7-7-7-7-7-7-7-7--------7-|
|---------------------------------|-------------------------0-0-0----|
|
| W                                 H               Q       S S S  S
|---------------------------------|----------------------------------|
|---------------------------------|----------------------------------|
|---------------------------------|-------------------------------12-|
|---------------------------------|----------------------------------|
|---------------------------------|-------------------------------10-|
|---------------------------------|-------------------------0-0-0----|


  &
  G5                D5
                                          2/4
   S  S  E  S  S  S  E  S  E  S  S  S  S    +S   S  E  Q
|----------------------------------------|----------------|
|----------------------------------------|----------------|
|-12-12-12-12-12-12--7--7--7--7--7--7--7-|--(7)--7--7--7--|
|-12-12-12-12-12-12--7--7--7--7--7--7--7-|--(7)--7--7--7--|
|-10-10-10-10-10-10--5--5--5--5--5--5--5-|--(5)--5--5--5--|
|----------------------------------------|----------------|
|
|  S  S  E  S  S  S  E  S  E  S  S  S  S    +S   S  E  Q
|----------------------------------------|----------------|
|----------------------------------------|----------------|
|-14-14-14-14-14-14-11-11-11-11-11-11-11-|-(11)-11-11-11--|
|----------------------------------------|----------------|
|-12-12-12-12-12-12--9--9--9--9--9--9--9-|--(9)--9--9--9--|
|----------------------------------------|----------------|


   Bridge
    N.C.(D)
   4/4
    S S S S S S S S S S S S S S S S   S S S S S S S S S S S S S S S S
||----------------------------------|----------------------------------||
||o---------------------------------|---------------------------------o||
||----------------------------------|----------------------------------||
||--4p0-5p0-7-5-4-0-4p0-5p0-7-5-4-0-|-4p0-5p0-7-5-4-0-4p0-5p0-7-5-4-0--||
||o---------------------------------|---------------------------------o||
||----------------------------------|----------------------------------||
|
|   PM------------------------------------|
|   E   E   Q       Q       Q         E   E   Q       Q       Q
||----------------------------------|----------------------------------||
||o---------------------------------|---------------------------------o||
||----------------------------------|----------------------------------||
||--4---4---------------------------|-5---5----------------------------||
||o-2---2---------------------------|-3---3---------------------------o||
||----------------------------------|----------------------------------||


  N.C.(D)
  S S S S S S S S S S S S S S S S   S S S S S S S S S S S S S S S S
|---------------------------------|---------------------------------|
|---------------------------------|---------------------------------|
|---------------------------------|---------------------------------|
|-4p0-5p0-9p0-7p0-5p0-4p0-7-5-4-0-|-4p0-5p0-9p0-7p0-5p0-4p0-7-5-4-0-|
|---------------------------------|---------------------------------|
|---------------------------------|---------------------------------|
|
| PM----------------------|         PM----------------------|
| E   E   S S S S S S S S S S S S   E   E   S S S S S S S S S S S S
|---------------------------------|---------------------------------|
|---------------------------------|---------------------------------|
|---------4-5-5-5-5S7-7-7-7S9-9-9-|---------4-5-5-5-5S7-7-7-7S9-9-9-|
|-4---4---------------------------|-5---5---------------------------|
|-2---2---------------------------|-3---3---------------------------|
|---------------------------------|---------------------------------|


  N.C.(D)                                                             E5
                                                            2/4
                                            PM--|
  S S S S S S S S S S S S S S S S   S S S S S S S H    +S    +E. +Q   S
|---------------------------------|------------------------|------------|
|---------------------------------|------------------------|------------|
|---------------------------------|------------------------|----------9-|
|-4p0-5p0-7-5-4-0-4p0-5p0-9p0-7p0-|-5p0-4p0-5-4-0-5----(5)-|-(5)-(5)--9-|
|---------------------------------|------------------------|----------7-|
|---------------------------------|------------------------|------------|
|
| PM----------------------|
| E   E   S S S S S S S S S S S S   E   E   S S S H    +S    +E. +Q   S
|---------------------------------|------------------------|------------|
|---------------------------------|------------------------|------------|
|---------4-5-5-5-5S7-7-7-7S9-9-9-|---------x-x-x-5----(5)-|-(5)-(5)--9-|
|-4---4---------------------------|-5---5---x-x-x-5----(5)-|-(5)-(5)--9-|
|-2---2---------------------------|-3---3---x-x-x-3----(3)-|-(3)-(3)--7-|
|---------------------------------|------------------------|------------|


   Out-Chorus
    E5                        C5
   4/4
    +S  S E S S E S S E S S S S
||--------0-----0-----0-----0---|
||o-------0-----0-----0-----0---|
||--(9)-9-9-9-9-9-9-9-9-9-9-9-5-|
||--(9)-9-9-9-9-9-9-9-9-9-9-9-5-|
||o-(7)-7-7-7-7-7-7-7-7-7-7-7-3-|
||------------------------------|
|
|   +S  S E S S E S S E S S S S
||------------------------------|
||o-----------------------------|
||--(9)-9-9-9-9-9-9-9-9-9-9-9-5-|
||--(9)-9-9-9-9-9-9-9-9-9-9-9-5-|
||o-(7)-7-7-7-7-7-7-7-7-7-7-7-3-|
||------------------------------|


                            D5
  +S  S E S S E S S E S S S S   +S  S E S S E S S E S S S S
|-------0-----0-----0-----0---|-------0-----0-----0-----0---|
|-------0-----0-----0-----0---|-------0-----0-----0-----0---|
|-(5)-5-5-5-5-5-5-5-5-5-5-5-7-|-(7)-7-7-7-7-7-7-7-7-7-7-7-7-|
|-(5)-5-5-5-5-5-5-5-5-5-5-5-7-|-(7)-7-7-7-7-7-7-7-7-7-7-7-7-|
|-(3)-3-3-3-3-3-3-3-3-3-3-3-5-|-(5)-5-5-5-5-5-5-5-5-5-5-5-5-|
|-----------------------------|-----------------------------|
|
| +S  S E S S E S S E S S S S   +S  S E S S E S S E S S S S
|-----------------------------|-----------------------------|
|-----------------------------|-----------------------------|
|-(5)-5-5-5-5-5-5-5-5-5-5-5-7-|-(7)-7-7-7-7-7-7-7-7-7-7-7-7-|
|-(5)-5-5-5-5-5-5-5-5-5-5-5-7-|-(7)-7-7-7-7-7-7-7-7-7-7-7-7-|
|-(3)-3-3-3-3-3-3-3-3-3-3-3-5-|-(5)-5-5-5-5-5-5-5-5-5-5-5-5-|
|-----------------------------|-----------------------------|


                            E5                                   C5
  +S  S E S S E S S E S S S S     +S S E   S S E   S S E   S S S S
|-------0-----0-----0-----0----||------0-------0-------0-------0---|
|-------0-----0-----0-----0---o||------0-------0-------0-------0---|
|-(7)-7-7-7-7-7-7-7-7-7-7-7-9--||-(9)9-9---9-9-9---9-9-9---9-9-9-5-|
|-(7)-7-7-7-7-7-7-7-7-7-7-7-9--||-(9)9-9---9-9-9---9-9-9---9-9-9-5-|
|-(5)-5-5-5-5-5-5-5-5-5-5-5-7-o||-(7)7-7---7-7-7---7-7-7---7-7-7-3-|
|------------------------------||----------------------------------|
|
| +S  S E S S E S S E S S S S      S S S S S S S S S S S S S S S S
|------------------------------||----------------------------------|
|-----------------------------o||----------------------------------|
|-(7)-7-7-7-7-7-7-7-7-7-7-7-9--||----------------------------------|
|-(7)-7-7-7-7-7-7-7-7-7-7-7-9--||--4p0-5p0-7-5-4-0-4p0-5p0-7-5-4-0-|
|-(5)-5-5-5-5-5-5-5-5-5-5-5-7-o||----------------------------------|
|------------------------------||----------------------------------|


                                 D5
  +S S E   S S E   S S E   S S S S
|------0-------0-------0-------0---|
|------0-------0-------0-------0---|
|-(5)5-5---5-5-5---5-5-5---5-5-5-7-|
|-(5)5-5---5-5-5---5-5-5---5-5-5-7-|
|-(3)3-3---3-3-3---3-3-3---3-3-3-5-|
|----------------------------------|
|
|  S S S S S S S S S S S S S S S S
|----------------------------------|
|----------------------------------|
|----------------------------------|
|--4p0-5p0-7-5-4-0-4p0-5p0-7-5-4-0-|
|----------------------------------|
|----------------------------------|


                                                                    E5
  +S S E   S S E   S S E   S S S S   +S S E   S S E   S S E   S S S S
|------0-------0-------0-------0---|------0-------0-------0-------0---|
|------0-------0-------0-------0---|------0-------0-------0-------0---|
|-(7)7-7---7-7-7---7-7-7---7-7-7-7-|-(7)7-7---7-7-7---7-7-7---7-7-7-9-|
|-(7)7-7---7-7-7---7-7-7---7-7-7-7-|-(7)7-7---7-7-7---7-7-7---7-7-7-9-|
|-(5)5-5---5-5-5---5-5-5---5-5-5-5-|-(5)5-5---5-5-5---5-5-5---5-5-5-7-|
|----------------------------------|----------------------------------|
|
|  S S S S S S S S S S S S S S S S    S S S S S S S S S S S S S S S S
|----------------------------------|----------------------------------|
|----------------------------------|----------------------------------|
|----------------------------------|----------------------------------|
|--4p0-5p0-7-5-4-0-4p0-5p0-7-5-4-0-|--4p0-5p0-7-5-4-0-4p0-5p0-7-5-4-0-|
|----------------------------------|----------------------------------|
|----------------------------------|----------------------------------|


                                 C5                                 D5
  +S S E   S S E   S S E   S S S S   +S S E   S S E   S S E   S S S S
|------0-------0-------0-------0---|------0-------0-------0-------0---|
|------0-------0-------0-------0---|------0-------0-------0-------0---|
|-(9)9-9---9-9-9---9-9-9---9-9-9-5-|-(5)5-5---5-5-5---5-5-5---5-5-5-7-|
|-(9)9-9---9-9-9---9-9-9---9-9-9-5-|-(5)5-5---5-5-5---5-5-5---5-5-5-7-|
|-(7)7-7---7-7-7---7-7-7---7-7-7-3-|-(3)3-3---3-3-3---3-3-3---3-3-3-5-|
|----------------------------------|----------------------------------|
|
|  S S S S S S S S S S S S S S S S    S S S S S S S S S S S S S S S S
|----------------------------------|----------------------------------|
|----------------------------------|----------------------------------|
|----------------------------------|----------------------------------|
|--4p0-5p0-7-5-4-0-4p0-5p0-7-5-4-0-|--4p0-5p0-7-5-4-0-4p0-5p0-7-5-4-0-|
|----------------------------------|----------------------------------|
|----------------------------------|----------------------------------|


                                                                     N.C.(D)
  +S S E   S S E   S S E   S S S S   +S  S E   S S E   S S E   S S S S
|------0-------0-------0-------0---|-------0-------0-------0-------0---|
|------0-------0-------0-------0---|-------0-------0-------0-------0---|
|-(7)7-7---7-7-7---7-7-7---7-7-7-7-|-(7)-7-7---7-7-7---7-7-7---7-7-7---|
|-(7)7-7---7-7-7---7-7-7---7-7-7-7-|-(7)-7-7---7-7-7---7-7-7---7-7-7-2-|
|-(5)5-5---5-5-5---5-5-5---5-5-5-5-|-(5)-5-5---5-5-5---5-5-5---5-5-5---|
|----------------------------------|-----------------------------------|
|
|  S S S S S S S S S S S S S S S S    S  S S S S S S S S S S S S S S S
|----------------------------------|-----------------------------------|
|----------------------------------|-----------------------------------|
|----------------------------------|-----------------------------------|
|--4p0-5p0-7-5-4-0-4p0-5p0-7-5-4-0-|--4--0-5-0-7-5-4-0-4-0-5-0-7-5-0-2-|
|----------------------------------|-----------------------------------|
|----------------------------------|-----------------------------------|


  N.C.(D)
                                     2/4
  +S  S S S S S S S S S S S S S S S   H
|-----------------------------------|-------*|
|-----------------------------------|-------*|
|-----------------------------------|-------*|
|-(2)p0-5p0-4p0-5p0-7p0-5p0-4h5p4p0-|-5\----*|
|-----------------------------------|-------*|
|-----------------------------------|-------*|
|
| +S  S S S S S S S S S S S S S S S   H
|-----------------------------------|-------*|
|-----------------------------------|-------*|
|-----------------------------------|-9-----*|
|-(2)p0-5p0-4p0-5p0-7p0-5p0-4h5p4p0-|-9\----*|
|-----------------------------------|-7-----*|
|-----------------------------------|-------*|

================================================================================

WHERE NO ONE KNOWS

Tuning: Half Step Down (Eb Ab Db Gb Bb Eb)


Eb :------------------------------------------------------------------------------------
Bb :-0--0--3--0--2-0--3-0--5-0--3-0--2-3-2----------5-----3----2----2-3--5-3--2-3-5-3-2-
Gb :------------------------------------------2--2--------------------------------------
Db :------------------------------------------------------------------------------------
Ab :------------------------------------------------------------------------------------
Eb :------------------------------------------------------------------------------------

Eb :---------------------------12---10---9------------------------------12---10---9-----
Bb :15--0-14--0-10-0-12-0-10-0---------------15--0-14--0-10-0-12-0-10-0-----------------
Gb :------------------------------------------------------------------------------------
Db :------------------------------------------------------------------------------------
Ab :------------------------------------------------------------------------------------
Eb :------------------------------------------------------------------------------------

Gb :11-11-11-11--*---------------------------11-11-11-11--*-----------------------------
Db :-9--9--9--9--*----------------------------9--9--9--9--*-----------------------------
Ab :------------------------------------------------------------------------------------
Eb :------------------------------------------------------------------------------------

=====================================================================================
========

Eb :------------------------------------------------------------------------------------
Bb :-0--0--3--0--2-0--3-0--5-0--3-0--2-3-2----------5-----3----2----2-3--5-3--2-3--5-3-2
Gb :------------------------------------------2--2--------------------------------------
Db :------------------------------------------------------------------------------------
Ab :------------------------------------------------------------------------------------
Eb :------------------------------------------------------------------------------------

Eb :---------------------------12---10---9-----------------------------------12---10----
Bb :15--0-14--0-10-0-12-0-10-0---------------15--0-14--0-10-0-12-0-10-0-12-0------------
Gb :------------------------------------------------------------------------------------
Db :------------------------------------------------------------------------------------
Ab :------------------------------------------------------------------------------------
Eb :------------------------------------------------------------------------------------

Gb :11-11-11-11--*---------------------------11-11-11-11--*-----------------------------
Db :-9--9--9--9--*----------------------------9--9--9--9--*-----------------------------
Ab :------------------------------------------------------------------------------------
Eb :------------------------------------------------------------------------------------

=====================================================================================
========

Eb :-------------------------------------------------------------------------------------
Bb :--0--0--3--0--2-0--3-0-5-0--3-0--2-3-2----------5-----3-----2-----2-3--5-3--2-3-5-3-2
Gb :------------------------------------------2--2---------------------------------------
Db :-------------------------------------------------------------------------------------
Ab :-------------------------------------------------------------------------------------
Eb :-------------------------------------------------------------------------------------

Eb :-------------------------------------------------------------------------------------
Bb :-15--0-14--0-10-0-12-0-0-0-10-0-12-0-0-0-15--0-14--0-10--0-12--0--0-0-10-0-12-0-0---0
Gb :-------------------------------------------------------------------------------------
Db :-------------------------------------------------------------------------------------
Ab :-------------------------------------------------------------------------------------
Eb :-------------------------------------------------------------------------------------

Gb :-11-11-11-11--*--------------------------11-11-11-11--*-11-11-11-11-*----------------
Db :--9--9--9--9--*---------------------------9--9--9--9--*--9--9--9--9-*----------------
Ab :-------------------------------------------------------------------------------------
Eb :-------------------------------------------------------------------------------------

=====================================================================================
========

Eb :------------------------------------------------------------------------------------
Bb :--0--0--3--0--2-0--3-0-5-0--3-0--2-3-2----------5-----3----2----2-3--5-3--2-3-5-3-2-
Gb :------------------------------------------2--2--------------------------------------
Db :------------------------------------------------------------------------------------
Ab :------------------------------------------------------------------------------------
Eb :------------------------------------------------------------------------------------

Eb :--------------------------------------------------------------------12---10---9-----
Bb :-15--0-14--0-10-0-12-0-0-0-10-0-12-0-0-0-15--0-14--0-10-0-12-0-10-0-----------------
Gb :------------------------------------------------------------------------------------
Db :------------------------------------------------------------------------------------
Ab :------------------------------------------------------------------------------------
Eb :------------------------------------------------------------------------------------

Gb :-11-11-11-11--*--------------------------11-11-11-11--*-----------------------------
Db :--9--9--9--9--*---------------------------9--9--9--9--*-----------------------------
Ab :------------------------------------------------------------------------------------
Eb :------------------------------------------------------------------------------------

=====================================================================================
========

Eb :-------------------------------------------------------------------------------------
Bb :-------------------------------------------------------------------------------------
Gb :----------------------------------------------------------------------------(12)-----
Db :-9----------------------------------------------------------------------x-x---9------
Ab :-9----------------------------------------------------------------------x-x---9------
Eb :-7----------------------------------------------------------------------x-x---7------

Eb :-------------------------------------------------------------------------------------
Bb :15-0-14-0-10-0-12-0-0-0-10-0-12-0-0-0-15-0-14-0-10-0-12-0-0-0-10-0-12-0-0-0--15--0-14
Gb :-------------------------------------------------------------------------------------
Db :-------------------------------------------------------------------------------------
Ab :-------------------------------------------------------------------------------------
Eb :-------------------------------------------------------------------------------------

Gb :-------------------------------------------------------------------------------------
Db :-------------------------------------------------------------------------------------
Ab :-------------------------------------------------------------------------------------
Eb :-7----------------------------------------------------------------------------7------

=====================================================================================
========

Eb :------------------------------------------------------------------------------------
Bb :------------------------------------------------------------------------------------
Gb :------------------------------------------------------------------------------------
Db :---------------------------------5------------------------------------12-----9-----5
Ab :---------------------------------5------------------------------------12-----9-----5
Eb :------------------------------\--3------------------------------------10-----7-----3

Eb :------------------------------------------------------------------------------------
Bb :-0-10-0-12-0-0-0-10-0-12-0-0-0--15-0-14-0-10-0-12-0-0-0-10-0-12---------------------
Gb :------------------------------------------------------------------------------------
Db :------------------------------------------------------------------------------------
Ab :------------------------------------------------------------------------------------
Eb :------------------------------------------------------------------------------------

Gb :------------------------------------------------------------------------------------
Db :------------------------------------------------------------------------------------
Ab :------------------------------------------------------------------------------------
Eb :------------------------------\--3------------------------------------10-----7-----3

=====================================================================================
========

Eb :----------------------|
Bb :----------------------|
Gb :----------------------|
Db :---------------------*|
Ab :---------------------*|
Eb :---------------------*|

Eb :----------------------|
Bb :----------------------|
Gb :----------------------|
Db :-----------4-5-4-0---*|
Ab :----------------------|
Eb :----------------------|

================================================================================

THE KENNEDY CURSE

Intro
  Q=60
  (F)                        (Am)
 4/4
  Gtr III
  E S S S S E.. +E.. +S  E   E. E. E. E S S S E
|--------------------------|--------------------|
|--------------------------|--------------------|
|--------------------------|--------------------|
|-----2-----2---(2)--(2)---|-------7--------7---|
|---3---3---3---(3)--(3)---|----7-----7---7---7-|
|-1-------1-1---(1)--(1)-1s|=5----------5-------|
|
| Gtr IV
| W                          W
|--------------------------|--------------------|
|--------------------------|--------------------|
|--------------------------|--------------------|
|--------------------------|--------------------|
|--------------------------|--------------------|
|--------------------------|--------------------|


  (F)                                (Am)
  E   S S  S  S E.. +E..     +S  E   E.     E.     E.       E S S S E
|----------------------------------|-----------------------------------|
|----------------------------------|-----------------------------------|
|----------------------------------|-----------------------------------|
|-------2-------2---(2)------(2)---|---------------7--------------7----|
|-----3----3----3---(3)------(3)---|--------7---------------7---7---7--|
|-1-----------1-1---(1)------(1)-1s|=5------------------------5--------|
|
| S S S S +H             +Q          S  S S S  S S S  S +H
|-----0----------------------------|------0------1---------------------|
|----------------------------------|----1---1------1-------------------|
|---2---2-(2)------------(2)-------|-2---------2------2-(2)------------|
|----------------------------------|-----------------------------------|
|----------------------------------|-----------------------------------|
|----------------------------------|-----------------------------------|


  F5                A5
  Gtr I
  PM|               PM|
  S S Q.   +H       S S Q.   +H
|-----------------|-----------------|
|-----------------|-----------------|
|-----------------|-----------------|
|-3-3-3----(3)----|-7-7-7----(7)----|
|-3-3-3----(3)----|-7-7-7----(7)----|
|-1-1-1----(1)----|-5-5-5----(5)----|
|
| Gtr II
| E   Q.   +H       E   Q.   +H
|-----0----(0)----|-----1----(1)----|
|-----1----(1)----|-----1-----------|
|-----2----(2)----|-----2-----------|
|-----------------|-----------------|
|-----------------|-----------------|
|-----------------|-----------------|


    Q=113           1.,2.,3.          4.
    N.C.(F)                           F5
                                ~     PM--|
    S S S S S S S S S S S S S S E  4x E E E H    +E
||---------------------------------||----------------|
||o-------------------------------o||----------------|
||------------------0--------------||----------------|
||------2-----3---------3---2---3--||-3-3-3-3----(3)-|
||o-------------------------------o||-3-3-3-3----(3)-|
||--1-1---1-1---1-1---1---1---1----||-1-1-1-1----(1)-|
|
|                                     PM--|
|   H               H              4x E E E H    +E
||---------------------------------||----------------|
||o-------------------------------o||----------------|
||---------------------------------||----------------|
||---------------------------------||-3-3-3-3----(3)-|
||o-------------------------------o||-3-3-3-3----(3)-|
||---------------------------------||-1-1-1-1----(1)-|


   Verse
    N.C.(F)                           N.C.(Am)
    PM|   PM|   PM|   PM  PM  PM~     PM|   PM|   PM|   PM  PM  PM~
    S S S S S S S S S S S S S S E     S S S S S S S S S S S S S S E
||----------------------------------|-----------------------------------||
||o---------------------------------|----------------------------------o||
||------------------0---------------|-----------------0-----------------||
||------2-----3---------3---2---3---|-----2-----3---------3---2---3-----||
||o---------------------------------|-0-0---0-0---0-0---0---0---0------o||
||--1-1---1-1---1-1---1---1---1-----|-----------------------------------||
|
|   S E   S S E   S S E   S S E   S   S E   S S E   S S E   S S E   S
||----------------------------------|-----------------------------------||
||o---------------------------------|----------------------------------o||
||----------------------------------|-----------------------------------||
||--3-3---3-3-3---3-3-3---3-3-3---3-|-7-7---7-7-7---7-7-7---7-7-7---7---||
||o-3-3---3-3-3---3-3-3---3-3-3---3-|-7-7---7-7-7---7-7-7---7-7-7---7--o||
||--1-1---1-1-1---1-1-1---1-1-1---1-|-5-5---5-5-5---5-5-5---5-5-5---5---||


  F5                                 G                 F        E
  S E S  S  E  S  S  E  S  S  E  S    S  E  S  S  E  S  S  E  S  S  E  S
|----------------------------------|-------------------------------------|
|----------------------------------|-------------------------------------|
|----------------------------------|-12-12-12-12-12-12-10-10-10--9--9--9-|
|-3-3-3--3--3--3--3--3--3--3--3--3-|-------------------------------------|
|-3-3-3--3--3--3--3--3--3--3--3--3-|-10-10-10-10-10-10--8--8--8--7--7--7-|
|-1-1-1--1--1--1--1--1--1--1--1--1-|-------------------------------------|
|
| S E S  S  E  S  S  E  S  S  E  S    S  E  S  S  E  S  S  E  S  S  E  S
|----------------------------------|-------------------------------------|
|----------------------------------|-------------------------------------|
|-9-9-9-10-10-10-12-12-12-14-14-14-|--7--7--7--7--7--7-17-17-17-17-17-17-|
|----------------------------------|-------------------------------------|
|-7-7-7--8--8--8-10-10-10-12-12-12-|--5--5--5--5--5--5-15-15-15-15-15-15-|
|----------------------------------|-------------------------------------|


  F5                        G                 F        E
  S E S S E S S E S S E S    S  E  S  S  E  S  S  E  S S S E
|-------------------------|----------------------------------|
|-------------------------|----------------------------------|
|-------------------------|-12-12-12-12-12-12-10-10-10-x-x-9-|
|-3-3-3-3-3-3-3-3-3-3-3-3-|----------------------------------|
|-3-3-3-3-3-3-3-3-3-3-3-3-|-10-10-10-10-10-10--8--8--8-x-x-7-|
|-1-1-1-1-1-1-1-1-1-1-1-1-|----------------------------------|
|
| S E S S E S S E S S E S    S  E  S  S  E  S  S  E  S S S E
|-------------------------|----------------------------------|
|-------------------------|----------------------------------|
|-------------------------|----------------------------------|
|-3-3-3-3-3-3-3-3-3-3-3-3-|--7--7--7--7--7--7--7--7--7-x-x-7-|
|-3-3-3-3-3-3-3-3-3-3-3-3-|--7--7--7--7--7--7--7--7--7-x-x-7-|
|-1-1-1-1-1-1-1-1-1-1-1-1-|--5--5--5--5--5--5--5--5--5-x-x-5-|


  F5                        G                 F        E
  S E S S E S S E S S E S    S  E  S  S  E  S  S  E  S S E S
|-------------------------|----------------------------------|
|-------------------------|----------------------------------|
|-------------------------|-12-12-12-12-12-12-10-10-10-9-9-9-|
|-3-3-3-3-3-3-3-3-3-3-3-3-|----------------------------------|
|-3-3-3-3-3-3-3-3-3-3-3-3-|-10-10-10-10-10-10--8--8--8-7-7-7-|
|-1-1-1-1-1-1-1-1-1-1-1-1-|----------------------------------|
|
| S E S S E S S E S S E S    S  E  S  S  E  S  S  E  S S E S
|-------------------------|----------------------------------|
|-------------------------|----------------------------------|
|-------------------------|----------------------------------|
|-3-3-3-3-3-3-3-3-3-3-3-3-|--7--7--7--7--7--7--7--7--7-7-7-7-|
|-3-3-3-3-3-3-3-3-3-3-3-3-|--7--7--7--7--7--7--7--7--7-7-7-7-|
|-1-1-1-1-1-1-1-1-1-1-1-1-|--5--5--5--5--5--5--5--5--5-5-5-5-|


                                             Q=90
  F5                        G                   F  E
                                                    ~~
  S E S S E S S E S S E S    S  E  S  S  E S  E  E  Q
|-------------------------|----------------------------|
|-------------------------|----------------------------|
|-------------------------|-12-12-12-12-12-x-12-10--9--|
|-3-3-3-3-3-3-3-3-3-3-3-3-|----------------------------|
|-3-3-3-3-3-3-3-3-3-3-3-3-|-10-10-10-10-10-x-10--8--7--|
|-1-1-1-1-1-1-1-1-1-1-1-1-|----------------------------|
|
|                                                   ~~
| S E S S E S S E S S E S    S  E  S  S  E S  E  E  Q
|-------------------------|----------------------------|
|-------------------------|----------------------------|
|-------------------------|------------------12-10-12--|
|-3-3-3-3-3-3-3-3-3-3-3-3-|--7--7--7--7--7-x-----------|
|-3-3-3-3-3-3-3-3-3-3-3-3-|--7--7--7--7--7-x-10--8-10--|
|-1-1-1-1-1-1-1-1-1-1-1-1-|--5--5--5--5--5-x-----------|


   Chorus
    N.C.(F)
    PM|     PM|     PM|      PM-|    PM-| ~
    S  S  S S  S  S S  S  S  S  S S  S  S E
||--------------------------------------------|
||o-------------------------------------------|
||------------------------0-------------------|
||--------2-------3---------------3-------2---|
||o-------------------------------------------|
||--1--1----1--1----1--1-----1--1----1--1-----|
|
|         PM--------------------------------|
|   S  S  S S  S  S S  S  S  S  S S  S  S S S
||--------------------------------------------|
||o-------------------------------------------|
||--------------------------------------------|
||--3-(3)-3-3-(3)-3-3-(3)-3-(3)-3-3-(3)-3-3-3-|
||o-3-(3)-3-3-(3)-3-3-(3)-3-(3)-3-3-(3)-3-3-3-|
||--0--1--1-0--1--1-0--1--1--0--1-1--0--1-1-1-|


  N.C.(A)
  PM|   PM|   PM|   PM|   PM| ~
  S S S S S S S S S S S S S S E     4x
|-----------------------------------||
|----------------------------------o||
|-----------------0-----------------||
|-----2-----3-----------3-----2-----||
|-0-0---0-0---0-0---0-0---0-0------o||
|-----------------------------------||
|
|     PM------------------------|
| E   S S S S S S S S S S S S S S   4x
|-----------------------------------||
|----------------------------------o||
|-----------------------------------||
|-7---7-7-7-7-7-7-7-7-7-7-7-7-7-7---||
|-7---7-7-7-7-7-7-7-7-7-7-7-7-7-7--o||
|-5---5-5-5-5-5-5-5-5-5-5-5-5-5-5---||


 Breakdown
  E                                  F            E       F       E
   W                                  Q.          Q       Q       E
|----------------------------------|----------------------------------|
|----------------------------------|----------------------------------|
|----------------------------------|----------------------------------|
|----------------------------------|----------------------------------|
|-/7-------------------------------|-/8p==========7h======8p======7---|
|----------------------------------|----------------------------------|
|
|  S S S S S S S S S S S S S S S S    S S S S S S S S S S S S S S S S
|--3p0h1p0h5p0h1p0h3p0h1p0h5p0h1p0-|--3p0h1p0h5p0h1p0h3p0h1p0h5p0h1p0-|
|----------------------------------|----------------------------------|
|----------------------------------|----------------------------------|
|----------------------------------|----------------------------------|
|----------------------------------|----------------------------------|
|----------------------------------|----------------------------------|


  C                                  D        E    D        C
   W                                  Q        E    Q        Q.
|----------------------------------|-------------------------------------|
|----------------------------------|-------------------------------------|
|----------------------------------|-------------------------------------|
|----------------------------------|-------------------------------------|
|-\3-------------------------------|-/5-------/7---\5-------\3-----------|
|----------------------------------|-------------------------------------|
|
|  S S S S S S S S S S S S S S S S    S S S S  S S  S S S S  S S S S S S
|--3p0h1p0h5p0h1p0h3p0h1p0h5p0h1p0-|--3p0h1p0h=5p0h=1p0h3p0h=1p0h5p0h1p0-|
|----------------------------------|-------------------------------------|
|----------------------------------|-------------------------------------|
|----------------------------------|-------------------------------------|
|----------------------------------|-------------------------------------|
|----------------------------------|-------------------------------------|


  E                                  F            E       F       E
   W                                  Q.          Q       Q       E
|----------------------------------|----------------------------------|
|----------------------------------|----------------------------------|
|----------------------------------|----------------------------------|
|----------------------------------|----------------------------------|
|-/7-------------------------------|-/8p==========7h======8p======7---|
|----------------------------------|----------------------------------|
|
|  S S S S S S S S S S S S S S S S    S S S S S S S S S S S S S S S S
|--3p0h1p0h5p0h1p0h3p0h1p0h5p0h1p0-|--3p0h1p0h5p0h1p0h3p0h1p0h5p0h1p0-|
|----------------------------------|----------------------------------|
|----------------------------------|----------------------------------|
|----------------------------------|----------------------------------|
|----------------------------------|----------------------------------|
|----------------------------------|----------------------------------|


  C                                  D
                                             ~~~~~~~~~
   W                                  Q   E  H    +E
|----------------------------------|------------------|
|----------------------------------|------------------|
|----------------------------------|------------------|
|----------------------------------|------------------|
|-\3-------------------------------|-/5--/7-\5----(5)-|
|----------------------------------|------------------|
|
|                                     ~~
|  S S S S S S S S S S S S S S S S    W
|--3p0h1p0h5p0h1p0h3p0h1p0h5p0h1p0-|------------------|
|----------------------------------|-/8---------------|
|----------------------------------|------------------|
|----------------------------------|------------------|
|----------------------------------|------------------|
|----------------------------------|------------------|


   Interlude
    F5
    PM--|              PM--------|
    S S S H         Q  T T   S S S H         S Q
||-------------------------|----------------------|
||o------------------------|----------------------|
||-------------------------|----------------------|
||--3-3-3--------------3-3-|-3-3-3-------------3--|
||o-3-3-3--------------3-3-|-3-3-3-------------3--|
||--1-1-1--------------1-1-|-1-1-1-------------1--|
|
|     Gtr IV
|   E   E   E E +H           E   E   E E +H
||----------0--------------|---------0------------|
||o-----5-----5-(5)--------|-----5-----5-(5)------|
||-------------------------|----------------------|
||-------------------------|----------------------|
||o------------------------|----------------------|
||-------------------------|----------------------|


  1.,2.,3.
  A5
  PM--|              PM--------|
  S S S H         Q  T T   S S S H         S Q    4x
|------------------------|------------------------||
|------------------------|-----------------------o||
|------------------------|------------------------||
|-7-7-7--------------7-7-|-7-7-7-------------7----||
|-7-7-7--------------7-7-|-7-7-7-------------7---o||
|-5-5-5--------------5-5-|-5-5-5-------------5----||
|
| E   E   E E +H           E   E   E E +H         4x
|-----1-----1-(1)--------|-----1-----1-(1)--------||
|---------5--------------|---------5-------------o||
|------------------------|------------------------||
|------------------------|------------------------||
|------------------------|-----------------------o||
|------------------------|------------------------||


  4.
  A5
  W                +W
|----------------|------------------|
|----------------|------------------|
|----------------|------------------|
|-7--------------|-(7)--------------|
|-7--------------|-(7)--------------|
|-5--------------|-(5)--------------|
|
| E E E E +H        E  E E E +H
|---1---1-(1)----|-----1---1-(1)----|
|-----5----------|-------5----------|
|----------------|------------------|
|----------------|------------------|
|----------------|------------------|
|----------------|------------------|


 Guitar Break
  F5
  Gtr I
  S E S E S E S E E E   S E S E S E S E E E
|---------------------|---------------------|
|---------------------|---------------------|
|---------------------|---------------------|
|-3-3-3-3-3-3-3-3-3-3-|-3-3-3-3-3-3-3-3-3-3-|
|-3-3-3-3-3-3-3-3-3-3-|-3-3-3-3-3-3-3-3-3-3-|
|-1-1-1-1-1-1-1-1-1-1-|-1-1-1-1-1-1-1-1-1-1-|
|
| Gtr II
| S E S E S E S E E E   S E S E S E S E E E
|---------------------|---------------------|
|---------------------|---------------------|
|---------------------|---------------------|
|-3-3-3-3-3-3-3-3-3-3-|-3-3-3-3-3-3-3-3-3-3-|
|-3-3-3-3-3-3-3-3-3-3-|-3-3-3-3-3-3-3-3-3-3-|
|-1-1-1-1-1-1-1-1-1-1-|-1-1-1-1-1-1-1-1-1-1-|


  A5
  S E S E S E S E E E   S E S E S E S E E E
|---------------------|---------------------|
|---------------------|---------------------|
|---------------------|---------------------|
|-7-7-7-7-7-7-7-7-7-7-|-7-7-7-7-7-7-7-7-7-7-|
|-7-7-7-7-7-7-7-7-7-7-|-7-7-7-7-7-7-7-7-7-7-|
|-5-5-5-5-5-5-5-5-5-5-|-5-5-5-5-5-5-5-5-5-5-|
|
| S E S E S E S E E E   S E S E S E S E E E
|---------------------|---------------------|
|---------------------|---------------------|
|---------------------|---------------------|
|-7-7-7-7-7-7-7-7-7-7-|-7-7-7-7-7-7-7-7-7-7-|
|-7-7-7-7-7-7-7-7-7-7-|-7-7-7-7-7-7-7-7-7-7-|
|-5-5-5-5-5-5-5-5-5-5-|-5-5-5-5-5-5-5-5-5-5-|


  F5
  S E   S E   S E   S E   E   E     S E   S E   S E   S E   E   E
|---------------------------------|---------------------------------|
|---------------------------------|---------------------------------|
|---------------------------------|---------------------------------|
|-3-3---3-3---3-3---3-3---3---3---|-3-3---3-3---3-3---3-3---3---3---|
|-3-3---3-3---3-3---3-3---3---3---|-3-3---3-3---3-3---3-3---3---3---|
|-1-1---1-1---1-1---1-1---1---1---|-1-1---1-1---1-1---1-1---1---1---|
|
| S S S S S S S S S S S S S S S S   S S S S S S S S S S S S S S S S
|-3p0h1p0h5p0h1p0h3p0h1p0h5p0h1p0-|-3p0h1p0h5p0h1p0h3p0h1p0h5p0h1p0-|
|---------------------------------|---------------------------------|
|---------------------------------|---------------------------------|
|---------------------------------|---------------------------------|
|---------------------------------|---------------------------------|
|---------------------------------|---------------------------------|


  A5
  S E   S E   S E   S E   E   E     S E   S E   S E   S E   E   E
|---------------------------------|------------------------------------|
|---------------------------------|------------------------------------|
|---------------------------------|------------------------------------|
|-7-7---7-7---7-7---7-7---7---7---|-7-7---7-7---7-7---7-7---7---7------|
|-7-7---7-7---7-7---7-7---7---7---|-7-7---7-7---7-7---7-7---7---7------|
|-5-5---5-5---5-5---5-5---5---5---|-5-5---5-5---5-5---5-5---5---5------|
|
| S S S S S S S S S S S S S S S S   S S S S S S S S S S S S S S S S
|-3p0h1p0h5p0h1p0h3p0h1p0h5p0h1p0-|-3p0h1p0h5p0h1p0h3p0h1p0h5p0h1p0----|
|---------------------------------|------------------------------------|
|---------------------------------|------------------------------------|
|---------------------------------|------------------------------------|
|---------------------------------|------------------------------------|
|---------------------------------|------------------------------------|


   Bridge
                                      1.
    F5
    PM--------------------------------------------------------------|
    S S S S S S S S S S S S S S S S   S S S S S S S S S S S S S S S S
||----------------------------------|----------------------------------|
||o---------------------------------|----------------------------------|
||----------------------------------|----------------------------------|
||--3-3-3-3-3-3-3-3-3-3-3-3-3-3-3-3-|-3-3-3-3-3-3-3-3-3-3-3-3-3-3-3-3--|
||o-3-3-3-3-3-3-3-3-3-3-3-3-3-3-3-3-|-3-3-3-3-3-3-3-3-3-3-3-3-3-3-3-3--|
||--1-1-1-1-1-1-1-1-1-1-1-1-1-1-1-1-|-1-1-1-1-1-1-1-1-1-1-1-1-1-1-1-1--|
|
|   PM--------------------------------------------------------------|
|   S S S S S S S S S S S S S S S S   S S S S S S S S S S S S S S S S
||----------------------------------|----------------------------------|
||o---------------------------------|----------------------------------|
||----------------------------------|----------------------------------|
||--3-3-3-3-3-3-3-3-3-3-3-3-3-3-3-3-|-3-3-3-3-3-3-3-3-3-3-3-3-3-3-3-3--|
||o-3-3-3-3-3-3-3-3-3-3-3-3-3-3-3-3-|-3-3-3-3-3-3-3-3-3-3-3-3-3-3-3-3--|
||--1-1-1-1-1-1-1-1-1-1-1-1-1-1-1-1-|-1-1-1-1-1-1-1-1-1-1-1-1-1-1-1-1--|


  A5
  PM--------------------------------------------------------------|
  S S S S S S S S S S S S S S S S   S S S S S S S S S S S S S S S S
|---------------------------------|----------------------------------||
|---------------------------------|---------------------------------o||
|---------------------------------|----------------------------------||
|-7-7-7-7-7-7-7-7-7-7-7-7-7-7-7-7-|-7-7-7-7-7-7-7-7-7-7-7-7-7-7-7-7--||
|-7-7-7-7-7-7-7-7-7-7-7-7-7-7-7-7-|-7-7-7-7-7-7-7-7-7-7-7-7-7-7-7-7-o||
|-5-5-5-5-5-5-5-5-5-5-5-5-5-5-5-5-|-5-5-5-5-5-5-5-5-5-5-5-5-5-5-5-5--||
|
| PM--------------------------------------------------------------|
| S S S S S S S S S S S S S S S S   S S S S S S S S S S S S S S S S
|---------------------------------|----------------------------------||
|---------------------------------|---------------------------------o||
|---------------------------------|----------------------------------||
|-7-7-7-7-7-7-7-7-7-7-7-7-7-7-7-7-|-7-7-7-7-7-7-7-7-7-7-7-7-7-7-7-7--||
|-7-7-7-7-7-7-7-7-7-7-7-7-7-7-7-7-|-7-7-7-7-7-7-7-7-7-7-7-7-7-7-7-7-o||
|-5-5-5-5-5-5-5-5-5-5-5-5-5-5-5-5-|-5-5-5-5-5-5-5-5-5-5-5-5-5-5-5-5--||


  2.
  F5
  PM----------------------------|
  S S S S S S S S S S S S S S S S
|---------------------------------|
|---------------------------------|
|---------------------------------|
|-3-3-3-3-3-3-3-3-3-3-3-3-3-3-3-3-|
|-3-3-3-3-3-3-3-3-3-3-3-3-3-3-3-3-|
|-1-1-1-1-1-1-1-1-1-1-1-1-1-1-1-1-|
|
| S S S S S S S S S S S S S S S S
|-3p0h1p0h5p0h1p0h3p0h1p0h5p0h1p0-|
|---------------------------------|
|---------------------------------|
|---------------------------------|
|---------------------------------|
|---------------------------------|


  N.C.
  S S S S S S S S S S S S S S S S   S S S S S S S S S S S S S S S S
|-3p0h1p0h1p0-----3p0h1p0h1p0-----|-3p0h1p0h1p0-----3p0h1p0h1p0-----|
|-------------3p1-------------3p1-|-------------3p1-------------3p1-|
|---------------------------------|---------------------------------|
|---------------------------------|---------------------------------|
|---------------------------------|---------------------------------|
|---------------------------------|---------------------------------|
|
| S S S S S S S S S S S S S S S S   S S S S S S S S S S S S S S S S
|-3p0h1p0h5p0h1p0h3p0h1p0h5p0h1p0-|-3p0h1p0h5p0h1p0h3p0h1p0h5p0h1p0-|
|---------------------------------|---------------------------------|
|---------------------------------|---------------------------------|
|---------------------------------|---------------------------------|
|---------------------------------|---------------------------------|
|---------------------------------|---------------------------------|


   Outro
    F5
    S E S E S E S E S S E   S E S E S E S E S S E
||------------------------|-----------------------|
||o-----------------------|-----------------------|
||------------------------|-----------------------|
||--3-3-3-3-3-3-3-3-3-3-3-|-3-3-3-3-3-3-3-3-3-3-3-|
||o-3-3-3-3-3-3-3-3-3-3-3-|-3-3-3-3-3-3-3-3-3-3-3-|
||--1-1-1-1-1-1-1-1-1-1-1-|-1-1-1-1-1-1-1-1-1-1-1-|
|
|   S E S E S E S E S S E   S E S E S E S E S S E
||------------------------|-----------------------|
||o-----------------------|-----------------------|
||------------------------|-----------------------|
||--3-3-3-3-3-3-3-3-3-3-3-|-3-3-3-3-3-3-3-3-3-3-3-|
||o-3-3-3-3-3-3-3-3-3-3-3-|-3-3-3-3-3-3-3-3-3-3-3-|
||--1-1-1-1-1-1-1-1-1-1-1-|-1-1-1-1-1-1-1-1-1-1-1-|


                          1.
  A5                      A   G    A   G    A   G       A G
                               ~~       ~~       ~~~~~     ~~
  S E S E S E S E S S E   S S  E   S S  E   S S  S  S S S  E
|-----------------------|----------------------------------------||
|-----------------------|---------------------------------------o||
|-----------------------|-----12-------12-------12-12-----12-----||
|-7-7-7-7-7-7-7-7-7-7-7-|----------------------------------------||
|-7-7-7-7-7-7-7-7-7-7-7-|-0-0-10---0-0-10---0-0-10-10---0-10----o||
|-5-5-5-5-5-5-5-5-5-5-5-|----------------------------------------||
|
| S E S E S E S E S S E   S E    S E    S E   S  E    S S  E
|-----------------------|----------------------------------------||
|-----------------------|---------------------------------------o||
|-----------------------|----------------------------------------||
|-7-7-7-7-7-7-7-7-7-7-7-|-7-7----7-7----7-7---7--7----7-7--7-----||
|-7-7-7-7-7-7-7-7-7-7-7-|-7-7----7-7----7-7---7--7----7-7--7----o||
|-5-5-5-5-5-5-5-5-5-5-5-|-5-5----5-5----5-5---5--5----5-5--5-----||


  2.
  A5        G  F  G     F5
                   ~~
  S E S E E  E  E  Q    W          +W
|---------------------|----------|--------*|
|---------------------|----------|--------*|
|-----------12-10-12--|----------|--------*|
|-7-7-7-7-7-----------|-3--------|-(3)----*|
|-7-7-7-7-7-10--8-10--|-3--------|-(3)----*|
|-5-5-5-5-5-----------|-1--------|-(1)----*|
|
|                  ~~
| S E S E E  E  E  Q    W          +W
|---------------------|----------|--------*|
|---------------------|----------|--------*|
|-----------12-10--9--|----------|--------*|
|-7-7-7-7-7-----------|-3--------|-(3)----*|
|-7-7-7-7-7-10--8--7--|-3--------|-(3)----*|
|-5-5-5-5-5-----------|-1--------|-(1)----*|

================================================================================

JUBELLA

Intro
  Q=96
         Bsus2          (Bsus2)
 2/4    4/4
         Gtr I
  H        W            S S  S S  S S S  S S S  S S S S  S S
|------|-^-9--------||-------9----9------9------9--------9---|
|------|-^12--------||o-----12---12-----12-----12-------12---|
|------|-^11--------||------11---11-----11-----11-------11---|
|------|-^-9--------||--9-9----9----9-9----9-9----9-9-9----9-|
|------|------------||o--------------------------------------|
|------|------------||---------------------------------------|
|
|        Gtr II
| H        W            E    E    S S S  E   S  E   E    E
|------|------------||---------------------------------------|
|------|------------||o--------------------------------------|
|------|------------||---------------------------------------|
|------|-^-5--------||--9----9----9-9-9--9---9--9---9----9---|
|------|-^-5--------||o-9----9----9-9-9--9---9--9---9----9---|
|------|-^-3--------||--7----7----7-7-7--7---7--7---7----7---|


  G/D           A/E
  E   E   S S S S S S S S S S S S  4x
|----------------------------------||
|---------------------------------o||
|-4---4---4-4-4-6---6-6-6-6-6-6-6--||
|-5---5---5-5-5-7---7-7-7-7-7-7-7--||
|-5---5---5-5-5-7---7-7-7-7-7-7-7-o||
|----------------------------------||
|
| S S S S S S S S S S S S S S S S  4x
|----------------------------------||
|---------------------------------o||
|-------0---2----------------------||
|-----4---4-----2---0-4-5-7-5-4-0--||
|---5-----------0-----------------o||
|-3--------------------------------||


   Chorus
    Q=94
    A5 B5 G          A5 B5 G
    E. E. H    +E    E. E. H    +E   4x
||-----------------|-----------------||
||o----------------|----------------o||
||--------4----(4)-|-------4----(4)--||
||--7--9--5----(5)-|-7--9--5----(5)--||
||o-7--9--5----(5)-|-7--9--5----(5)-o||
||--5--7--3----(3)-|-5--7--3----(3)--||
|
|   E. E. H    +E    E. E. H    +E   4x
||-----------------|-----------------||
||o----------------|----------------o||
||--------4----(4)-|-------4----(4)--||
||--7--9--5----(5)-|-7--9--5----(5)--||
||o-7--9--5----(5)-|-7--9--5----(5)-o||
||--5--7--3----(3)-|-5--7--3----(3)--||


   Verse
    Q=98                                 Q=96
    (G)    A5        N.C.                (G)    A5        N.C.
    PM---|   PM|                         PM---|   PM|
    S  S S S S S S H               S  7x S  S S S S S S H              S
||------------------------------------||---------------------------------|
||o----------------------------------o||---------------------------------|
||------------------------------------||---------------------------------|
||---------7-x-x-7--------------------||--------7-x-x-7------------------|
||o--------7-x-x-7-------------------o||--------7-x-x-7------------------|
||--3--3-3-5-x-x-5--------------------||-3--3-3-5-x-x-5------------------|
|
|                    PM----|                              PM----|
|   Q.           E   S S S S S S E    7x Q.           E   S S S S S E.
||------------------------------------||---------------------------------|
||o--------------------------3s5s3---o||--------------------------3s5----|
||-------------------7-6-4-0-4s6s4----||------------------7-6-4-0-4s6----|
||------------------------------------||---------------------------------|
||o----------------------------------o||---------------------------------|
||------------------------------------||---------------------------------|


 Guitar Break
  N.C.
  Gtr III
   E. E. E. S S S S S S S    E. E. E. S S S S S S S
|-----0-----------0-------|-----0-----------0-------|
|-----3-------3-----3---3-|-----3-------3-----3---3-|
|--4--4--6--6---6-----6---|--4--4--6--6---6-----6---|
|-------------------------|-------------------------|
|-------------------------|-------------------------|
|-------------------------|-------------------------|
|
|  >
| +W                        +W
|-------------------------|-------------------------|
|-(5)---------------------|-(5)---------------------|
|-(6)---------------------|-(6)---------------------|
|-------------------------|-------------------------|
|-------------------------|-------------------------|
|-------------------------|-------------------------|


   E. E. E. S S S S S S S    E. E. H    +E
|-----0-----------0-------|-----0--0----(0)--|
|-----3-------3-----3---3-|-----3--3----(3)--|
|--4--4--6--6---6-----6---|--4--4--6----(6)--|
|-------------------------|------------------|
|-------------------------|------------------|
|-------------------------|------------------|
|
|  <
| +W                        +W
|-------------------------|------------------|
|-(5)---------------------|-(5)--------------|
|-(6)---------------------|-(6)--------------|
|-------------------------|------------------|
|-------------------------|------------------|
|-------------------------|------------------|


   Oddly-timed Breakdown
    Q=110                   Q=120         Q=112                       Q=108
    B5   N.C.  B5   N.C.    B5  N.CB5N.C. G5          A5              B5
   11/16                   2/4           4/4
    Gtr I
    PM         PM           PM|    PM                                 TP
    E T.  E T. E T.  E T.   E E  E S  S   S E S S E S S E S S E S  4x W
||--------9----------9----|------9----9-|--------------------------||------|
||o-----------------------|-------------|-------------------------o||------|
||------------------------|-------------|--------------------------||------|
||------------------------|-------------|-5-5-5-5-5-5-7-7-7-7-7-7--||-9----|
||o-9----------9----------|-9-9----9----|-5-5-5-5-5-5-7-7-7-7-7-7-o||-9----|
||--7----------7----------|-7-7----7----|-3-3-3-3-3-3-5-5-5-5-5-5--||-7----|
|
|   Gtr II
|   PM         PM           PM|    PM                                 TP
|   E T.  E T. E T.  E T.   E E  E S  S   S E S S E S S E S S E S  4x W
||------------------------|-------------|--------------------------||------|
||o------10---------10----|-----10---10-|-------------------------o||------|
||------------------------|-------------|-4-4-4-4-4-4-6-6-6-6-6-6--||------|
||------------------------|-------------|-5-5-5-5-5-5-7-7-7-7-7-7--||-9----|
||o-9----------9----------|-9-9----9----|-------------------------o||-9----|
||--7----------7----------|-7-7----7----|--------------------------||-7----|


   Bridge
    Q=104                 Q=108        Q=104
    (D)                   B5           G5         A5
                          TP
    E. S S S E. S E E E   W         3x E  S S S S H    +E
||----------------------|-----------||---------------------|
||o---------------------|----------o||---------------------|
||--7--7-7-7-7--7-7-7-7-|-4---------||---------------------|
||--7--7-7-7-7--7-7-7-7-|-4---------||-5--5-5-5-5-7----(7)-|
||o-5--5-5-0-4--4-4-4-0-|-2--------o||-5--5-5-5-5-7----(7)-|
||----------------------|-----------||-3--3-3-3-3-5----(5)-|
|
|                         TP
|   E. S S S Q    E E E   W         3x E.   S S S H    +E
||----------------------|-----------||---------------------|
||o---------------------|----------o||---------------------|
||----------------------|-----------||---------------------|
||--0--0-4-5-7----7-7-5-|-9---------||-7----7-7-5-4----(4)-|
||o---------------------|-9--------o||---------------------|
||----------------------|-7---------||---------------------|


   Intro Reprise/Outro
    Q=98
    (Bsus2)                                G5            A5
    S S  S S  S S S  S S S  S S S S  S S   E   E   S S S S S S S S S S S S  4x
||-------9----9------9------9--------9---|----------------------------------||
||o-----12---12-----12-----12-------12---|---------------------------------o||
||------11---11-----11-----11-------11---|-4---4---4-4-4-6---6-6-6-6-6-6-6--||
||--9-9----9----9-9----9-9----9-9-9----9-|-5---5---5-5-5-7---7-7-7-7-7-7-7--||
||o--------------------------------------|-5---5---5-5-5-7---7-7-7-7-7-7-7-o||
||---------------------------------------|-3---3---3-3-3-5---5-5-5-5-5-5-5--||
|
|   E    E    S S S  E   S  E   E    E     S S S S S S S S S S S S S S S S  4x
||---------------------------------------|----------------------------------||
||o--------------------------------------|---------------------------------o||
||---------------------------------------|-------0---2----------------------||
||--9----9----9-9-9--9---9--9---9----9---|-----4---4-----2---0-4-5-7-5-4-0--||
||o-9----9----9-9-9--9---9--9---9----9---|---5-----------0-----------------o||
||--7----7----7-7-7--7---7--7---7----7---|-3--------------------------------||


  Q=94
  A5 B5 G
        >
  E. E. H    +E    +W           +W
|----------------|------------|--------*|
|----------------|------------|--------*|
|-------4----(4)-|-(4)--------|-(4)----*|
|-7--9--5----(5)-|-(5)--------|-(5)----*|
|-7--9--5----(5)-|-(5)--------|-(5)----*|
|-5--7--3----(3)-|-(3)--------|-(3)----*|
|
|       >
| E. E. H    +E    +W           +W
|----------------|------------|--------*|
|----------------|------------|--------*|
|-------4----(4)-|-(4)--------|-(4)----*|
|-7--9--5----(5)-|-(5)--------|-(5)----*|
|-7--9--5----(5)-|-(5)--------|-(5)----*|
|-5--7--3----(3)-|-(3)--------|-(3)----*|

========================================================================

LITTLE GIRLS POINTING AND LAUGHING

intro: 2x 
eb|--0--|--0--|--0--|--0--|--0--|--0--|--0--| 
Bb|--5--|--8--|--7--|--12-|--10-|--12-|--8--| 
Gb|--4--|--7--|--7--|--9--|--7--|--9--|--5--| 
Db|--3--|--5--|--4--|--9--|--7--|--9--|--5--| 
Ab|-----|-----|-----|-----|-----|-----|-----| 
Eb|-----|-----|-----|-----|-----|-----|-----| 

2x 
eb|---0---|---0---| 
Bb|---0---|---0---| 
Gb|---5---|---0---| 
Db|---5---|---2---| 
Ab|---3---|---2---| 
Eb|---0---|---0---| 

2x 
(4x) (4x) end of second bar 
eb|-------------------------||---------------------------------||------------| 
Bb|-------------------------||---------------------------------||------------| 
Gb|----------7h9------------||------------------11-------------||------------| 
Db|--------------7h9-7h9----||---------------------12-12-/-14--||--12h14-----| 
Ab|-------------------------||----------0h10h12----------------||--------12--| 
Eb|--8-8-8-8----------------||--0-0-0-0------------------------||------------| 

(4x) (4x harmonics on last 3 notes) 
eb|------------------||-----------------| 
Bb|----------8-10----||------------7-7--| 
Gb|---------------7--||----------5------| 
Db|------------------||-----------------| 
Ab|------------------||-----------------| 
Eb|--8-8-8-8---------||--0-0-0-0--------| 

(2x) 
eb|---------------------------------------------| 
Bb|---------------------------------------------| 
Gb|-----------9-/-9--/-12-\-7-----9-/-12-/-16---| 
Db|--5--4--0-------------------2----------------| 
Ab|--5--4--2--7-/-11-/-10-\-7--2--7-/-10-/-14---| 
Eb|--3--2--2-------------------0----------------|

========================================================================

PULMONARY ARCHERY

guitar 1... echoey effect, play once or twice, whatever you want.

----->(9) play only the fourth of four times.<-----

d#-----------0-0---(9)----------------------------|
a#------------------------------------------------|
f#------2-2-----------------------6-6-7-7-6--6----| x4
c#-4-4------------------0-0--4-4---------------4--|
g#------------------------------------------------|
d#------------------------------------------------|

guitar 2 (12)(/14) second time only

d#-----------9--------------------12(/14)---------|
a#------10---------(12)------10-------------------|
f#-11-------------------11------------------------| x4
c#------------------------------------------------|
g#------------------------------------------------|
d#------------------------------------------------|

at about 0:30. 

guitar 1

d#-9-9--7-7/12--9-9-7-9-7-9---5--------------------|
a#----------------------------7--------------------|
f#-------------------------------------------------| x2
c#-------------------------------------------------|
g#-------------------------------------------------|
d#-------------------------------------------------|

guitar 2

d#----------------------2--4--4--------------------|
a#-------------------------------------------------|
f#-------------------------------------------------| x2
c#-------------------------------------------------|
g#-------------------------------------------------|
d#-------------------------------------------------|

enter loud noise.

guitar 1

(/999) play only second time of two, and play the nine over and over again)

d#---------------------------(/999)-|
a#----------------------------------|
f#---------9---------------7--------| x2
c#-4---7---9-------4---4---7--------|
g#-4---7---7-------4---4---5--------|
d#-2---5-----------2---2------------|

guitar 2

d#----------------------------------|
a#---------5---------------2--------|
f#-2---6---6-------2---2---2--------| x2
c#-4---7-----------4---x---0--------|
g#-----------------5---5------------|
d#----------------------------------|

guitar 2 cont'd... how you play this, i'm not quite sure

d#----------------------------------------------------------------|
a#-------------14------14------12--------------------17----17-----|
f#-------14------14------14------14------------141414--1414--1414-|
c#-161616--1616----1616----1616----161616141414-------------------|
g#----------------------------------------------------------------|
d#---------------------------------------^------------------------|

at the ^ in the above line, guitar 1 starts doing this

d#-9/12-9/12-9/12-9/12-|
a#---------------------|
f#---------------------|
c#---------------------|
g#---------------------|
d#---------------------|

play around with those two bits overlapping until George screams.

LET'S GO!

guitar 1, play this pattern with applicable rhythm... kinda hard to hear

d#--------12-------9---|
a#-----10--------7-----|
f#--11---------7-------|
c#---------------------|
g#---------------------|
d#---------------------|

guitar 2 (9) play first time [10] play second time

d#-/9--9-7--7/12-12--9--9-7--7-9--9--7-7-9-9--------7-(9)--|
a#-------------------------------------------10-10----[10]-|
f#---------------------------------------------------------|
c#---------------------------------------------------------|
g#---------------------------------------------------------|
d#---------------------------------------------------------|

guitar 1 

d#-------------------|
a#-------------------|
f#-------------------| x2
c#-44444444-77777777-|
g#-44444444-77777777-|
d#-22222222-55555555-|

guitar 2

d#------------------|
a#------------------|
f#---9-----9----9---| x4 (half the time as guitar 1, they match up)
c#-7-----7----7-----|
g#------------------|
d#------------------|

This is where Dallas starts singing

guitar 1 (5-4-0) last time only

d#---------(5-4-0)-|
a#-----------------|
f#----------4------| x4
c#-4--6--7----6-2--|
g#-----------------|
d#-----------------|

guitar 2     the *s, i'm not quite sure what you do here... what I do is play them and 
quickly pulloff and strum again on dampen ( tab noted as an x ) and hammer them both back 
down again so they really look like  |--5pxh5--| but whatever

the (5-5) play only the first of the two times, or third of the four

d#----------5*--/5-4-0-|    |---------(5-5)-5-4-0-|
a#----------5*---------|    |---------------------|
f#---------------------| x2 |---------------------| x2
c#-4-4--6-6------------|then|-4-4--6-6------------|
g#---------------------|    |---------------------|
d#---------------------|    |---------------------|

DUN DUN DUN 

guitar 1 (upstrokes) 

d#-------|    |-----|
a#-------|    |-----|
f#-------| x3 |--7--|
c#-4-4-4-|then|--7--|
g#-4-4-4-|    |--7--|
d#-2-2-2-|    |--5--|

guitar 2... a weird distortion...

d#-------|    |--5--|
a#-------|    |--7--|
f#-----9-| x3 |-----|
c#-4-7---|then|-----|
g#-------|    |-----|
d#-------|    |-----|

we're at 1:50

guitar 1 (second time on the first 442 chord play every other time instead of a 
stream of strums)

d#--------------------------------------------------------------|
a#--------------------------------------------------------------|
f#------------9------------------6-6-6-6-6-----9----------------| x2
c#-44444444-7----6h7h9p6-6h7p6---4-4-4-4--4--7----6h7h9p6-6h7p6-|
g#-44444444----------------------4-4-4-4------------------------|
d#-22222222-----------------------------------------------------|

guitar 2 (upstroke first chord)

d#--------------------------------------------------------------|
a#--------------------------------------------------------------|
f#-9-------/--9--9---------------6---------9------9-------------| x2
c#-7-------/7----7---------------4-------7--7-----7-------------|
g#---------------7---------------4------------------------------|
d#--------------------------------------------------------------|

F*CK YOU 2:10

this part was tough... so these chords are probably all wrong.

guitar 1

d#------------------------0-----|
a#------------------------0-----|
f#------------------------2-----| x2
c#-4444----4444----4444---2-----|
g#-4444----4444----4444---2-----|
d#-2222----2222----2222---0-----|

guitar 2 (0)(2) second time only

d#--------------------------(12)|
a#-------------------------(10)-|
f#---------2222-----------------| x2
c#-4444----2222----4444---0-----|
g#-4444----0000----4444---5-----|
d#-2222----2222----2222---5-----|

Jesse's drum roll, song picks up pace again

guitar 1

d#-------------------|
a#-------------------|
f#-------------------| x4
c#-44444444-77777777-|
g#-44444444-77777777-|
d#-22222222-55555555-|

guitar 2 (9) 1st 2nd 3rd times, [10] 4th time

d#-/9--9-7--7/12-12--9--9-7--7-9--9--7-7-9-9--------7--(9)-|
a#-------------------------------------------10-10----[10]-|
f#---------------------------------------------------------| x4
c#---------------------------------------------------------|
g#---------------------------------------------------------|
d#---------------------------------------------------------|

outro... sadly the song comes to an end (2:47)

guitar 1

d#-------------------|
a#-------------------|
f#----------7--------|
c#-44444444-7--------|
g#-44444444-5--------|
d#-22222222----------|

guitar 2

d#-9977997799779999-9/12-/12-/12-----|
a#-----------------------------------|
f#-----------------------------------|
c#-----------------------------------|
g#-----------------------------------|
d#-----------------------------------|

degenerative slides...

guitar 1 (# = hitting your pick with the edge against the strings)

d#-------------------------------------------------|
a#-------------------------------------------------|
f#------------------\\\\\\\\\\----#-#------#-------|
c#------------------\\\\\\\\\\----#-#--------------|
g#------------------\\\\\\\\\\----#-#--------------|
d#-------------------------------------------------|

guitar 2

d#-------------------------------------------------|
a#-------------------------------------------------|
f#-------------------------------------------------|
c#-------------------------------------------------|
g#-\\\\\\\\\0-------1-0-------1-0-------1-0--------|
d#-------------------------------------------------|

========================================================================
comments
print report bad tab
5 comments total. Showing first comments.
0 reply
guitar_freak91 wrote on March 19 2006, 11:52 am

dude, whats with the dafcgd tuning? haha, they DEFINITELY dont tune to that. i'm giving it a 2 because its definitely not in right tuning. tune to normal stuff dude. they MAY be in drop D, but i doubt that too.

0 reply
emancrasher wrote on June 10 2006, 08:13 am

ok guitar-freak
if u kno so much about guitars ud kno that d#A# TUNING IS Eb tuning
ooo well
the stuff looks good
good tabbed album!

0 reply
Sleepyjanitor wrote on July 24 2006, 12:03 am

yah most alexisonfire songs consist of half step down tuning.
at least im pretty sure

I want to post or [tab]
guest
You may want to rate the tab now too:
select rating
Please do not post tabs as comments. Select "correction" instead!