Oops, an error
Loading. Please wait.

Boiled Frogs Tab

ver1
ver1

Intro

Whole song

More versions @911Tabs.com
45,105 views 63 this week
10 commentsread comments
1 2 3 4 5
accurate
x 17
Autoscroll
+/-
esc
set tempo
stop
Contributor
WARNING: You are trying to view
                                    content from Ultimate-Guitar.com
                                    in an unauthorized application,
                                    which is prohibited.

                                    Please use an official Ultimate
                                    Guitar Tabs application for iPhone,
                                    iPad or Android to access legitimate
                                    chords, guitar, bass, and drum tabs
                                    from Ultimate-Guitar.com database.

                                    Type "ultimate guitar tabs" in Apple
                                    App Store's or Android Market's
                                    search to find the application.
100% correct, flat tuning

Guitar 1///////////////////////////////

Intro (00:00 – 00:09) 

Eb|-------------------------|
Bb|-------------------------|
Gb|-161616-7/9-11-11117/9---| x2 
Db|-x-x-x--x/x-x--x-x-x/x---|
Ab|-141414-5/7-9--9-9-5/7---|
Eb|-------------------------|

Eb|-------------------------|
Bb|-------------------------|
Gb|-191919-7/9-11-11117/9---|
Db|-x-x-x--x/x-x--x-x-x/x---|
Ab|-171717-5/7-9--9-9-5/7---|
Eb|-------------------------|

Eb|------------------------|
Bb|------------------------|
Gb|-191919-7/9-11-111111---|
Db|-x-x-x--x/x-x--x-x-x----|
Ab|-171717-5/7-9--9-9-9----|
Eb|------------------------|

Verse 1 (00:09 – 00:21)

Eb|-------------------------|
Bb|-------------------------|
Gb|-161616-7/9-11-11117/9---| x2 
Db|-x-x-x--x/x-x--x-x-x/x---|
Ab|-141414-5/7-9--9-9-5/7---|
Eb|-------------------------|

Eb|-------------------------|
Bb|-------------------------|
Gb|-191919-7/9-11-11117/9---| x2 
Db|-x-x-x--x/x-x--x-x-x/x---|
Ab|-171717-5/7-9--9-9-5/7---|
Eb|-------------------------|

Eb|-----|
Bb|-----|
Gb|-7---|
Db|-x---|
Ab|-5---|
Eb|-----|

Verse 2 (00:21 – 00:52)

Eb|------------------------------------------------------------| 
Bb|------------------------------------------------------------| 
Gb|------------------------------------------------------------| 
Db|-9999999999999999-1212121212121212-55555555-44444444-2222---| 
Ab|-9999999999999999-1212121212121212-55555555-44444444-2222---| 
Eb|-7777777777777777-1010101010101010-33333333-22222222-0000---|
................................................................Palm mute 

Eb|-------------------------------------------------------------------------| 
Bb|-------------------------------------------------------------------------| 
Gb|-------------------------------------------------------------------------| 
Db|-9999999999999999-1212121212121212-55555555-44444444-22222222-77777777---| 
Ab|-9999999999999999-1212121212121212-55555555-44444444-22222222-77777777---| 
Eb|-7777777777777777-1010101010101010-33333333-22222222-00000000-55555555---|
.............................................................................Palm mute

Eb|------------------------------------------------------------| 
Bb|------------------------------------------------------------| 
Gb|------------------------------------------------------------| 
Db|-9999999999999999-1212121212121212-55555555-44444444-2222---| 
Ab|-9999999999999999-1212121212121212-55555555-44444444-2222---| 
Eb|-7777777777777777-1010101010101010-33333333-22222222-0000---|
................................................................Palm mute

Eb|----------------------------------------------------------------------------| 
Bb|----------------------------------------------------------------------------| 
Gb|----------------------------------------------------------------------------| 
Db|-9999999999999999-1212121212121212-55555555-44444444-22222222-7-7-7-7-7-7---| 
Ab|-9999999999999999-1212121212121212-55555555-44444444-22222222-7-7-7-7-7-7---| 
Eb|-7777777777777777-1010101010101010-33333333-22222222-00000000-5-5-5-5-5-5---| 
................................................................Palm mute  

Chorus (00:52 – 01:11)

Eb|--------------------------------------------| 
Bb|--------------------------------------------| 
Gb|--------------------------------------------|
Db|-5555555555555555-999999999999---------14---| 
Ab|-5555555555555555-999999999999-9-10/14------| 
Eb|-3333333333333333-777777777777--------------| 

Eb|-------------------------------------| 
Bb|-------------------------------------| 
Gb|-------------------------------------|
Db|-5555555555555555-9999999999999999---| 
Ab|-5555555555555555-9999999999999999---| 
Eb|-3333333333333333-7777777777777777---|

Interlude (01:11 – 01:21)

Eb|-------------------------|
Bb|-------------------------|
Gb|-161616-7/9-11-11117/9---| x2 
Db|-x-x-x--x/x-x--x-x-x/x---|
Ab|-141414-5/7-9--9-9-5/7---|
Eb|-------------------------|

Eb|-------------------------|
Bb|-------------------------|
Gb|-191919-7/9-11-11117/9---|
Db|-x-x-x--x/x-x--x-x-x/x---|
Ab|-171717-5/7-9--9-9-5/7---|
Eb|-------------------------|

Eb|------------------------|
Bb|------------------------|
Gb|-191919-7/9-11-111111---|
Db|-x-x-x--x/x-x--x-x-x----|
Ab|-171717-5/7-9--9-9-9----|
Eb|------------------------|

Verse 3 (01:21 – 01:52)

Eb|----------------------------------------------------------------| 
Bb|------------------------------------------3p2-------------------| 
Gb|---------------------------------------------2h4----------------| 
Db|-9999999999999999-12121212-12p11------5555------44444444-2222---| 
Ab|-9999999999999999-12121212------12h14-5555------44444444-2222---| 
Eb|-7777777777777777-10101010------------3333------22222222-0000---| 
............................. ....  .................Palm mute  

Eb|-----------------------------------------------------------------------------| 
Bb|------------------------------------------3p2--------------------------------| 
Gb|---------------------------------------------2h4-----------------------------| 
Db|-9999999999999999-12121212-12p11------5555------44444444-22222222-77777777---| 
Ab|-9999999999999999-12121212------12h14-5555------44444444-22222222-77777777---| 
Eb|-7777777777777777-10101010------------3333------22222222-00000000-55555555---| 
............................. ....  ..............................Palm mute  

Eb|----------------------------------------------------------------| 
Bb|------------------------------------------3p2-------------------| 
Gb|---------------------------------------------2h4----------------| 
Db|-9999999999999999-12121212-12p11------5555------44444444-2222---| 
Ab|-9999999999999999-12121212------12h14-5555------44444444-2222---| 
Eb|-7777777777777777-10101010------------3333------22222222-0000---| 
............................. ....  .................Palm mute  


Eb|--------------------------------------------------------------------------------| 
Bb|------------------------------------------3p2-----------------------------------| 
Gb|---------------------------------------------2h4--------------------------------| 
Db|-9999999999999999-12121212-12p11------5555------44444444-22222222-7-7-7-7-7-7---| 
Ab|-9999999999999999-12121212------12h14-5555------44444444-22222222-7-7-7-7-7-7---| 
Eb|-7777777777777777-10101010------------3333------22222222-00000000-5-5-5-5-5-5---| 
............................. ....  .................Palm mute  

Chorus 2 (01:52 – 02:11)

Eb|--------------------------------------------| 
Bb|--------------------------------------------| 
Gb|--------------------------------------------|
Db|-5555555555555555-999999999999---------14---| 
Ab|-5555555555555555-999999999999-9-10/14------| 
Eb|-3333333333333333-777777777777--------------| 

Eb|-------------------------------------| 
Bb|-------------------------------------| 
Gb|-------------------------------------|
Db|-5555555555555555-9999999999999999---| 
Ab|-5555555555555555-9999999999999999---| 
Eb|-3333333333333333-7777777777777777---|

Bridge (02:11 – 02:47)

Eb|-------------------------|
Bb|-------------------------|
Gb|-161616-7/9-11-11117/9---| x2 
Db|-x-x-x--x/x-x--x-x-x/x---|
Ab|-141414-5/7-9--9-9-5/7---|
Eb|-------------------------|

Eb|-------------------------|
Bb|-------------------------|
Gb|-191919-7/9-11-11117/9---|
Db|-x-x-x--x/x-x--x-x-x/x---|
Ab|-171717-5/7-9--9-9-5/7---|
Eb|-------------------------|

Eb|----------------|
Bb|----------------|
Gb|-9999-9-9-9-9---|
Db|-xxxx-x-x-x-x---|
Ab|-7777-7-7-7-7---|
Eb|----------------|

Eb|-------------------------|
Bb|-------------------------|
Gb|-161616-7/9-11-11117/9---| x2 
Db|-x-x-x--x/x-x--x-x-x/x---|
Ab|-141414-5/7-9--9-9-5/7---|
Eb|-------------------------|

Eb|-------------------------|
Bb|-------------------------|
Gb|-191919-7/9-11-11117/9---|
Db|-x-x-x--x/x-x--x-x-x/x---|
Ab|-171717-5/7-9--9-9-5/7---|
Eb|-------------------------|

Eb|----------------|
Bb|----------------|
Gb|-9999-9-9-9-9---|
Db|-xxxx-x-x-x-x---|
Ab|-7777-7-7-7-7---|
Eb|----------------|

Eb|------------------------------------|
Bb|------------------------------------|
Gb|-9-11111111-9-9-9-9-141414-9-1111---|
Db|-x-x-x-x-x--x-x-x-x-x-x-x--x-x-x----|
Ab|-7-9-9-9-9--7-7-7-7-121212-7-9-9----|
Eb|------------------------------------|

Chorus 3 (02:47 – 03:21)

Eb|--------------------------------------------| 
Bb|--------------------------------------------| 
Gb|--------------------------------------------|
Db|-5555555555555555-999999999999---------14---| 
Ab|-5555555555555555-999999999999-9-10/14------| 
Eb|-3333333333333333-777777777777--------------| 

Eb|-------------------------------------| 
Bb|-------------------------------------| 
Gb|-------------------------------------|
Db|-5555555555555555-9999999999999999---| 
Ab|-5555555555555555-9999999999999999---| 
Eb|-3333333333333333-7777777777777777---|

Eb|--------------------------------------------| 
Bb|--------------------------------------------| 
Gb|--------------------------------------------|
Db|-5555555555555555-999999999999---------14---| 
Ab|-5555555555555555-999999999999-9-10/14------| 
Eb|-3333333333333333-777777777777--------------| 

Eb|--------------------| 
Bb|--------------------| 
Gb|--------------------|
Db|-5555555555555555---| 
Ab|-5555555555555555---| 
Eb|-3333333333333333---|

Outro (03:21 – 03:57)

Eb|----------------------------------| 
Bb|----------------------------------| 
Gb|----------------------------------| 
Db|-6--------5-5-5---7-7-7---9-9-9---| 
Ab|-9--------5-5-5---7-7-7---9-9-9---| 
Eb|-7--------3-3-3---5-5-5---7-7-7---|

Guitar 2//////////////////////////

Intro (00:00 – 00:09) 

Eb|-------------------------|
Bb|-------------------------|
Gb|-161616-7/9-11-11117/9---| x2 
Db|-x-x-x--x/x-x--x-x-x/x---|
Ab|-141414-5/7-9--9-9-5/7---|
Eb|-------------------------|

Eb|-------------------------|
Bb|-------------------------|
Gb|-191919-7/9-11-11117/9---|
Db|-x-x-x--x/x-x--x-x-x/x---|
Ab|-171717-5/7-9--9-9-5/7---|
Eb|-------------------------|

Eb|------------------------|
Bb|------------------------|
Gb|-191919-7/9-11-111111---|
Db|-x-x-x--x/x-x--x-x-x----|
Ab|-171717-5/7-9--9-9-9----|
Eb|------------------------|

Verse 1 (00:09 – 00:21)

Eb|--------------------------------------------------------------------------------------|
Bb|--------------------------------------------------------------------------------------|
Gb|--------------------------------------------------------------------------------------|
Db|-99999999999999999999999999999999-55555555555555555555555555555555-2222222222222222---|
Ab|-99999999999999999999999999999999-55555555555555555555555555555555-2222222222222222---|
Eb|-77777777777777777777777777777777-33333333333333333333333333333333-0000000000000000---|

Verse 2 (00:21 – 00:52)

Eb|-----------------------------------|
Bb|-----5-5-----5-5-----7-6-----7-6---|
Gb|-7-7-----7-7-----7-7-----7-7-------|
Db|-----------------------------------|
Ab|-----------------------------------|
Eb|-----------------------------------|

Eb|---------------------------|
Bb|-----5-5-----5-5-----5-5---|
Gb|-7-7-----7-7-----7-7-------|
Db|---------------------------|
Ab|---------------------------|
Eb|---------------------------|

Eb|------------------------------------|
Bb|------------------------------------|
Gb|------------------------------------|
Db|-9---12---5---4---2---7-7-7-7-7-7---|
Ab|-9---12---5---4---2---7-7-7-7-7-7---|
Eb|-7---10---3---2---0---5-5-5-5-5-5---|

Eb|-----------------------------------|
Bb|-----5-5-----5-5-----7-6-----7-6---|
Gb|-7-7-----7-7-----7-7-----7-7-------|
Db|-----------------------------------|
Ab|-----------------------------------|
Eb|-----------------------------------|

Eb|---------------------------|
Bb|-----5-5-----5-5-----5-5---|
Gb|-7-7-----7-7-----7-7-------|
Db|---------------------------|
Ab|---------------------------|
Eb|---------------------------|

Eb|------------------------------------|
Bb|------------------------------------|
Gb|------------------------------------|
Db|-9---12---5---4---2---7-7-7-7-7-7---|
Ab|-9---12---5---4---2---7-7-7-7-7-7---|
Eb|-7---10---3---2---0---5-5-5-5-5-5---|

Chorus (00:52 – 01:11)

Eb|-------------------------------------------------------| 
Bb|-------------------------------------------------------| 
Gb|-------------------------------------------------------|
Db|-5555555555555555-99999999-12--11--------------12-14---| 
Ab|-5555555555555555-99999999--------12--10--9-10---------| 
Eb|-3333333333333333-77777777-----------------------------| 

Eb|---------------------------------| 
Bb|---------------------------------| 
Gb|-99/11111111\9999/1414\99/1111---| x4 
Db|-xx/x-x-x-x-\xxxx/x-x-\xx/x-x----| 
Ab|-77/9-9-9-9-\7777/1212\77/9-9----| 
Eb|---------------------------------|

Interlude (01:11 – 01:21)

Eb|-------------------------|
Bb|-------------------------|
Gb|-161616-7/9-11-11117/9---| x2 
Db|-x-x-x--x/x-x--x-x-x/x---|
Ab|-141414-5/7-9--9-9-5/7---|
Eb|-------------------------|

Eb|-------------------------|
Bb|-------------------------|
Gb|-191919-7/9-11-11117/9---|
Db|-x-x-x--x/x-x--x-x-x/x---|
Ab|-171717-5/7-9--9-9-5/7---|
Eb|-------------------------|

Eb|------------------------|
Bb|------------------------|
Gb|-191919-7/9-11-111111---|
Db|-x-x-x--x/x-x--x-x-x----|
Ab|-171717-5/7-9--9-9-9----|
Eb|------------------------|

Verse 3 (01:21 – 01:52)

Eb|----------------------|
Bb|----------------------|
Gb|----------------------|
Db|-9---12---5---4---2---|
Ab|-9---12---5---4---2---|
Eb|-7---10---3---2---0---|

Eb|------------------------------------|
Bb|------------------------------------|
Gb|------------------------------------|
Db|-9---12---5---4---2---7-7-7-7-7-7---|
Ab|-9---12---5---4---2---7-7-7-7-7-7---|
Eb|-7---10---3---2---0---5-5-5-5-5-5---|

Chorus 2 (01:52 – 02:11)

Eb|-------------------------------------------------------| 
Bb|-------------------------------------------------------| 
Gb|-------------------------------------------------------|
Db|-5555555555555555-99999999-12--11--------------12-14---| 
Ab|-5555555555555555-99999999--------12--10--9-10---------| 
Eb|-3333333333333333-77777777-----------------------------| 

Eb|---------------------------------| 
Bb|---------------------------------| 
Gb|-99/11111111\9999/1414\99/1111---| x4 
Db|-xx/x-x-x-x-\xxxx/x-x-\xx/x-x----| 
Ab|-77/9-9-9-9-\7777/1212\77/9-9----| 
Eb|---------------------------------|

Bridge (02:11 – 02:47)

Eb|-------------------------|
Bb|-------------------------|
Gb|-161616-7/9-11-11117/9---| x2 
Db|-x-x-x--x/x-x--x-x-x/x---|
Ab|-141414-5/7-9--9-9-5/7---|
Eb|-------------------------|

Eb|-------------------------|
Bb|-------------------------|
Gb|-191919-7/9-11-11117/9---|
Db|-x-x-x--x/x-x--x-x-x/x---|
Ab|-171717-5/7-9--9-9-5/7---|
Eb|-------------------------|

Eb|----------------|
Bb|----------------|
Gb|-9999-9-9-9-9---|
Db|-xxxx-x-x-x-x---|
Ab|-7777-7-7-7-7---|
Eb|----------------|

Eb|-------------------------|
Bb|-------------------------|
Gb|-161616-7/9-11-11117/9---| x2 
Db|-x-x-x--x/x-x--x-x-x/x---|
Ab|-141414-5/7-9--9-9-5/7---|
Eb|-------------------------|

Eb|-------------------------|
Bb|-------------------------|
Gb|-191919-7/9-11-11117/9---|
Db|-x-x-x--x/x-x--x-x-x/x---|
Ab|-171717-5/7-9--9-9-5/7---|
Eb|-------------------------|

Eb|----------------|
Bb|----------------|
Gb|-9999-9-9-9-9---|
Db|-xxxx-x-x-x-x---|
Ab|-7777-7-7-7-7---|
Eb|----------------|

Eb|------------------------------------|
Bb|------------------------------------|
Gb|-9-11111111-9-9-9-9-141414-9-1111---|
Db|-x-x-x-x-x--x-x-x-x-x-x-x--x-x-x----|
Ab|-7-9-9-9-9--7-7-7-7-121212-7-9-9----|
Eb|------------------------------------|

Chorus 3 (02:47 – 03:21)

Eb|-------------------------------------------------------| 
Bb|-------------------------------------------------------| 
Gb|-------------------------------------------------------|
Db|-5555555555555555-99999999-12--11--------------12-14---| 
Ab|-5555555555555555-99999999--------12--10--9-10---------| 
Eb|-3333333333333333-77777777-----------------------------| 

Eb|---------------------------------| 
Bb|---------------------------------| 
Gb|-99/11111111\9999/1414\99/1111---| x4 
Db|-xx/x-x-x-x-\xxxx/x-x-\xx/x-x----| 
Ab|-77/9-9-9-9-\7777/1212\77/9-9----| 
Eb|---------------------------------|

Eb|-------------------------------------------------------| 
Bb|-------------------------------------------------------| 
Gb|-------------------------------------------------------|
Db|-5555555555555555-99999999-12--11--------------12-14---| 
Ab|-5555555555555555-99999999--------12--10--9-10---------| 
Eb|-3333333333333333-77777777-----------------------------| 

Eb|---------------------------------| 
Bb|---------------------------------| 
Gb|-99/11111111\9999/1414\99/1111---| x2 
Db|-xx/x-x-x-x-\xxxx/x-x-\xx/x-x----| 
Ab|-77/9-9-9-9-\7777/1212\77/9-9----| 
Eb|---------------------------------|

Outro (03:21 – 03:57)

Eb|-----| 
Bb|-----| 
Gb|-----| 
Db|-9---| 
Ab|-9---| 
Eb|-7---|

Eb|-----------------------------| 
Bb|-----------------------------| 
Gb|-----4------7--6-------------| 
Db|---4------4---------4-7--9---| 
Ab|-7------7---------7----------| 
Eb|-----------------------------|

Eb|---------------------| 
Bb|-10--12--10----------| 
Gb|-------------9--11---| 
Db|---------------------| 
Ab|---------------------| 
Eb|---------------------|
comments
print report bad tab
10 comments total. Showing first comments.
+1 reply
Shib wrote on November 5 2006, 09:26 pm

good tab, its kinda hard switching between guitar and 2 (scrolling up and down for the rythem) but its pretty good.

-1 reply
dm_rick wrote on December 31 2006, 01:41 pm

is it necessary that this is a half step down?...becuase its not

+3 reply
ZeoDyn wrote on January 10 2007, 03:39 pm

@ dm rick... lol yes it is necessary, for example the parts where the Eb string must be played at "0" , so if it wouldn't be flat tunning , there would be no way to play this note... but please if this is wrong ->place a new comment here ^^

anyway nice tab El Scorcho ;)

I want to post or [tab]
guest
You may want to rate the tab now too:
select rating
Please do not post tabs as comments. Select "correction" instead!