Oops, an error
Loading. Please wait.

Charlie Sheen Vs Henry Rollins Tab

ver3
ver3

Whole song

More versions @911Tabs.com
997 views 1 this week
1 commentread comment
1 2 3 4 5
accurate
x 2
Autoscroll
+/-
esc
set tempo
stop
Contributor
WARNING: You are trying to view
                                    content from Ultimate-Guitar.com
                                    in an unauthorized application,
                                    which is prohibited.

                                    Please use an official Ultimate
                                    Guitar Tabs application for iPhone,
                                    iPad or Android to access legitimate
                                    chords, guitar, bass, and drum tabs
                                    from Ultimate-Guitar.com database.

                                    Type "ultimate guitar tabs" in Apple
                                    App Store's or Android Market's
                                    search to find the application.
100%, flat

Guitar 1///////////////////////////////////

Intro (00:00 – 00:10) 

Eb|--------|
Bb|--------|
Gb|--------| x3 
Db|-99-9---|
Ab|-xx-x---|
Eb|-77-7---|

Eb|-15----14---|
Bb|------------|
Gb|------------|
Db|------------|
Ab|------------|
Eb|------------|

Verse 1 (00:10 – 00:31)

Eb|--------------------------------------------------------|
Bb|--------------------------------------------------------|
Gb|--------------------------------------------------------|
Db|-----7-9-------7-9-7777777777-5555555555-2-22-22-2222---|
Ab|-7-9-----7-9-7-----7777777777-5555555555-2-22-22-2222---|
Eb|-------------------5555555555-3333333333-0-00-00-0000---|

Eb|------------------------------------------------|
Bb|------------------------------------------------|
Gb|------------------------------------------------|
Db|------7-9------7-9-77777777-55555555-2222-222---|
Ab|-7-9-----7-9-7-----77777777-55555555-2222-222---|
Eb|-------------------55555555-33333333-0000-000---|

Chorus (00:31 – 01:02)

Eb|--------------------------------------------------------|
Bb|--------------------------------------------------------|
Gb|--------------------------------------------------------|
Db|-----7-9-------7-9-7777777777-5555555555-2-22-22-2222---|
Ab|-7-9-----7-9-7-----7777777777-5555555555-2-22-22-2222---|
Eb|-------------------5555555555-3333333333-0-00-00-0000---|

Eb|------------------------------------------------|
Bb|------------------------------------------------|
Gb|------------------------------------------------|
Db|------7-9------7-9-77777777-55555555-2222-222---|
Ab|-7-9-----7-9-7-----77777777-55555555-2222-222---|
Eb|-------------------55555555-33333333-0000-000---|

Bridge (01:02 – 01:24)

Eb|--------|
Bb|--------|
Gb|--------| x3 
Db|-99-9---|
Ab|-xx-x---|
Eb|-77-7---|

Eb|-/17---|
Bb|-------|
Gb|-------|
Db|-------|
Ab|-------|
Eb|-------|

Eb|---------------------------------|
Bb|---------------------------------|
Gb|---------------------------------| x2 
Db|-22-2-22-2222-22-2-22-2222-577---|
Ab|-22-2-22-2222-22-2-22-2222-577---|
Eb|-00-0-00-0000-00-0-00-0000-355---|

Eb|--------|
Bb|--------|
Gb|--------|
Db|-22-2---|
Ab|-22-2---|
Eb|-00-0---|
...........Palm mute 

Eb|--------------------------|
Bb|--------------------------|
Gb|-9-7-9-------9-7-9--------|
Db|-------------------2577---|
Ab|-------------------2577---|
Eb|-------------------0355---|

Eb|---------------------------------|
Bb|---------------------------------|
Gb|---------------------------------| x2 
Db|-22-2-22-2222-22-2-22-2222-577---|
Ab|-22-2-22-2222-22-2-22-2222-577---|
Eb|-00-0-00-0000-00-0-00-0000-355---|

Verse 2 (01:24 – 01:45)

Eb|-------------------------------------------------------------|
Bb|-----------------------7-9-7---------------------------------|
Gb|-----------------7-9-7-------7-9-----------------------7h9---| x2 
Db|-7-9-7-9-7-9-7h9-----------------7h9p7-----7-9-7-9-7h9-------|
Ab|---------------------------------------7h9-------------------|
Eb|-------------------------------------------------------------|

Chorus 2 (01:45 – 02:06)

Eb|-------------------------------------------------------------|
Bb|-----------------------7-9-7---------------------------------|
Gb|-----------------7-9-7-------7-9-----------------------7h9---| x2 
Db|-7-9-7-9-7-9-7h9-----------------7h9p7-----7-9-7-9-7h9-------|
Ab|---------------------------------------7h9-------------------|
Eb|-------------------------------------------------------------|

Bridge 2 (02:06 – 02:37)

Eb|-----------------|
Bb|-----------------|
Gb|-----------------| x12
Db|-99\-9-99-99-9---|
Ab|-xx\-x-xx-xx-x---|
Eb|-77\-7-77-77-7---|

Verse 3 (02:37 – 02:58)

Eb|---------------------------------|
Bb|---------------------------------|
Gb|---------------------------------| x2 
Db|-22-2-22-2222-22-2-22-2222-577---|
Ab|-22-2-22-2222-22-2-22-2222-577---|
Eb|-00-0-00-0000-00-0-00-0000-355---|

Eb|--------|
Bb|--------|
Gb|--------|
Db|-22-2---|
Ab|-22-2---|
Eb|-00-0---|
...........Palm mute 


Eb|--------------------------|
Bb|--------------------------|
Gb|-9-7-9-------9-7-9--------|
Db|-------------------2577---|
Ab|-------------------2577---|
Eb|-------------------0355---|

Eb|---------------------------------|
Bb|---------------------------------|
Gb|---------------------------------|
Db|-22-2-22-2222-22-2-22-2222-577---|
Ab|-22-2-22-2222-22-2-22-2222-577---|
Eb|-00-0-00-0000-00-0-00-0000-355---|

Bridge 3 (02:58 – 03:39)

Eb|------------------------------------------------------|
Bb|------------------------------------------------------|
Gb|------------------------------------------------------|
Db|-5555555555555555-7777777777777777-5555555555555555---|
Ab|-5555555555555555-7777777777777777-5555555555555555---|
Eb|-3333333333333333-5555555555555555-3333333333333333---|

Eb|---------------------------------|
Bb|---------------------------------|
Gb|---------------------------------| x2 
Db|-22-2-22-2222-22-2-22-2222-577---|
Ab|-22-2-22-2222-22-2-22-2222-577---|
Eb|-00-0-00-0000-00-0-00-0000-355---|

Guitar 2////////////////////////

Intro (00:00 – 00:10) 

Eb|-------------------|
Bb|-------------------|
Gb|-9-9-9-9-9-9-9-9---| x3 
Db|-x-x-x-x-x-x-x-x---|
Ab|-7-7-7-7-7-7-7-7---|
Eb|-------------------|

Eb|---------15----14---|
Bb|--------------------|
Gb|-9-9-9-9------------|
Db|-x-x-x-x------------|
Ab|-7-7-7-7------------|
Eb|--------------------|

Verse 1 (00:10 – 00:31)

Eb|-------------------------------------------------|
Bb|-------------------------------------------------|
Gb|-------------------------------------------------|
Db|-9999999999-7777777777-5555555555-2-22-22-2222---|
Ab|-9999999999-7777777777-5555555555-2-22-22-2222---|
Eb|-7777777777-5555555555-3333333333-0-00-00-0000---|

Eb|-----------------------------------------------|
Bb|-----------------------------------------------|
Gb|-----------------------------------------------|
Db|-99999999-7777-------------55555555-2222-222---|
Ab|-99999999-7777-5h7p5h7p5h7-55555555-2222-222---|
Eb|-77777777-5555-------------33333333-0000-000---|

Chorus (00:31 – 01:02)

Eb|-------------------------------------------------|
Bb|-------------------------------------------------|
Gb|-------------------------------------------------|
Db|-9999999999-7777777777-5555555555-2-22-22-2222---|
Ab|-9999999999-7777777777-5555555555-2-22-22-2222---|
Eb|-7777777777-5555555555-3333333333-0-00-00-0000---|

Eb|-----------------------------------------------|
Bb|-----------------------------------------------|
Gb|-----------------------------------------------|
Db|-99999999-7777-------------55555555-2222-222---|
Ab|-99999999-7777-5h7p5h7p5h7-55555555-2222-222---|
Eb|-77777777-5555-------------33333333-0000-000---|

Bridge (01:02 – 01:24)

Eb|-------------------|
Bb|-------------------|
Gb|-9-9-9-9-9-9-9-9---| x3 
Db|-x-x-x-x-x-x-x-x---|
Ab|-7-7-7-7-7-7-7-7---|
Eb|-------------------|

Eb|---------/17---|
Bb|---------------|
Gb|-9-9-9-9-------|
Db|-x-x-x-x-------|
Ab|-7-7-7-7-------|
Eb|---------------|

Eb|---------------------------------|
Bb|---------------------------------|
Gb|---------------------------------| x2 
Db|-22-2-22-2222-22-2-22-2222-577---|
Ab|-22-2-22-2222-22-2-22-2222-577---|
Eb|-00-0-00-0000-00-0-00-0000-355---|

Eb|--------|
Bb|--------|
Gb|--------|
Db|-22-2---|
Ab|-22-2---|
Eb|-00-0---|
............Palm mute 

Eb|---------------------------------|
Bb|---------------------------------|
Gb|---------------------------------| x2 
Db|-22-2-22-2222-22-2-22-2222-577---|
Ab|-22-2-22-2222-22-2-22-2222-577---|
Eb|-00-0-00-0000-00-0-00-0000-355---|

Verse 2 (01:24 – 01:45)

Eb|-------------------------------------------------|
Bb|-------------------------------------------------|
Gb|-------------------------------------------------|
Db|-9999999999-7777777777-5555555555-2-22-22-2222---|
Ab|-9999999999-7777777777-5555555555-2-22-22-2222---|
Eb|-7777777777-5555555555-3333333333-0-00-00-0000---|

Eb|-----------------------------------------------|
Bb|-----------------------------------------------|
Gb|-----------------------------------------------|
Db|-99999999-7777-------------55555555-2222-222---|
Ab|-99999999-7777-5h7p5h7p5h7-55555555-2222-222---|
Eb|-77777777-5555-------------33333333-0000-000---|

Chorus 2 (01:45 – 02:06)

Eb|-------------------------------------------------|
Bb|-------------------------------------------------|
Gb|-------------------------------------------------|
Db|-9999999999-7777777777-5555555555-2-22-22-2222---|
Ab|-9999999999-7777777777-5555555555-2-22-22-2222---|
Eb|-7777777777-5555555555-3333333333-0-00-00-0000---|
.....................................................Palm mute 

Eb|---------------------------------------|
Bb|---------------------------------------|
Gb|-99999999-77777777-55555555-2222-222---|
Db|-99999999-77777777-55555555-2222-222---|
Ab|-77777777-55555555-33333333-0000-000---|
Eb|---------------------------------------|
...........................................Palm mute 

Bridge 2 (02:06 – 02:37)

Eb|-----------------------------------|
Bb|-3-33-33-3-33-33/6-66-66-4-44-44---|
Gb|-----------------------------------| x4 
Db|-----------------------------------|
Ab|-----------------------------------|
Eb|-----------------------------------|

Verse 3 (02:37 – 02:58)

Eb|---------------------------------|
Bb|---------------------------------|
Gb|---------------------------------| x2 
Db|-22-2-22-2222-22-2-22-2222-577---|
Ab|-22-2-22-2222-22-2-22-2222-577---|
Eb|-00-0-00-0000-00-0-00-0000-355---|

Eb|--------|
Bb|--------|
Gb|--------|
Db|-22-2---|
Ab|-22-2---|
Eb|-00-0---|
............Palm mute 

Eb|---------------------------------|
Bb|---------------------------------|
Gb|---------------------------------| x2 
Db|-22-2-22-2222-22-2-22-2222-577---|
Ab|-22-2-22-2222-22-2-22-2222-577---|
Eb|-00-0-00-0000-00-0-00-0000-355---|

Bridge 3 (02:58 – 03:39)

Eb|------------------------------------------------------|
Bb|------------------------------------------------------|
Gb|------------------------------------------------------|
Db|-5555555555555555-7777777777777777-5555555555555555---|
Ab|-5555555555555555-7777777777777777-5555555555555555---|
Eb|-3333333333333333-5555555555555555-3333333333333333---|

Eb|---------------------------------|
Bb|---------------------------------|
Gb|---------------------------------| x2 
Db|-22-2-22-2222-22-2-22-2222-577---|
Ab|-22-2-22-2222-22-2-22-2222-577---|
Eb|-00-0-00-0000-00-0-00-0000-355---|
comments
We did not receive enough feedback on this tab! Please rate:
1 2 3 4 5
1 comment total.
0 reply
AOFn'GDfan wrote on July 12 2007, 12:57 pm

good job this tab is better then the other one i think

I want to post or [tab]
guest
You may want to rate the tab now too:
select rating
Please do not post tabs as comments. Select "correction" instead!