Oops, an error
Loading. Please wait.

This Could Be Anywhere In The World Drum Tab

ver1
ver1

Whole song

Interactive

More versions @911Tabs.com
1,717 views 3 this week
no commentswrite comment
1 2 3 4 5
please rate
Autoscroll
+/-
esc
set tempo
stop
Contributor
Hey! There's an official Ultimate Guitar app which is ideal
for learning songs when you're away from computer. Get the app
WARNING: You are trying to view
                                    content from Ultimate-Guitar.com
                                    in an unauthorized application,
                                    which is prohibited.

                                    Please use an official Ultimate
                                    Guitar Tabs application for iPhone,
                                    iPad or Android to access legitimate
                                    chords, guitar, bass, and drum tabs
                                    from Ultimate-Guitar.com database.

                                    Type "ultimate guitar tabs" in Apple
                                    App Store's or Android Market's
                                    search to find the application.
Band- Aleisonfire
Song- this could be anywhere in the world
Album- crisis

f - flam hit b -ride bell X - washy hi-hat 0 - open hi-hat d - double-hit   
x - closed hi-hat  g - Ghost hit 0 - Accented snare hit

Intro 
C|X--X----X---X---|X---X---X---X---|X--X----X---X---|----------------|
S|------o-----o--o|------o-----o---|------o-----o-dd|0gg0gg00g0gg0000|
B|o--o------o-----|o--o------o---o-|o-o-------o-----|o---o---o---o---|
  1 + 2 + 3 + 4 +  1 + 2 + 3 + 4 +  1 + 2 + 3 + 4 +  1 + 2 + 3 + 4 +

C|X-X-------------|----------------|X-X-------------|----------------|
R|--------b---b---|b---b---b---b---|--------b---b---|b---b---b-------|
T|----------------|----------------|----------------|-----------oo---|
H|----------------|----------------|----------------|--------------X-|
S|-----o------o--o|------o-----o--o|------o-----o--o|-----o---oo--o--|
F|----------------|----------------|----------------|----------------|
B|o-o-------o-----|o--o------o-----|o-o-------o-----|o--o------------|
  1 + 2 + 3 + 4 +  1 + 2 + 3 + 4 +  1 + 2 + 3 + 4 +  1 + 2 + 3 + 4 +

C|--------X-X-X---|-------|
S|----------------|---o---|
F|----------------|-o-----|
B|--------o-o-o---|----o--|
  1 + 2 + 3 + 4 +  1 + 2 +

Verse 1 
C|X---------------|----------------|----------------|----------------|
H|----0---0---0---|0---0---0---0---|0---0---0---0---|0---0-----------|
S|--o---------o---|--oo-----o--o---|o--o--o-----o---|--oo-----oo-o-oo|
F|----------------|----------------|----------------|----------------|
B|o---o-o---o-----|o-----o---o-----|o---o-----o-----|o-----o----o----|
  1 + 2 + 3 + 4 +  1 + 2 + 3 + 4 +  1 + 2 + 3 + 4 +  1 + 2 + 3 + 4 +

C|X-X-------------|----------------|X-X-------------|----------------|
R|--------b---b---|b---b---b---b---|--------b---b---|b---b-----------|
T|----------------|----------------|----------------|--------oo------|
S|-----o------o--o|------o-----o--o|------o-----o--o|------oo--------|
F|----------------|----------------|----------------|----------o-f---|
B|o-o-------o-----|o--o------o-----|o-o-------o-----|o--o-------o-o--|
  1 + 2 + 3 + 4 +  1 + 2 + 3 + 4 +  1 + 2 + 3 + 4 +  1 + 2 + 3 + 4 +

C|X---------------|----------------|----------------|----------------|
H|----0---0---0---|0---0---0---0---|0---0---0---0---|0---0-----------|
S|--o---------o---|--oo-----o--o---|o--o--o-----o---|--oo-----oo-o-oo|
F|----------------|----------------|----------------|----------------|
B|o---o-o---o-----|o-----o---o-----|o---o-----o-----|o-----o----o----|
  1 + 2 + 3 + 4 +  1 + 2 + 3 + 4 +  1 + 2 + 3 + 4 +  1 + 2 + 3 + 4 +

C|X-X-------------|----------------|X-X-------------|----------------|
R|--------b---b---|b---b---b---b---|----------------|----------------|
T|----------------|----------------|----------------|--------oo------|
S|-----o------o--o|------o-----o--o|----------------|----------------|
F|----------------|----------------|----------------|----------o-f---|
B|o-o-------o-----|o--o------o-----|o-o-------------|-----------o-o--|
  1 + 2 + 3 + 4 +  1 + 2 + 3 + 4 +  1 + 2 + 3 + 4 +  1 + 2 + 3 + 4 +

C|X---------------|----------------|------X-----X---|----------------|
T|----------------|----------------|--oo----oo------|----------------|
H|----0---0---0---|0---0-----0-----|--------------0-|----------------|
S|--o---------o---|--oo----oo------|oo--------------|oooooooooooooooo|
F|----------------|----------------|----oo----oo----|----------------|
B|o---o-o---o-----|o-----o---o-o---|------o-----o---|o-o-o-o-o-o-o-o-|
  1 + 2 + 3 + 4 +  1 + 2 + 3 + 4 +  1 + 2 + 3 + 4 +  1 + 2 + 3 + 4 +

Chorus 1 
 |-----------------------------Repeat 4x-----------------------------|
                                                    |      1st       |
C|X---X---X---X---|X---X---X---X---|X---X---X---X---|X---X-----------|
S|--------o--o----|----o—--o-------|--------o--o----|----o---f-------|
F|----------------|----------------|----------------|------------f---|
B|o--o--o-------o-|o-----o---o---o-|o--o--o-------o-|o-----o---o---o-|
  1 + 2 + 3 + 4 +  1 + 2 + 3 + 4 +  1 + 2 + 3 + 4 +  1 + 2 + 3 + 4 +
 
 |      2nd       ||      3rd       ||      4th      |
C|X---X---X---X---||X---------------||X--X--X--------|X--X--X---------|
T|----------------||----------------||---------------|-----------oo---|
H|----------------||----------------||---------------|--------------X-|
S|--------o--o----||-----o---f------||---------------|---------oo--o--|
F|----------------||-----------oo---||---------------|----------------|
B|o--o--o-------o-||o------o------o-||o--o--o--------|o--o--o---------|
  1 + 2 + 3 + 4 +   1 + 2 + 3 + 4 +   1 + 2 + 3 + 4 + 1 + 2 + 3 + 4 +

Verse 2 
C|X---------------|----------------|----------------|----------------|
H|----0---0---0---|0---0---0---0---|0---0---0---0---|----------------|
S|--o---------o---|--oo-----o--o---|o--o--o-----o---|0oo0oo00o0oo0000|
B|o---o-o---o-----|o-----o---o-----|o---o-----o-----|o---o---o---o---|
  1 + 2 + 3 + 4 +  1 + 2 + 3 + 4 +  1 + 2 + 3 + 4 +  1 + 2 + 3 + 4 +

C|X-X-------------|----------------|X-X-------------|----------------|
R|--------b---b---|b---b---b---b---|--------b---b---|b---b-----------|
T|----------------|----------------|----------------|--------oo------|
S|-----o------o--o|------o-----o--o|-----o------o--o|------oo--------|
F|----------------|----------------|----------------|----------o-f---|
B|o-o-------o-----|o--o------o-----|o-o-------o-----|o--o-------o-o--|
  1 + 2 + 3 + 4 +  1 + 2 + 3 + 4 +  1 + 2 + 3 + 4 +  1 + 2 + 3 + 4 +

C|X---------------|----------------|----------------|----------------|
H|----0---0---0---|0---0---0---0---|0---0-------0---|0---0---0---0---|
S|--o---------o---|--oo-----o--o---|--oo----oo--o---|--o---------o-oo|
B|o---o-o---o-----|o-----o---o-----|o-----o---o-----|o---o-o---o-----|
  1 + 2 + 3 + 4 +  1 + 2 + 3 + 4 +  1 + 2 + 3 + 4 +  1 + 2 + 3 + 4 +

C|X-X-------------|----------------|X-X-------------|----------------|
R|--------b---b---|b---b---b---b---|--------b---b---|b---b-----------|
S|-----o------o--o|------o-----o--o|-----o------o--o|------o-o-------|
F|----------------|----------------|----------------|------------f---|
B|o-o-------o-----|o--o------o-----|o-o-------o-----|o--o-----o-o-o--|
  1 + 2 + 3 + 4 +  1 + 2 + 3 + 4 +  1 + 2 + 3 + 4 +  1 + 2 + 3 + 4 +

C|X---------------|----------------|------X-----X---|----------------|
T|----------------|----------------|--oo----oo------|----------------|
H|----0---0---0---|0---0---0---0---|--------------0-|----------------|
S|--o---------o---|--oo-----o--o---|oo--------------|oooooooooooooooo|
F|----------------|----------------|----oo----oo----|----------------|
B|o---o-o---o-----|o-----o---o-----|------o-----o---|o---o---o---o---|
  1 + 2 + 3 + 4 +  1 + 2 + 3 + 4 +  1 + 2 + 3 + 4 +  1 + 2 + 3 + 4 +

Chorus 2 
 |-----------------------------Repeat 4x-----------------------------|
                                                    |      1st       |
C|X---X---X---X---|X---X---X---X---|X---X---X---X---|X---X-----------|
S|--------o--o----|----o—--o-------|--------o--o----|----o---f-------|
F|----------------|----------------|----------------|-----------oo---|
B|o--o--o-------o-|o-----o---o---o-|o--o--o-------o-|o-----o-------o-|
  1 + 2 + 3 + 4 +  1 + 2 + 3 + 4 +  1 + 2 + 3 + 4 +  1 + 2 + 3 + 4 +

 |      2nd       ||      3rd       ||      4th      |
C|X---X---X---X---||X---X-----------||X--X--X--------|
S|--------o--o----||----o---f-------||-------o--o--o-|
F|----------------||------------f---||---------------|
B|o--o--o-------o-||o-----o---o---o-||o--o--o--------|
  1 + 2 + 3 + 4 +   1 + 2 + 3 + 4 +   1 + 2 + 3 + 4 + 

Interlude 
C|X---------------|----------------|X---------------|--------X-------|
T|----------------|----------------|----------------|----oo----------|
H|----0---0---0---|0---0---0---X---|----0---0-------|------------0---|
S|----o---oo------|o---oo----------|--------oo--0oo0|oo0o--------o---|
F|----------------|----------------|----------------|------oo--------|
B|o--o--o-----o--o|--o-----o---o---|o-----o---------|--------o--o--o-|
  1 + 2 + 3 + 4 +  1 + 2 + 3 + 4 +  1 + 2 + 3 + 4 +  1 + 2 + 3 + 4 +

C|----------------|--------X-------|----------------|X---X---X---X---|
T|----------------|----------------|--------ooo-----|----------------|
H|0---0---0---0---|0---X-------0---|0---------------|----------------|
S|oo------o---oo--|----------------|oo--ooo---------|----o---oo--o---|
F|----------------|----------------|------------ooo-|----------------|
B|----o--o--o-----|o---o---o-----o-|----------------|o--o--o--------o|
  1 + 2 + 3 + 4 +  1 + 2 + 3 + 4 +  1 + 2 + 3 + 4 +  1 + 2 + 3 + 4 +

C|X---X---X-------|X---X-----------|--------X---X---|X---X---X---X---|
T|----------------|----------------|----oo----------|----------------|
S|o---oo----------|----o-------ooo0|oo0o--------o---|oo--o---o---oo--|
F|--------oo-do---|--------oo------|------oo--------|----------------|
B|--o----o--o--o-o|o--o--o-----o---|o---o---o--o--o-|-------o--o-----|
  1 + 2 + 3 + 4 +  1 + 2 + 3 + 4 +  1 + 2 + 3 + 4 +  1 + 2 + 3 + 4 +

C|X---X---X---X---|X---X-----------|X---------------|----------------|
S|------------o---|oo------oo------|----------------|----------------|
F|----------------|------------f---|----------------|----------------|
B|o---o---o--o--o-|----o-----o---o-|o---------------|----------------|
  1 + 2 + 3 + 4 +  1 + 2 + 3 + 4 +  1 + 2 + 3 + 4 +  1 + 2 + 3 + 4 +

C|----------------|----------------|X---X---X---X---|X---X---X---X---|
R|---------------d|o---------------|----------------|----------------|
S|----------------|----------------|----o---oo------|o---oo----------|
F|----------------|----------------|----------------|----------------|
B|----------------|----------------|o--o--o-----o--o|--o-----o---o---|
  1 + 2 + 3 + 4 +  1 + 2 + 3 + 4 +  1 + 2 + 3 + 4 +  1 + 2 + 3 + 4 + 

C|X---X---X-------|--------X---X---|X---X---X---X---|X---X-|
T|----------------|----oo----------|----------------|------|
H|----------------|----------------|----------------|------|
S|----o---oo--ooo0|oo0o--------o---|oo------o---oo--|------|
F|----------------|------oo--------|----------------|------|
B|o--o--o---------|--------o--o--o-|----o--o--o-----|o---o-|
  1 + 2 + 3 + 4 +  1 + 2 + 3 + 4 +  1 + 2 + 3 + 4 +  1 + 2 

Chorus 3 
 |-----------------------------Repeat 4x-----------------------------|
                                                    |      1st       |
C|X---X---X---X---|X---X---X---X---|X---X---X---X---|X---------------|
S|--------o--o----|----o—--o-------|--------o--o----|-----o---f------|
F|----------------|----------------|----------------|-----------oo---|
B|o--o--o-------o-|o-----o---o---o-|o--o--o-------o-|o------o------o-|
  1 + 2 + 3 + 4 +  1 + 2 + 3 + 4 +  1 + 2 + 3 + 4 +  1 + 2 + 3 + 4 +
 
 |      2nd       ||      3rd       ||      4th       |
C|X--X--X-----X---||X---X-----------||----------------|X--X--X--------|
S|--------o--o----||----o---f-------||0oo0oo00o0oo0000|---------------|
F|----------------||------------f---||----------------|---------------|
B|o--o--o-------o-||o-----o---o---o-||o---o---o---o---|o--o--o--------|
  1 + 2 + 3 + 4 +   1 + 2 + 3 + 4 +   1 + 2 + 3 + 4 +  1 + 2 + 3 + 4 +

	
comments
We did not receive enough feedback on this tab! Please rate:
print report bad tab
1 2 3 4 5
I want to post or [tab]
guest
You may want to rate the tab now too:
select rating
Please do not post tabs as comments. Select "correction" instead!