Oops, an error
Loading. Please wait.

Vex Tab

ver1
ver1

Intro

Whole song

More versions @911Tabs.com
1,340 views 1 this week
no commentswrite comment
1 2 3 4 5
excellent!
x 1
Autoscroll
+/-
esc
set tempo
stop
Contributor
Tuning
D# G# C# F# A# D#
Hey! There's an official Ultimate Guitar app which is ideal
for learning songs when you're away from computer. Get the app
WARNING: You are trying to view
                                    content from Ultimate-Guitar.com
                                    in an unauthorized application,
                                    which is prohibited.

                                    Please use an official Ultimate
                                    Guitar Tabs application for iPhone,
                                    iPad or Android to access legitimate
                                    chords, guitar, bass, and drum tabs
                                    from Ultimate-Guitar.com database.

                                    Type "ultimate guitar tabs" in Apple
                                    App Store's or Android Market's
                                    search to find the application.
Artist: Alexisonfire
Album: Dog’s Blood
Track: Vex
Guitar 1: Rhythm, Half step down (D#G#C#F#A#D#)
Guitar 2: Lead, Half step down (D#G#C#F#A#D#)
Guitar 3 (chords): Half step down (D#G#C#F#A#D#)
NB: 3/4 timing, the ‘o’ are repeats with the amount shown

Chords used:
    E5  G#m      G#5  A#5   B5  C#m      C#5  D#5  F#5
D#|------5----0------------------5----1-----------------|
A#|------5----1------------------6----3-----------------|
F#|------5----2------------------7----2---7----9----12--|
C#|-3----7-OR-2---7----9----10---7-OR-0---7----9----12--|
G#|-3----7----0---7----9----10---5--------5----7----10--|
D#|-1----5--------5----7----8---------------------------|                                   


Guitar 1
0:00-0:11
   G#m
D#|-0---0---0---0---0---0--|-0---0---0---0---0---0--|
A#|o1---1---1---1---1---1--|-1---1---1---1---1---1-o|
F#|-2---2---2---2---2---2--|-2---2---2---2---2---2--|
C#|-2---2---2---2---2---2--|-2---2---2---2---2---2--|
G#|o0---0---0---0---0---0--|-0---0---0---0---0---0-o|x2
D#|------------------------|------------------------|                                   
   C#m
D#|-5----------------------|------------------------|
A#|-6----------------------|------------------------|
F#|-7----------------------|------------------------|
C#|-7----------------------|------------------------| 
G#|-5----------------------|------------------------|
D#|------------------------|------------------------|                                   

0:11-1:09
   G#m                     C#m                      
D#|-------5-----------5----|-------5-----------5----|
A#|o----6---6-------6---6--|-----6---6-------6---6-o|
F#|---7-------7---7-------7|---7-------7---7-------7|
C#|-7-----------7----------|-7-----------7----------| 
G#|o-----------------------|-----------------------o|x5
D#|------------------------|------------------------|                                   
   G#m                      G#m
D#|-------5-----------5----|-0----------------------|
A#|-----6---6-------6---6--|-1----------------------|
F#|---7-------7---7-------7|-2----------------------|
C#|-7-----------7----------|-2----------------------| 
G#|------------------------|-0----------------------|
D#|------------------------|------------------------|                                   
   G#m                      G#m
D#|-0----------------------|-0----------------------|
A#|-1-----------3-5-5-5-5-5|-1----------------------|
F#|-2-----------2/4-4-4-4-4|-2----------------------|
C#|-2----------------------|-2----------------------| 
G#|-0----------------------|-0----------------------|
D#|------------------------|------------------------|                                   
   G#m
D#|-0----------------------|
A#|-1----------------------|
F#|-2----------------------|
C#|-2----------------------| 
G#|-0----------------------|
D#|------------------------|                                   

1:09-1:43
   G#5                       B5
D#|------------------------|------------------------|
A#|o-----------------------|------------------------|
F#|------------------------|------------------------|
C#|-7---7---7---7---7---7--|-10--10--10--10--10--10-| 
G#|o7---7---7---7---7---7--|-10--10--10--10--10--10-|
D#|-5---5---5---5---5---5--|-8---8---8---8---8---8--|                                   
   D#5                      F#5
D#|------------------------|------------------------|
A#|------------------------|-----------------------o|
F#|-9---9---9---9---9---9--|-12--12--12--12--12--12-|
C#|-9---9---9---9---9---9--|-12--12--12--12--12--12-| 
G#|-7---7---7---7---7---7--|-10--10--10--10--10--10o|x4
D#|------------------------|------------------------|                                   
   C#5
D#|------------------------|------------------------|
A#|------------------------|------------------------|
F#|-7----------------------|------------------------|
C#|-7----------------------|------------------------| 
G#|-5----------------------|------------------------|
D#|------------------------|------------------------|                                   

1:43-2:29
   G#m                     C#m                      
D#|-------5-----------5----|-------5-----------5----|
A#|o----6---6-------6---6--|-----6---6-------6---6-o|
F#|---7-------7---7-------7|---7-------7---7-------7|
C#|-7-----------7----------|-7-----------7----------| 
G#|o-----------------------|-----------------------o|x5
D#|------------------------|------------------------|                                   
   G#m                      G#m
D#|-------5-----------5----|-0----------------------|
A#|-----6---6-------6---6--|-1----------------------|
F#|---7-------7---7-------7|-2----------------------|
C#|-7-----------7----------|-2----------------------| 
G#|------------------------|-0----------------------|
D#|------------------------|------------------------|                                   

2:29-3:34
D#|------------------------|------------------------|
A#|o-----------------------|------------------------|
F#|------------------------|------------------------|
C#|-7---7---7---7---7---7--|-10--10--10--10--10--10-| 
G#|o7---7---7---7---7---7--|-10--10--10--10--10--10-|
D#|-5---5---5---5---5---5--|-8---8---8---8---8---8--|                                   
   D#5                      F#5
D#|------------------------|------------------------|
A#|------------------------|-----------------------o|
F#|-9---9---9---9---9---9--|-12--12--12--12--12--12-|
C#|-9---9---9---9---9---9--|-12--12--12--12--12--12-| 
G#|-7---7---7---7---7---7--|-10--10--10--10--10--10o|x8
D#|------------------------|------------------------|                                   
   C#5
D#|------------------------|------------------------|
A#|------------------------|------------------------|
F#|-7----------------------|------------------------|
C#|-7----------------------|------------------------| 
G#|-5----------------------|------------------------|
D#|------------------------|------------------------|                                   

3:34-4:35
   G#5
D#|------------------------|------------------------|
A#|o-----------------------|------------------------|
F#|------------------------|------------------------|
C#|-7----------------------|------------------------| 
G#|o7----------------------|------------------------|
D#|-5----------------------|------------------------|                                   
   A#5
D#|------------------------|------------------------|
A#|------------------------|------------------------|
F#|------------------------|------------------------|
C#|-9----------------------|------------------------| 
G#|-9----------------------|------------------------|
D#|-7----------------------|------------------------|                                   
    B5                                         D#5
D#|------------------------|------------------------|
A#|------------------------|------------------------|
F#|------------------------|---------------------9--|
C#|-10---------------------|---------------------9--| 
G#|-10---------------------|---------------------7--|
D#|-8----------------------|------------------------|                                   
   C#5
D#|------------------------|------------------------|
A#|------------------------|-----------------------o|
F#|-7----------------------|------------------------|
C#|-7----------------------|------------------------| 
G#|-5----------------------|-----------------------o|x4
D#|------------------------|------------------------|                                   

4:35-5:12
   G#5
D#|------------------------|------------------------|
A#|o-----------------------|------------------------|
F#|------------------------|------------------------|
C#|-7---7---7---7---7---7--|-7---7---7---7---7---7--| 
G#|o7---7---7---7---7---7--|-7---7---7---7---7---7--|
D#|-5---5---5---5---5---5--|-5---5---5---5---5---5--|                                   
   A#5
D#|------------------------|------------------------|
A#|------------------------|------------------------|
F#|------------------------|------------------------|
C#|-9---9---9---9---9---9--|-9---9---9---9---9---9--| 
G#|-9---9---9---9---9---9--|-9---9---9---9---9---9--|
D#|-7---7---7---7---7---7--|-7---7---7---7---7---7--|                                   
    B5                                         
D#|------------------------|------------------------|
A#|------------------------|------------------------|
F#|------------------------|------------------------|
C#|-10--10--10--10--10--10-|-10--10--10--10--10--10-| 
G#|-10--10--10--10--10--10-|-10--10--10--10--10--10-|
D#|-8---8---8---8---8---8--|-8---8---8---8---8---8--|                                   
   C#5
D#|------------------------|------------------------|
A#|------------------------|-----------------------o|
F#|-7---7---7---7---7---7--|-7---7---7---7---7---7--|
C#|-7---7---7---7---7---7--|-7---7---7---7---7---7--|
G#|-5---5---5---5---5---5--|-5---5---5---5---5---5-o|x2
D#|------------------------|------------------------|
   G#m
D#|-5----------------------|------------------------|
A#|-5----------------------|------------------------|
F#|-5----------------------|------------------------|
C#|-7----------------------|------------------------| 
G#|-7----------------------|------------------------|
D#|-5----------------------|------------------------|                                   

D#|------------------------|------------------------|
A#|------------------------|------------------------|
F#|------------------------|------------------------|
C#|------------------------|------------------------| 
G#|------------------------|------------------------|
D#|------------------------|------------------------|                                   

5:12-6:01
   G#5                                     E5
D#|------------------------|------------------------|
A#|o-----------------------|-----------------------o|
F#|------------------------|------------------------|
C#|-7---7-7---7-7---7-7---7|-7---7-7---7---3---3---3| 
G#|o7---7-7---7-7---7-7---7|-7---7-7---7---3---3---3|x8
D#|-5---5-5---5-5---5-5---5|-5---5-5---5---1---1---1|                                   
   G#5
D#|------------------------|------------------------|
A#|------------------------|------------------------|
F#|------------------------|------------------------|
C#|-7----------------------|------------------------| 
G#|-7----------------------|------------------------|
D#|-5----------------------|------------------------|                                   


Guitar 2
0:00-0:11
   G#m
D#|-0---0---0---0---0---0--|-0---0---0---0---0---0--|
A#|o1---1---1---1---1---1--|-1---1---1---1---1---1-o|
F#|-2---2---2---2---2---2--|-2---2---2---2---2---2--|
C#|-2---2---2---2---2---2--|-2---2---2---2---2---2--|
G#|o0---0---0---0---0---0--|-0---0---0---0---0---0-o|x2
D#|------------------------|------------------------|                                   
   C#m
D#|-5----------------------|------------------------|
A#|-6----------------------|------------------------|
F#|-7----------------------|------------------------|
C#|-7----------------------|------------------------| 
G#|-5----------------------|------------------------|
D#|------------------------|------------------------|  

0:11-1:09
   G#m                     C#m                        
D#|------------------------|------------------------|
A#|o-----------------------|-----------------------o|
F#|------------------------|------------------------|
C#|------------------------|------------------------| 
G#|o-----------------------|-----------------------o|x2
D#|------------------------|------------------------|   
   G#m                     C#m                    
D#|------------------------|------------------------|
A#|------------------------|------------------------|
F#|------------------------|------------------------|
C#|-7------------5---------|------------------------| 
G#|---7-8----7-8------8-7-5|-7----------------------|
D#|------------------------|---5--------------------|   
   G#m                     C#m                    
D#|------------------------|------------------------|
A#|------------------------|------------------------|
F#|------------------------|------------------------|
C#|-7------------5---------|------------------------| 
G#|---7-8----7-8------8-7-5|-7----------------------|
D#|------------------------|------------------------|   
   G#m                     C#m                    
D#|------------------------|------------------------|
A#|------------------------|------------------------|
F#|------------------------|------------------------|
C#|-7------------5----7----|------------------------| 
G#|---7-8----7-8-----------|7-------5---5-----------|
D#|------------------------|----------8-------5-7-8-|   
  G#m                       G#m                    
D#|------------------------|-0----------------------|
A#|------------------------|-1----------------------|
F#|------------------------|-2----------------------|
C#|------------------------|-2----------------------| 
G#|7-----------------------|-0----------------------|
D#|--------7-------3-------|------------------------|
   G#m                      G#m
D#|-0----------------------|-0----------------------|
A#|-1-----------3-5-5-5-5-5|-1----------------------|
F#|-2-----------2/4-4-4-4-4|-2----------------------|
C#|-2----------------------|-2----------------------| 
G#|-0----------------------|-0----------------------|
D#|------------------------|------------------------|                                   
   G#m
D#|-0----------------------|
A#|-1----------------------|
F#|-2----------------------|
C#|-2----------------------| 
G#|-0----------------------|
D#|------------------------|                                   
   
1:09-1:43
D#|------------------------|-------------------5----|
A#|o-----------------------|-5-----5---5-8-5-8---8-5|
F#|-------------5-----5---5|---------7--------------|
C#|/7-----7-5-7---------7--|------------------------| 
G#|o-----------------------|-----------------------o|x4
D#|------------------------|------------------------|   

D#|------------------------|------------------------|
A#|------------------------|------------------------|
F#|-7----------------------|------------------------|
C#|------------------------|------------------------| 
G#|------------------------|------------------------|
D#|------------------------|------------------------|   

1:43-2:29
   G#m                     C#m                      
D#|---------5--------------|------------------------|
A#|-----8------------------|------------------------|
F#|-5h7----------------7-5-|--5---------------------|
C#|------------------------|7-----------------------| 
G#|------------------------|------------------------|
D#|------------------------|------------------------|   
   G#m                     C#m                      
D#|---------5---7----------|------------------------|
A#|-----8---------8--\--5--|------------------------|
F#|-5h7--------------------|-7p5--------------------|
C#|------------------------|------------------------| 
G#|------------------------|------------------------|
D#|------------------------|------------------------|   
   G#m                     C#m                    
D#|------------------------|------------------------|
A#|-10-----------8---------|------------------------|
F#|---9-10---9-10-----109-7|-9----------------------|
C#|------------------------|---7--------------------| 
G#|------------------------|------------------------|
D#|------------------------|------------------------|
   G#m                     C#m                    
D#|------------------------|------------------------|
A#|-10-----------8---------|------------------------|
F#|---9-10---9-10-----109-7|-9----------------------|
C#|------------------------|------------------------| 
G#|------------------------|------------------------|
D#|------------------------|------------------------|   
   G#m                     C#m                    
D#|------------------------|------------------------|
A#|-10-----------8----10---|------------------------|
F#|---9-10---9-10----------|9------7---7------------|
C#|------------------------|---------10-------7-9-10| 
G#|------------------------|------------------------|
D#|------------------------|------------------------|   
  G#m                       G#m                    
D#|------------------------|------------------------|
A#|------------------------|------------------------|
F#|7-\-5-------------------|------------------------|
C#|--------7-------10-9----|-7----------------------| 
G#|---------------------10-|------------------------|
D#|------------------------|------------------------|


2:29-3:34 (Elongated bars for tabbing ease, exactly the same timing as normal length bar)
D#|------------------------|-------------------5----|
A#|o-----------------------|-5-----5---5-8-5-8---8-5|
F#|-------------5-----5---5|---------7--------------|
C#|/7-----7-5-7---------7--|------------------------| 
G#|o-----------------------|-----------------------o|x4
D#|------------------------|------------------------|   

D#|-------------------------------------------------|
A#|o------------------------13--1313131313------13--|
F#|/14--1414141414--12--14------------------14------|
C#|-------------------------------------------------| 
G#|o------------------------------------------------|
D#|-------------------------------------------------|   

D#|------------------------15------15--17--15-------|
A#|17--1717171717--15--17------17--------------17--o|
F#|-------------------------------------------------|
C#|-------------------------------------------------| 
G#|------------------------------------------------o|x4
D#|-------------------------------------------------|   

D#|------------------------|------------------------|
A#|-15---------------------|------------------------|
F#|------------------------|------------------------|
C#|------------------------|------------------------| 
G#|------------------------|------------------------|
D#|------------------------|------------------------|   

3:34-4:05
D#|------------------------|------------------------|
A#|o-----------------------|-----------------------o|
F#|------------------------|------------------------|
C#|------------------------|------------------------| 
G#|o-----------------------|-----------------------o|x8
D#|------------------------|------------------------|   

4:05-5:12(Elongated bars for tabbing ease, exactly the same timing as normal length bar)
D#|-------------------------------------------------|
A#|o1010101010--8---10------1010101010--8---10------|
F#|---------------------9-----------------------7---|
C#|-------------------------------------------------| 
G#|o------------------------------------------------|
D#|-------------------------------------------------|   

D#|-------------------------------------------------|
A#|-1010101010--8---10-----------------------------o|
F#|---------------------9---7---7-------------------|
C#|---------------------------10-10---7-109---------| 
G#|-----------------------------------------10-----o|x2
D#|-------------------------------------------------|   

D#|-------------------------------------------8-8-8-|
A#|-1010101010--8---10------1010101010--8---10------|
F#|---------------------9---------------------------|
C#|-------------------------------------------------| 
G#|-------------------------------------------------|
D#|-------------------------------------------------|   

D#|8-7-7-7-7-----------------10101010108---7--------|
A#|----------101010108-8-8-8-------------------10---|
F#|-------------------------------------------------|
C#|-------------------------------------------------| 
G#|-------------------------------------------------|
D#|-------------------------------------------------|   
        Twelves-D#                   Fifteens-F#
D#|-121212121212121212121212121212121515151515151515|
A#|-------------------------------------------------|
F#|-------------------------------------------------|
C#|-------------------------------------------------| 
G#|-------------------------------------------------|
D#|-------------------------------------------------|   
        Twelves-D#           Seventeens-G# Fifteens-F#
D#|-121212121212121212121212171717171717151515151515|
A#|o-----------------------------------------------o|
F#|-------------------------------------------------|
C#|-------------------------------------------------| 
G#|o-----------------------------------------------o|x2
D#|-------------------------------------------------|   
     Twelves-D# Fifteens-F# Seventeens-G# Nineteens-A#
D#|-121212121212151515151515171717171717191919191919|
A#|-------------------------------------------------|
F#|-------------------------------------------------|
C#|-------------------------------------------------| 
G#|-------------------------------------------------|
D#|-------------------------------------------------|   
    Twenties-B   Twenty-twos-C#
D#|-202020202020222222222222222222222222222222222222|
A#|-------------------------------------------------|
F#|-------------------------------------------------|
C#|-------------------------------------------------| 
G#|-------------------------------------------------|
D#|-------------------------------------------------|

D#|------------------------|------------------------|
A#|------------------------|------------------------|
F#|------------------------|------------------------|
C#|------------------------|------------------------| 
G#|------------------------|------------------------|
D#|------------------------|------------------------|   

D#|------------------------|
A#|------------------------|
F#|------------------------|
C#|------------------------| 
G#|------------------------|
D#|------------------------|

5:12-6:01
   G#5                                     E5
D#|------------------------|------------------------|
A#|o-----------------------|-----------------------o|
F#|------------------------|------------------------|
C#|-7---7-7---7-7---7-7---7|-7---7-7---7---3---3---3| 
G#|o7---7-7---7-7---7-7---7|-7---7-7---7---3---3---3|x8
D#|-5---5-5---5-5---5-5---5|-5---5-5---5---1---1---1|                                   
   G#5
D#|------------------------|------------------------|
A#|------------------------|------------------------|
F#|------------------------|------------------------|
C#|-7----------------------|------------------------| 
G#|-7----------------------|------------------------|
D#|-5----------------------|------------------------|                                   
comments
We did not receive enough feedback on this tab! Please rate:
print report bad tab
1 2 3 4 5
I want to post or [tab]
guest
You may want to rate the tab now too:
select rating
Please do not post tabs as comments. Select "correction" instead!