Oops, an error
Loading. Please wait.

White Devil Tab

ver2
ver2

Whole song

Interactive

More versions @911Tabs.com
1,792 views 6 this week
no commentswrite comment
1 2 3 4 5
excellent!
x 2
Autoscroll
+/-
esc
set tempo
stop
Contributor
Hey! There's an official Ultimate Guitar app which is ideal
for learning songs when you're away from computer. Get the app
WARNING: You are trying to view
                                    content from Ultimate-Guitar.com
                                    in an unauthorized application,
                                    which is prohibited.

                                    Please use an official Ultimate
                                    Guitar Tabs application for iPhone,
                                    iPad or Android to access legitimate
                                    chords, guitar, bass, and drum tabs
                                    from Ultimate-Guitar.com database.

                                    Type "ultimate guitar tabs" in Apple
                                    App Store's or Android Market's
                                    search to find the application.
----------------------------------------------------------------------------
                             White Devil - Alexisonfire
----------------------------------------------------------------------------

Tabbed by: kiefermatot

Email: bamcky2k_69@hotmail.com

Tuning:
Gtr I (Db Ab Db Gb Bb Eb) - 'Untitled'
Gtr II (Db Ab Db Gb Bb Eb) - 'Untitled'
Gtr III (Db Ab Db Gb Bb Eb) - 'Untitled'
Gtr IV (Db Ab Db Gb Bb Eb) - 'Untitled'
Gtr V (Db Ab Db Gb Bb Eb) - 'Untitled'

 Intro
  Q=195
  N.C.
 4/4
  Gtr I
                <
  Wx6           W           +W
|------------|-----------|-----------------|
|------------|-----------|-----------------|
|------------|-12--------|-(12)------------|
|------------|-10--------|-(10)------------|
|------------|-----------|-----------------|
|------------|-----------|-----------------|
|
| Gtr II
|               <
| Wx6           W           +H.        Q
|------------|-----------|-----------------|
|------------|-----------|-----------------|
|------------|-12--------|-(12)--------8---|
|------------|-10--------|-(10)------(10)--|
|------------|-----------|-----------------|
|------------|-----------|-----------------|


    C5                          G5
     Q     Q      Q      Q      E E E E +E  E E E
||----------------------------|-------------------|
||o---------------------------|-------------------|
||--------12-----10-----12----|-7-7-7-7-(7)-7-7-7-|
||--10------------------------|-5-5-5-5-(5)-5-5-5-|
||o---------------------------|-5-5-5-5-(5)-5-5-5-|
||----------------------------|-5-5-5-5-(5)-5-5-5-|
|
|    E  E  E  E  +E   E  E  E   E E E E +E  E E E
||----------------------------|-------------------|
||o---------------------------|-------------------|
||--12-12-12-12-(12)-12-12-12-|-7-7-7-7-(7)-7-7-7-|
||--10-10-10-10-(10)-10-10-10-|-5-5-5-5-(5)-5-5-5-|
||o-10-10-10-10-(10)-10-10-10-|-5-5-5-5-(5)-5-5-5-|
||--10-10-10-10-(10)-10-10-10-|-5-5-5-5-(5)-5-5-5-|


  Ab5
  E E E E +E  E E E   E E E E +E  E E E
|-------------------|--------------------||
|-------------------|-------------------o||
|-8-8-8-8-(8)-8-8-8-|-8-8-8-8-(8)-8-8-8--||
|-6-6-6-6-(6)-6-6-6-|-6-6-6-6-(6)-6-6-6--||
|-6-6-6-6-(6)-6-6-6-|-6-6-6-6-(6)-6-6-6-o||
|-6-6-6-6-(6)-6-6-6-|-6-6-6-6-(6)-6-6-6--||
|
| E E E E +E  E E E   E E E E +E  E E E
|-------------------|--------------------||
|-------------------|-------------------o||
|-8-8-8-8-(8)-8-8-8-|-8-8-8-8-(8)-8-8-8--||
|-6-6-6-6-(6)-6-6-6-|-6-6-6-6-(6)-6-6-6--||
|-6-6-6-6-(6)-6-6-6-|-6-6-6-6-(6)-6-6-6-o||
|-6-6-6-6-(6)-6-6-6-|-6-6-6-6-(6)-6-6-6--||


    C5                           G5
      Q     Q      Q      Q       Q    E Q      Q.
||-----------------------------|-----------------------|
||o----------------------------|-----------------------|
||---------12-----10-----12----|-----------------------|
||--/10------------------------|-----------------------|
||o----------------------------|-10---10-8-----10------|
||-----------------------------|-----------------------|
|
|     E  E  E  E  +E   E  E  E    E E  E E +E   E  E E
||-----------------------------|-----------------------|
||o----------------------------|-----------------------|
||---12-12-12-12-(12)-12-12-12-|--7-7--7-7-(7)--7--7-7-|
||---10-10-10-10-(10)-10-10-10-|--5-5--5-5-(5)--5--5-5-|
||o--10-10-10-10-(10)-10-10-10-|--5-5--5-5-(5)--5--5-5-|
||---10-10-10-10-(10)-10-10-10-|--5-5--5-5-(5)--5--5-5-|


  Ab5                                       F5
  E E E E +E  E   E  E    E  E  E  E  E   E  Q
|----------------------|-------------------------||
|----------------------|------------------------o||
|-8-8-8-8-(8)-8-/15-15-|-15-15-15-15-15s=10-10---||
|-6-6-6-6-(6)-6--/x--x-|--x--x--x--x--xs==x--x---||
|-6-6-6-6-(6)-6-/13-13-|-13-13-13-13-13s==8--8--o||
|-6-6-6-6-(6)-6--------|-------------------------||
|
| E E E E +E  E   E  E    E  E  E  E +E   E  Q
|----------------------|-------------------------||
|----------------------|------------------------o||
|-8-8-8-8-(8)-8---8--8-|--8--8--8--8-(8)--8------||
|-6-6-6-6-(6)-6---6--6-|--6--6--6--6-(6)--6--3---||
|-6-6-6-6-(6)-6---6--6-|--6--6--6--6-(6)--6--3--o||
|-6-6-6-6-(6)-6---6--6-|--6--6--6--6-(6)--6--3---||


 Bridge
  Q=145
  N.C.
  Gtr III
   W           W           W           +W
|-----------|-----------|-----------|---------|
|-----------|-----------|-----------|---------|
|-12--------|-----------|-----------|---------|
|-----------|-12--------|-13--------|-(13)----|
|-----------|-----------|-----------|---------|
|-----------|-----------|-----------|---------|
|
| Gtr IV
|  W           W           W           +W
|-----------|-----------|-----------|---------|
|-----------|-----------|-----------|---------|
|-----------|-----------|-----------|---------|
|-10--------|--5--------|--6--------|--(6)----|
|-----------|-----------|-----------|---------|
|-----------|-----------|-----------|---------|


   W           W           W           +H.      Q
|-----------|-----------|-----------|---------------|
|-----------|-----------|-----------|---------------|
|-12--------|-----------|-----------|---------------|
|-----------|-12--------|-13--------|-(13)----------|
|-----------|-----------|-----------|---------------|
|-----------|-----------|-----------|---------------|
|
|  W           W           W           +H.      Q
|-----------|-----------|-----------|---------------|
|-----------|-----------|-----------|---------------|
|-----------|-----------|-----------|---------------|
|-10--------|--5--------|--6--------|--(6)----------|
|-----------|-----------|-----------|---------------|
|-----------|-----------|-----------|---------------|


   Pre-Verse
    Q=195
    C5
    Gtr I
     E  E  E  E  +E   E  E  E    E  E  E  E  +E   E  E  E
||----------------------------|---------------------------|
||o---------------------------|---------------------------|
||--12-12-12-12-(12)-12-12-12-|-12-12-12-12-(12)-12-12-12-|
||---x--x--x--x--(x)--x--x--x-|--x--x--x--x--(x)--x--x--x-|
||o-10-10-10-10-(10)-10-10-10-|-10-10-10-10-(10)-10-10-10-|
||----------------------------|---------------------------|
|
|   Gtr II
|    E  E  E  E  +E   E  E  E    E  E  E  E  +E   E  E  E
||----------------------------|---------------------------|
||o---------------------------|---------------------------|
||--12-12-12-12-(12)-12-12-12-|-12-12-12-12-(12)-12-12-12-|
||--10-10-10-10-(10)-10-10-10-|-10-10-10-10-(10)-10-10-10-|
||o-10-10-10-10-(10)-10-10-10-|-10-10-10-10-(10)-10-10-10-|
||--10-10-10-10-(10)-10-10-10-|-10-10-10-10-(10)-10-10-10-|


                                          D5EbBb5
   E  E  E  E  +E   E  E  E    E  E  E  E E E Q
|---------------------------|---------------------||
|---------------------------|--------------------o||
|-12-12-12-12-(12)-12-12-12-|-12-12-12-12-----3---||
|--x--x--x--x--(x)--x--x--x-|--x--x--x--x-0-1-3---||
|-10-10-10-10-(10)-10-10-10-|-10-10-10-10-0-1-1--o||
|---------------------------|-------------0-1-----||
|
|  E  E  E  E  +E   E  E  E    E  E  E  E E E Q
|---------------------------|---------------------||
|---------------------------|--------------------o||
|-12-12-12-12-(12)-12-12-12-|-12-12-12-12-----3---||
|-10-10-10-10-(10)-10-10-10-|-10-10-10-10-0-1-3---||
|-10-10-10-10-(10)-10-10-10-|-10-10-10-10-0-1-1--o||
|-10-10-10-10-(10)-10-10-10-|-10-10-10-10-0-1-----||


 Verse
  C5    N.C.
                   ~
   E  E  E  E E  E Q    E E E E E E E E
|---------------------|-----------------|
|-----------6------6--|-----------------|
|-----8-------8----8--|-------8-5---8-5-|
|-10----10------10----|-8-8-8-----8-----|
|---------------------|-----------------|
|---------------------|-----------------|
|
|  Q     H.             W
|---------------------|-----------------|
|---------------------|-----------------|
|---------------------|-----------------|
|-10\-----------------|-----------------|
|-10\-----------------|-----------------|
|-10\-----------------|-----------------|


                             C5
  E E E Q  Q  E   +E  Q  Q    E  E  E
|---------------|-----------------------|
|---4---4-----4-|-(4)----4--------------|
|----------7----|-----7-----------------|
|-6---6---------|------------10-10-10\--|
|---------------|------------10-10-10\--|
|---------------|------------10-10-10\--|
|
| W                H       E  E  E  E
|---------------|-----------------------|
|---------------|-----------------------|
|---------------|-----------------------|
|---------------|------------10-10-10---|
|---------------|------------10-10-10---|
|---------------|------------10-10-10---|


                    N.C.
                    ~
     E  E  E E E  E Q    E E E E E E E E
||---------------------|-----------------|
||o----------6------6--|-----------------|
||------8------8----8--|-------8-5---8-5-|
||--10----10-----10----|-8-8-8-----8-----|
||o--------------------|-----------------|
||---------------------|-----------------|
|
|    H.             Q    W
||---------------------|-----------------|
||o--------------------|-----------------|
||---------------------|-----------------|
||--10\----------------|-----------------|
||o-10\----------------|-----------------|
||--10\----------------|-----------------|


                             C5
  E E E Q  Q  E   +E  Q  Q    E  E  E
|---------------|-----------------------||
|---4---4-----4-|-(4)----4-------------o||
|----------7----|-----7-----------------||
|-6---6---------|------------10-10-10\--||
|---------------|------------10-10-10\-o||
|---------------|------------10-10-10\--||
|
| W                H       E  E  E  E
|---------------|-----------------------||
|---------------|----------------------o||
|---------------|-----------------------||
|---------------|------------10-10-10---||
|---------------|------------10-10-10--o||
|---------------|------------10-10-10---||


  C5                N.C.
                  ~
   E  E  E E E  E Q    E E E E E E E E   E E E Q  Q  E   +E  Q  Q  Q.
|--------------------|-----------------|---------------|-----------------|
|----------6------6--|-----------------|---4---4-----4-|-(4)----4--------|
|-----8------8----8--|-------8-5---8-5-|----------7----|-----7-----7-----|
|-10----10-----10----|-8-8-8-----8-----|-6---6---------|-----------------|
|--------------------|-----------------|---------------|-----------------|
|--------------------|-----------------|---------------|-----------------|
|
|  H.             Q    W                 W                W
|--------------------|-----------------|---------------|-----------------|
|--------------------|-----------------|---------------|-----------------|
|--------------------|-----------------|---------------|-----------------|
|-10\----------------|-----------------|---------------|-----------------|
|-10\----------------|-----------------|---------------|-----------------|
|-10\----------------|-----------------|---------------|-----------------|


   Chorus
    C5                           G5
      Q     Q      Q      Q       Q    E Q      Q.
||-----------------------------|-----------------------|
||o----------------------------|-----------------------|
||---------12-----10-----12----|-----------------------|
||--/10------------------------|-----------------------|
||o----------------------------|-10---10-8-----10------|
||-----------------------------|-----------------------|
|
|     E  E  E  E  +E   E  E  E    E E  E E +E   E  E E
||-----------------------------|-----------------------|
||o----------------------------|-----------------------|
||---12-12-12-12-(12)-12-12-12-|--7-7--7-7-(7)--7--7-7-|
||---10-10-10-10-(10)-10-10-10-|--5-5--5-5-(5)--5--5-5-|
||o--10-10-10-10-(10)-10-10-10-|--5-5--5-5-(5)--5--5-5-|
||---10-10-10-10-(10)-10-10-10-|--5-5--5-5-(5)--5--5-5-|


  Ab5
  E E E E +E  E   E  E    E  E  E  E  E   E  Q    4x
|----------------------|--------------------------||
|----------------------|-------------------------o||
|-8-8-8-8-(8)-8-/15-15-|-15-15-15-15-15s=10-10----||
|-6-6-6-6-(6)-6--/x--x-|--x--x--x--x--xs==x--x----||
|-6-6-6-6-(6)-6-/13-13-|-13-13-13-13-13s==8--8---o||
|-6-6-6-6-(6)-6--------|--------------------------||
|
| E E E E +E  E   E  E    E  E  E  E +E   E  E E  4x
|----------------------|--------------------------||
|----------------------|-------------------------o||
|-8-8-8-8-(8)-8---8--8-|--8--8--8--8-(8)--8--8-8--||
|-6-6-6-6-(6)-6---6--6-|--6--6--6--6-(6)--6--6-6--||
|-6-6-6-6-(6)-6---6--6-|--6--6--6--6-(6)--6--6-6-o||
|-6-6-6-6-(6)-6---6--6-|--6--6--6--6-(6)--6--6-6--||


   Bridge
    C5
     E  E  E  E  +E   E  E  E    E  E  E  E  +E   E  E  E
||----------------------------|---------------------------|
||o---------------------------|---------------------------|
||--12-12-12-12-(12)-12-12-12-|-12-12-12-12-(12)-12-12-12-|
||---x--x--x--x--(x)--x--x--x-|--x--x--x--x--(x)--x--x--x-|
||o-10-10-10-10-(10)-10-10-10-|-10-10-10-10-(10)-10-10-10-|
||----------------------------|---------------------------|
|
|    E  E  E  E  +E   E  E  E    E  E  E  E  +E   E  E  E
||----------------------------|---------------------------|
||o---------------------------|---------------------------|
||--12-12-12-12-(12)-12-12-12-|-12-12-12-12-(12)-12-12-12-|
||--10-10-10-10-(10)-10-10-10-|-10-10-10-10-(10)-10-10-10-|
||o-10-10-10-10-(10)-10-10-10-|-10-10-10-10-(10)-10-10-10-|
||--10-10-10-10-(10)-10-10-10-|-10-10-10-10-(10)-10-10-10-|


   E  E  E  E  +E   E  E  E    E  E  E  E  +E   E  E  E  4x
|---------------------------|----------------------------||
|---------------------------|---------------------------o||
|-12-12-12-12-(12)-12-12-12-|-12-12-12-12-(12)-12-12-12--||
|--x--x--x--x--(x)--x--x--x-|--x--x--x--x--(x)--x--x--x--||
|-10-10-10-10-(10)-10-10-10-|-10-10-10-10-(10)-10-10-10-o||
|---------------------------|----------------------------||
|
|  E  E  E  E  +E   E  E  E    E  E  E  E  +E   E  E  E  4x
|---------------------------|----------------------------||
|---------------------------|---------------------------o||
|-12-12-12-12-(12)-12-12-12-|-12-12-12-12-(12)-12-12-12--||
|-10-10-10-10-(10)-10-10-10-|-10-10-10-10-(10)-10-10-10--||
|-10-10-10-10-(10)-10-10-10-|-10-10-10-10-(10)-10-10-10-o||
|-10-10-10-10-(10)-10-10-10-|-10-10-10-10-(10)-10-10-10--||


   Interlude
    C5      G5 Ab5Bb5   F5     Eb5     C5      G5 Ab5Bb5   F5 Bb5
     E  q   q  q  E   E Q  E E E E E    E  q   q  q  E   E Q   E E E E E
||------------------|----------------|-----------------|-----------------|
||o-----------------|----------------|-----------------|-----------------|
||------------------|----------------|-----------------|-----------------|
||--10-10\--5--6--8-|---3--3-3-1-1-1-|-10-10\--5--6--8-|---3--/8-8-8-8-8-|
||o-10-10\--5--6--8-|---3--3-3-1-1-1-|-10-10\--5--6--8-|---3--/8-8-8-8-8-|
||--10-10\--5--6--8-|---3--3-3-1-1-1-|-10-10\--5--6--8-|---3--/8-8-8-8-8-|
|
|    E  q   q  q  E   E Q  E E E E E    E  q   q  q  E   E Q   E E E E E
||------------------|----------------|-----------------|-----------------|
||o-----------------|----------------|-----------------|-----------------|
||------------------|----------------|-----------------|-----------------|
||--10-10\--5--6--8-|---3--3-3-1-1-1-|-10-10\--5--6--8-|---3--/8-8-8-8-8-|
||o-10-10\--5--6--8-|---3--3-3-1-1-1-|-10-10\--5--6--8-|---3--/8-8-8-8-8-|
||--10-10\--5--6--8-|---3--3-3-1-1-1-|-10-10\--5--6--8-|---3--/8-8-8-8-8-|


  C5      G5 Ab5C5     F5 Bb5          C5      G5 Ab5Bb5   F5     Eb5
   E  q   q  q   E   E Q   E E E E E    E  q   q  q  E   E Q  E E E E E
|------------------|-----------------|-----------------|------------------||
|------------------|-----------------|-----------------|-----------------o||
|------------------|-----------------|-----------------|------------------||
|-10-10\--5--6--10-|---3--/8-8-8-8-8-|-10-10\--5--6--8-|---3--3-3-1-1-1---||
|-10-10\--5--6--10-|---3--/8-8-8-8-8-|-10-10\--5--6--8-|---3--3-3-1-1-1--o||
|-10-10\--5--6--10-|---3--/8-8-8-8-8-|-10-10\--5--6--8-|---3--3-3-1-1-1---||
|
|  E  q   q  q   E   E Q   E E E E E    E  q   q  q  E   E Q  E E E E E
|------------------|-----------------|-----------------|------------------||
|------------------|-----------------|-----------------|-----------------o||
|------------------|-----------------|-----------------|------------------||
|-10-10\--5--6--10-|---3--/8-8-8-8-8-|-10-10\--5--6--8-|---3--3-3-1-1-1---||
|-10-10\--5--6--10-|---3--/8-8-8-8-8-|-10-10\--5--6--8-|---3--3-3-1-1-1--o||
|-10-10\--5--6--10-|---3--/8-8-8-8-8-|-10-10\--5--6--8-|---3--3-3-1-1-1---||


  C5      G5 Ab5Bb5   F5     Eb5     C5      G5 Ab5Bb5   F5     Eb5
   E  q   q  q  E   E Q  E E E E E    E  q   q  q  E   E Q  E E E E E
|-----------------|----------------|-----------------|-----------------|
|-----------------|----------------|-----------------|-----------------|
|-----------------|----------------|-----------------|-----------------|
|-10-10\--5--6--8-|---3--3-3-1-1-1-|-10-10\--5--6--8-|---3--3-3-1-1-1--|
|-10-10\--5--6--8-|---3--3-3-1-1-1-|-10-10\--5--6--8-|---3--3-3-1-1-1--|
|-10-10\--5--6--8-|---3--3-3-1-1-1-|-10-10\--5--6--8-|---3--3-3-1-1-1--|
|
|  E  q   q  q  E   E Q  E E E E E    E  q   q  q  E   E Q  E E E E E
|-----------------|----------------|-----------------|-----------------|
|-----------------|----------------|-----------------|-----------------|
|-----------------|----------------|-----------------|-----------------|
|-10-10\--5--6--8-|---3--3-3-1-1-1-|-10-10\--5--6--8-|---3--3-3-1-1-1--|
|-10-10\--5--6--8-|---3--3-3-1-1-1-|-10-10\--5--6--8-|---3--3-3-1-1-1--|
|-10-10\--5--6--8-|---3--3-3-1-1-1-|-10-10\--5--6--8-|---3--3-3-1-1-1--|


                                                                 Q=175
  C5      G5 Ab5C5     F5 Bb5          C5      G5 Ab5Bb5
   E  q   q  q   E   E Q   E E E E E    E  q   q  q  E   +H      H
|------------------|-----------------|-----------------|--------------|
|------------------|-----------------|-----------------|--------------|
|------------------|-----------------|-----------------|--------------|
|-10-10\--5--6--10-|---3--/8-8-8-8-8-|-10-10\--5--6--8-|-(8)\---------|
|-10-10\--5--6--10-|---3--/8-8-8-8-8-|-10-10\--5--6--8-|-(8)\---------|
|-10-10\--5--6--10-|---3--/8-8-8-8-8-|-10-10\--5--6--8-|-(8)\---------|
|
|  E  q   q  q   E   E Q   E E E E E    E  q   q  q  E   +H      H
|------------------|-----------------|-----------------|--------------|
|------------------|-----------------|-----------------|--------------|
|------------------|-----------------|-----------------|--------------|
|-10-10\--5--6--10-|---3--/8-8-8-8-8-|-10-10\--5--6--8-|-(8)\---------|
|-10-10\--5--6--10-|---3--/8-8-8-8-8-|-10-10\--5--6--8-|-(8)\---------|
|-10-10\--5--6--10-|---3--/8-8-8-8-8-|-10-10\--5--6--8-|-(8)\---------|


 Breakdown
  C5                                     G5
   Q.    Q.    Q     +E   Q.    Q   Q    Q.   Q.   Q    +E  Q.   Q  Q
|-----------------|--------------------|--------------|-----------------|
|-----------------|--------------------|--------------|-----------------|
|-12----12----12--|-(12)-12----12--12--|-7----7----7--|-(7)-7----7--7---|
|-10----10----10--|-(10)-10----10--10--|-5----5----5--|-(5)-5----5--5---|
|-10----10----10--|-(10)-10----10--10--|-5----5----5--|-(5)-5----5--5---|
|-10----10----10--|-(10)-10----10--10--|-5----5----5--|-(5)-5----5--5---|
|
|  Q.    Q.    Q     +E   Q.    Q   Q    Q.   Q.   Q    +E  Q.   Q  Q
|-----------------|--------------------|--------------|-----------------|
|-----------------|--------------------|--------------|-----------------|
|-12----12----12--|-(12)-12----12--12--|-7----7----7--|-(7)-7----7--7---|
|-10----10----10--|-(10)-10----10--10--|-5----5----5--|-(5)-5----5--5---|
|-10----10----10--|-(10)-10----10--10--|-5----5----5--|-(5)-5----5--5---|
|-10----10----10--|-(10)-10----10--10--|-5----5----5--|-(5)-5----5--5---|


  Eb5/Ab
  Q.   Q.   Q    +E  Q.   Q  Q    Q.   Q.   Q    +E  Q.   Q  Q
|--------------|----------------|--------------|-----------------|
|--------------|----------------|--------------|-----------------|
|-8----8----8--|-(8)-8----8--8--|-8----8----8--|-(8)-8----8--8---|
|-8----8----8--|-(8)-8----8--8--|-8----8----8--|-(8)-8----8--8---|
|-6----6----6--|-(6)-6----6--6--|-6----6----6--|-(6)-6----6--6---|
|-6----6----6--|-(6)-6----6--6--|-6----6----6--|-(6)-6----6--6---|
|
| Q.   Q.   Q    +E  Q.   Q  Q    Q.   Q.   Q    +E  Q.   Q  Q
|--------------|----------------|--------------|-----------------|
|--------------|----------------|--------------|-----------------|
|-8----8----8--|-(8)-8----8--8--|-8----8----8--|-(8)-8----8--8---|
|-8----8----8--|-(8)-8----8--8--|-8----8----8--|-(8)-8----8--8---|
|-6----6----6--|-(6)-6----6--6--|-6----6----6--|-(6)-6----6--6---|
|-6----6----6--|-(6)-6----6--6--|-6----6----6--|-(6)-6----6--6---|


  C5                                     G5
   Q.    Q.    Q     +E   Q.    Q   Q    Q.   Q.   Q    +E  Q.   Q  Q
|-----------------|--------------------|--------------|-----------------|
|-----------------|--------------------|--------------|-----------------|
|-12----12----12--|-(12)-12----12--12--|-7----7----7--|-(7)-7----7--7---|
|-10----10----10--|-(10)-10----10--10--|-5----5----5--|-(5)-5----5--5---|
|-10----10----10--|-(10)-10----10--10--|-5----5----5--|-(5)-5----5--5---|
|-10----10----10--|-(10)-10----10--10--|-5----5----5--|-(5)-5----5--5---|
|
|  Q.    Q.    Q     +E   Q.    Q   Q    Q.   Q.   Q    +E  Q.   Q  Q
|-----------------|--------------------|--------------|-----------------|
|-----------------|--------------------|--------------|-----------------|
|-12----12----12--|-(12)-12----12--12--|-7----7----7--|-(7)-7----7--7---|
|-10----10----10--|-(10)-10----10--10--|-5----5----5--|-(5)-5----5--5---|
|-10----10----10--|-(10)-10----10--10--|-5----5----5--|-(5)-5----5--5---|
|-10----10----10--|-(10)-10----10--10--|-5----5----5--|-(5)-5----5--5---|


                 Q=205
  Eb5/Ab                          F5                Bb5
  Q.   Q.   Q    +W           E E Q  Q  E E   Q  Q  E E E E
|--------------|------------|---------------|----------------|
|--------------|------------|---------------|----------------|
|-8----8----8--|-(8)--------|---------------|----------------|
|-8----8----8--|-(8)--------|-x-x-3--3--x-x-|-3--3--8-8-8-8--|
|-6----6----6--|-(6)--------|-x-x-3--3--x-x-|-3--3--8-8-8-8--|
|-6----6----6--|-(6)--------|-x-x-3--3--x-x-|-3--3--8-8-8-8--|
|
| Q.   Q.   Q    +W           E E Q  Q  E E   Q  Q  E E E E
|--------------|------------|---------------|----------------|
|--------------|------------|---------------|----------------|
|-8----8----8--|-(8)--------|---------------|----------------|
|-8----8----8--|-(8)--------|-x-x-3--3--x-x-|-3--3--8-8-8-8--|
|-6----6----6--|-(6)--------|-x-x-3--3--x-x-|-3--3--8-8-8-8--|
|-6----6----6--|-(6)--------|-x-x-3--3--x-x-|-3--3--8-8-8-8--|


   Final Chorus
    G5/C
     Q   E  Q   E  E  E    +E   E  E  Q   E  E  E
||----------------------|-------------------------|
||o---------------------|-------------------------|
||--12--12-12--12-12----|-------------------------|
||--12--12-12--12-12-13-|-(13)-13-13-13--13-13-13-|
||o-10--10-10--10-10-10-|-(10)-10-10-10--10-10-10-|
||--10--10-10--10-10-10-|-(10)-10-10-10--10-10-10-|
|
|    Q   E  Q   E  E  E    +E   E  E  Q   E  E  E
||----------------------|-------------------------|
||o---------------------|-------------------------|
||--12--12-12--12-12-12-|-(12)-12-12-12--12-12-12-|
||--12--12-12--12-12-12-|-(12)-12-12-12--12-12-12-|
||o-10--10-10--10-10-10-|-(10)-10-10-10--10-10-10-|
||--10--10-10--10-10-10-|-(10)-10-10-10--10-10-10-|


  G5
  Q  E Q  E E E   +E  E E Q  E E E
|---------------|------------------|
|-------------6-|-(6)-6-6-8--8-8-8-|
|-7--7-7--7-7-7-|-(7)-7-7-7--7-7-7-|
|-5--5-5--5-5-5-|-(5)-5-5-5--5-5-5-|
|-5--5-5--5-5-5-|-(5)-5-5-5--5-5-5-|
|-5--5-5--5-5-5-|-(5)-5-5-5--5-5-5-|
|
| Q  E Q  E E E   +E  E E Q  E E E
|---------------|------------------|
|---------------|------------------|
|-7--7-7--7-7-7-|-(7)-7-7-7--7-7-7-|
|-5--5-5--5-5-5-|-(5)-5-5-5--5-5-5-|
|-5--5-5--5-5-5-|-(5)-5-5-5--5-5-5-|
|-5--5-5--5-5-5-|-(5)-5-5-5--5-5-5-|


  Eb5/Ab
  Q  E Q  E E E   +E  E E Q  E E E   Q  E Q  E E E   +E  E E Q  E E E   3x
|---------------|------------------|---------------|--------------------||
|---------------|------------------|---------------|-------------------o||
|-8--8-8--8-8-8-|-(8)-8-8-8--8-8-8-|-8--8-8--8-8-8-|-(8)-8-8-8--8-8-8---||
|-8--8-8--8-8-8-|-(8)-8-8-8--8-8-8-|-8--8-8--8-8-8-|-(8)-8-8-8--8-8-8---||
|-6--6-6--6-6-6-|-(6)-6-6-6--6-6-6-|-6--6-6--6-6-6-|-(6)-6-6-6--6-6-6--o||
|-6--6-6--6-6-6-|-(6)-6-6-6--6-6-6-|-6--6-6--6-6-6-|-(6)-6-6-6--6-6-6---||
|
| Q  E Q  E E E   +E  E E Q  E E E   Q  E Q  E E E   +E  E E Q  E E E   3x
|---------------|------------------|---------------|--------------------||
|---------------|------------------|---------------|-------------------o||
|-8--8-8--8-8-8-|-(8)-8-8-8--8-8-8-|-8--8-8--8-8-8-|-(8)-8-8-8--8-8-8---||
|-8--8-8--8-8-8-|-(8)-8-8-8--8-8-8-|-8--8-8--8-8-8-|-(8)-8-8-8--8-8-8---||
|-6--6-6--6-6-6-|-(6)-6-6-6--6-6-6-|-6--6-6--6-6-6-|-(6)-6-6-6--6-6-6--o||
|-6--6-6--6-6-6-|-(6)-6-6-6--6-6-6-|-6--6-6--6-6-6-|-(6)-6-6-6--6-6-6---||


  C5
   E  E  E  E  E  E  E  E    E  E  E  E  E  E  E  E
|-------------------------|-------------------------|
|-------------------------|-------------------------|
|-12-12-12-12-12-12-12-12-|-12-12-12-12-12-12-12-12-|
|-10-10-10-10-10-10-10-10-|-10-10-10-10-10-10-10-10-|
|-10-10-10-10-10-10-10-10-|-10-10-10-10-10-10-10-10-|
|-10-10-10-10-10-10-10-10-|-10-10-10-10-10-10-10-10-|
|
|  E  E  E  E  E  E  E  E    E  E  E  E  E  E  E  E
|-------------------------|-------------------------|
|-------------------------|-------------------------|
|-12-12-12-12-12-12-12-12-|-12-12-12-12-12-12-12-12-|
|-10-10-10-10-10-10-10-10-|-10-10-10-10-10-10-10-10-|
|-10-10-10-10-10-10-10-10-|-10-10-10-10-10-10-10-10-|
|-10-10-10-10-10-10-10-10-|-10-10-10-10-10-10-10-10-|


  G5
  E E E E E E E E   E E E E E E E E
|-----------------|------------------|
|-----------------|------------------|
|-7-7-7-7-7-7-7-7-|-7-7-7-7-7-7-7-7--|
|-5-5-5-5-5-5-5-5-|-5-5-5-5-5-5-5-5--|
|-5-5-5-5-5-5-5-5-|-5-5-5-5-5-5-5-5--|
|-5-5-5-5-5-5-5-5-|-5-5-5-5-5-5-5-5--|
|
| E E E E E E E E   E E E E E E E E
|-----------------|------------------|
|-----------------|------------------|
|-7-7-7-7-7-7-7-7-|-7-7-7-7-7-7-7-7--|
|-5-5-5-5-5-5-5-5-|-5-5-5-5-5-5-5-5--|
|-5-5-5-5-5-5-5-5-|-5-5-5-5-5-5-5-5--|
|-5-5-5-5-5-5-5-5-|-5-5-5-5-5-5-5-5--|


  Ab5                                                     F5       Eb5
  E E E E E E E E   E E E E E E E E   E E E E E E E E   E  E E E E E E E
|-----------------|-----------------|-----------------|-------------------|
|-----------------|-----------------|-----------------|-------------------|
|-8-8-8-8-8-8-8-8-|-8-8-8-8-8-8-8-8-|-8-8-8-8-8-8-8-8-|-8-----------------|
|-6-6-6-6-6-6-6-6-|-6-6-6-6-6-6-6-6-|-6-6-6-6-6-6-6-6-|-6-/3-3-3-3-1-1-1--|
|-6-6-6-6-6-6-6-6-|-6-6-6-6-6-6-6-6-|-6-6-6-6-6-6-6-6-|-6-/3-3-3-3-1-1-1--|
|-6-6-6-6-6-6-6-6-|-6-6-6-6-6-6-6-6-|-6-6-6-6-6-6-6-6-|-6-/3-3-3-3-1-1-1--|
|
| E E E E E E E E   E E E E E E E E   E E E E E E E E   E  E E E E E E E
|-----------------|-----------------|-----------------|-------------------|
|-----------------|-----------------|-----------------|-------------------|
|-8-8-8-8-8-8-8-8-|-8-8-8-8-8-8-8-8-|-8-8-8-8-8-8-8-8-|-8-----------------|
|-6-6-6-6-6-6-6-6-|-6-6-6-6-6-6-6-6-|-6-6-6-6-6-6-6-6-|-6-/3-3-3-3-1-1-1--|
|-6-6-6-6-6-6-6-6-|-6-6-6-6-6-6-6-6-|-6-6-6-6-6-6-6-6-|-6-/3-3-3-3-1-1-1--|
|-6-6-6-6-6-6-6-6-|-6-6-6-6-6-6-6-6-|-6-6-6-6-6-6-6-6-|-6-/3-3-3-3-1-1-1--|


   Outro
    C5
     E  E  E  E  +E   E  E  E    E  E  E  E  +E   E  E  E
||----------------------------|---------------------------|
||o---------------------------|---------------------------|
||--12-12-12-12-(12)-12-12-12-|-12-12-12-12-(12)-12-12-12-|
||---x--x--x--x--(x)--x--x--x-|--x--x--x--x--(x)--x--x--x-|
||o-10-10-10-10-(10)-10-10-10-|-10-10-10-10-(10)-10-10-10-|
||----------------------------|---------------------------|
|
|    E  E  E  E  +E   E  E  E    E  E  E  E  +E   E  E  E
||----------------------------|---------------------------|
||o---------------------------|---------------------------|
||--12-12-12-12-(12)-12-12-12-|-12-12-12-12-(12)-12-12-12-|
||--10-10-10-10-(10)-10-10-10-|-10-10-10-10-(10)-10-10-10-|
||o-10-10-10-10-(10)-10-10-10-|-10-10-10-10-(10)-10-10-10-|
||--10-10-10-10-(10)-10-10-10-|-10-10-10-10-(10)-10-10-10-|


   E  E  E  E  +E   E  E  E    E  E  E  E  +E   E  E  E  4x
|---------------------------|----------------------------||
|---------------------------|---------------------------o||
|-12-12-12-12-(12)-12-12-12-|-12-12-12-12-(12)-12-12-12--||
|--x--x--x--x--(x)--x--x--x-|--x--x--x--x--(x)--x--x--x--||
|-10-10-10-10-(10)-10-10-10-|-10-10-10-10-(10)-10-10-10-o||
|---------------------------|----------------------------||
|
|  E  E  E  E  +E   E  E  E    E  E  E  E  +E   E  E  E  4x
|---------------------------|----------------------------||
|---------------------------|---------------------------o||
|-12-12-12-12-(12)-12-12-12-|-12-12-12-12-(12)-12-12-12--||
|-10-10-10-10-(10)-10-10-10-|-10-10-10-10-(10)-10-10-10--||
|-10-10-10-10-(10)-10-10-10-|-10-10-10-10-(10)-10-10-10-o||
|-10-10-10-10-(10)-10-10-10-|-10-10-10-10-(10)-10-10-10--||


   E  H     Q.     W
|----------------|------*|
|----------------|------*|
|-12-12\---------|------*|
|--x--x\---------|------*|
|-10-10\---------|------*|
|----------------|------*|
|
|  E  H     Q.     W
|----------------|------*|
|----------------|------*|
|-12-12\---------|------*|
|-10-10\---------|------*|
|-10-10\---------|------*|
|-10-10\---------|------*|


Duration Legend
---------------
W - whole; H - half; Q - quarter; E - 8th; S - 16th; T - 32nd; X - 64th; a - acciaccatura
+ - note tied to previous; . - note dotted; .. - note double dotted
Uncapitalized letters represent notes that are staccato (1/2 duration)
Irregular groupings are notated above the duration line
Duration letters will always appear directly above the note/fret number it represents the
duration for.  Duration letters with no fret number below them represent rests.  Multi-
bar rests are notated in the form Wxn, where n is the number of bars to rest for.  Low
melody durations appear below the staff

Tablature Legend
----------------
 h   - hammer-on
 p   - pull-off
 b   - bend
 pb  - pre-bend
 r   - bend release (if no number after the r, then release immediately)
 /\  - slide into or out of (from/to "nowhere")
 s   - legato slide
 S   - shift slide
  - natural harmonic
[n]  - artificial harmonic
n(n) - tapped harmonic
 ~   - vibrato
 tr  - trill
 T   - tap
 TP  - trem. picking
 PM  - palm muting
\n/  - tremolo bar dip; n = amount to dip
 \n  - tremolo bar down
 n/  - tremolo bar up
/n\  - tremolo bar inverted dip
 =   - hold bend; also acts as connecting device for hammers/pulls
 <>  - volume swell (louder/softer)
 x   - on rhythm slash represents muted slash
 o   - on rhythm slash represents single note slash

Misc Legend
-----------
 |  - bar
||  - double bar
||o - repeat start
o|| - repeat end
*|  - double bar (ending)
 :  - bar (freetime)
 $  - Segno
 &  - Coda
Tempo markers -  = BPM(8/16=s8/s16), where s8 = swing 8ths, s16 = swing 16ths
comments
We did not receive enough feedback on this tab! Please rate:
print report bad tab
1 2 3 4 5
I want to post or [tab]
guest
You may want to rate the tab now too:
select rating
Please do not post tabs as comments. Select "correction" instead!