Oops, an error
Loading. Please wait.

Young Cardinals Tab

ver5
ver5

Whole song

Interactive

More versions @911Tabs.com
1,227 views 3 this week
no commentswrite comment
1 2 3 4 5
excellent!
x 1
Autoscroll
+/-
esc
set tempo
stop
Contributor
Difficulty
Tuning
novice
D A D G B E
Hey! There's an official Ultimate Guitar app which is ideal
for learning songs when you're away from computer. Get the app
WARNING: You are trying to view
                                    content from Ultimate-Guitar.com
                                    in an unauthorized application,
                                    which is prohibited.

                                    Please use an official Ultimate
                                    Guitar Tabs application for iPhone,
                                    iPad or Android to access legitimate
                                    chords, guitar, bass, and drum tabs
                                    from Ultimate-Guitar.com database.

                                    Type "ultimate guitar tabs" in Apple
                                    App Store's or Android Market's
                                    search to find the application.
Song: Young Cardinals
Band: Alexisonfire

Intro
e|---------------------------------|
B|---------------------------------|
G|-5---5---5---5---5---5---5---5---|
D|-5---5---5---5---5---5---5---5---|
A|-3---3---3---3---3---3---3---3---|
D|-5---5---5---5---5---5---5---5---|

Verse 1 x4
e|---------------------------------|---------------------------------|
B|---------------------------------|---------------------------------|
G|-5~------------------------------|---------------------------------|
D|-5~----------------------1-1~----|-6~----------------------8-8~----|
A|-3~----------------------1-1~----|-6~----------------------8-8~----|
D|-5~----------------------1-1~----|-6~----------------------8-8~----|

Chorus 1 (guitars 1 & 2)
e|---------------------------------|---------------------------------|
B|---------------------------------|---------------------------------|
G|-5---5---5---5---5---5---5---5---|-5---5---5---5---5---5---5---5---|
D|-5---5---5---5---5---5---5---5---|-5---5---5---5---5---5---5---5---|
A|-3---3---3---3---3---3---3---3---|-3---3---3---3---3---3---3---3---|
D|-5---5---5---5---5---5---5---5---|-5---5---5---5---5---5---5---5---|

(guitar 1)
e|---------------------------------|---------------------------------|
B|---------------------------------|---------------------------------|
G|---------------------------------|---------------------------------|
D|-6---6---6---6---6---6---6---6---|-6---6---6---6---6---------------|
A|-6---6---6---6---6---6---6---6---|-6---6---6---6---6---------------|
D|-6---6---6---6---6---6---6---6---|-6---6---6---6---6-1-3-1/5-3-1-3-|
(guitar 2)
e|---------------------------------|---------------------------------|
B|---------------------------------|---------------------------------|
G|---------------------------------|---------------------------------|
D|-6---6---6---6---6---6---6---6---|-6---6---6---6---6---6---6---6---|
A|-6---6---6---6---6---6---6---6---|-6---6---6---6---6---6---6---6---|
D|-6---6---6---6---6---6---6---6---|-6---6---6---6---6---6---6---6---|

(guitars 1 & 2)
e|---------------------------------|---------------------------------|
B|---------------------------------|---------------------------------|
G|-5---5---5---5---5---5---5---5---|-5---5---5---5---5---5---5---5---|
D|-5---5---5---5---5---5---5---5---|-5---5---5---5---5---5---5---5---|
A|-3---3---3---3---3---3---3---3---|-3---3---3---3---3---3---3---3---|
D|-5---5---5---5---5---5---5---5---|-5---5---5---5---5---5---5---5---|

e|---------------------------------|---------------------------------|
B|---------------------------------|---------------------------------|
G|---------------------------------|---------------------------------|
D|-6---6---6---6---6---6---6---6---|-6---6---6---6---6---6---6---6---|
A|-6---6---6---6---6---6---6---6---|-6---6---6---6---6---6---6---6---|
D|-6---6---6---6---6---6---6---6---|-6---6---6---6---6---6---6---6---|

Verse 2 x4 (guitar 1)
e|---------------------------------|---------------------------------|
B|---------------------------------|---------------------------------|
G|-5-5-5-5-5-5-5-5-5-5-5-5-8-8-8-8-|-8-8-8-8-8-8-8-8-8-8-8-8-10101010|
D|-x-x-x-x-x-x-x-x-x-x-x-x-x-x-x-x-|-6-6-6-6-6-6-6-6-6-6-6-6-8-8-8-8-|
A|-3-3-3-3-3-3-3-3-3-3-3-3-6-6-6-6-|-6-6-6-6-6-6-6-6-6-6-6-6-8-8-8-8-|
D|---------------------------------|-6-6-6-6-6-6-6-6-6-6-6-6-8-8-8-8-|
(guitar 2)
e|---------------------------------|---------------------------------|
B|---------------------------------|---------------------------------|
G|-5~------------------------------|---------------------------------|
D|-5~----------------------1-1~----|-6~----------------------8-8~----|
A|-3~----------------------1-1~----|-6~----------------------8-8~----|
D|-5~----------------------1-1~----|-6~----------------------8-8~----|

Drum Solo
e|---------------------------------|---------------------------------|
B|---------------------------------|---------------------------------|
G|-5~------------------------------|(5)------------------------------|
D|-5~------------------------------|(5)------------------------------|
A|-3~------------------------------|(3)------------------------------|
D|---------------------------------|---------------------------------|

Chorus 2 (guitars 1 & 2)
e|---------------------------------|---------------------------------|
B|---------------------------------|---------------------------------|
G|-5---5---5---5---5---5---5---5---|-5---5---5---5---5---5---5-------|
D|-5---5---5---5---5---5---5---5---|-5---5---5---5---5---5---5-------|
A|-3---3---3---3---3---3---3---3---|-3---3---3---3---3---3---3-------|
D|-5---5---5---5---5---5---5---5---|-5---5---5---5---5---5---5-------|

(guitar 1)
e|---------------------------------|---------------------------------|
B|---------------------------------|---------------------------------|
G|---------------------------------|---------------------------------|
D|-6---6---6---6---6---6---6---6---|-6---6---6---6---6---------------|
A|-6---6---6---6---6---6---6---6---|-6---6---6---6---6---------------|
D|-6---6---6---6---6---6---6---6---|-6---6---6---6---6-1-3-1/5-3-1-3-|
(guitar 2)
e|---------------------------------|---------------------------------|
B|---------------------------------|---------------------------------|
G|---------------------------------|---------------------------------|
D|-6---6---6---6---6---6---6---6---|-6---6---6---6---6---6---6---6---|
A|-6---6---6---6---6---6---6---6---|-6---6---6---6---6---6---6---6---|
D|-6---6---6---6---6---6---6---6---|-6---6---6---6---6---6---6---6---|

(guitars 1 & 2)
e|---------------------------------|---------------------------------|
B|---------------------------------|---------------------------------|
G|-5---5---5---5---5---5---5---5---|-5---5---5---5---5---5---5---5---|
D|-5---5---5---5---5---5---5---5---|-5---5---5---5---5---5---5---5---|
A|-3---3---3---3---3---3---3---3---|-3---3---3---3---3---3---3---3---|
D|-5---5---5---5---5---5---5---5---|-5---5---5---5---5---5---5---5---|

(guitar 1)
e|---------------------------------|---------------------------------|
B|---------------------------------|---------------------------------|
G|---------------------------------|---------------------------------|
D|-6---6---6---6---6---6---6---6---|-6---6---6---6---6---6---6---6---|
A|-6---6---6---6---6---6---6---6---|-6---6---6---6---6---6---6---6---|
D|-6---6---6---6---6---6---6---6---|-6---6---6---6---6---6---6---6---|
(guitar 2)
e|---------------------------------|---------------------------------|
B|---------------------------------|---------------------------------|
G|---------------------------------|---------------------------------|
D|-6---6---6---6---6---6---6---6---|-6---6---6---6---6---6---6---6---|
A|-6---6---6---6---6---6---6---6---|-6---6---6---6---6---6---6---6---|
D|-6---6---6---6---6---6---6---6---|-6---6---6---6---6---6---6---6---|

Interlude x2 (guitar 1)
e|---------------------------------|---------------------------------|
B|---------8---------------8---8---|---------7---------------7---7---|
G|-5-5-5-5---5-5-5-5-5-5-5---5---5-|-4-4-4-4---4-4-4-4-4-4-4---4---4-|
D|---------------------------------|---------------------------------|
A|---------------------------------|---------------------------------|
D|---------------------------------|---------------------------------|
(guitar 2)
e|---------------------------------|---------------------------------|
B|---------------------------------|---------------------------------|
G|-5-5-5-5-5-5-5-5-5-5-5-5-5-5-5-5-|-4-4-4-4-4-4-4-4-4-4-4-4-4-4-4-4-|
D|-5-5-5-5-5-5-5-5-5-5-5-5-5-5-5-5-|-4-4-4-4-4-4-4-4-4-4-4-4-4-4-4-4-|
A|---------------------------------|---------------------------------|
D|---------------------------------|---------------------------------|

(guitar 1)
e|---------------------------------|---------------------------------|
B|---------6---------------6---6---|---------6-----------6---6---6---|
G|-3-3-3-3---3-3-3-3-3-3-3---3---3-|---------------------------------|
D|---------------------------------|-3-3-3-3---3-3-3-3-3---3---3---3-|
A|---------------------------------|---------------------------------|
D|---------------------------------|---------------------------------|
(guitar 2)
e|---------------------------------|---------------------------------|
B|---------------------------------|---------------------------------|
G|-3-3-3-3-3-3-3-3-3-3-3-3-3-3-3-3-|---------------------------------|
D|-3-3-3-3-3-3-3-3-3-3-3-3-3-3-3-3-|-3-3-3-3-3-3-3-3-3-3-3-3-3-3-3-3-|
A|---------------------------------|-3-3-3-3-3-3-3-3-3-3-3-3-3-3-3-3-|
D|---------------------------------|---------------------------------|

Bridge
e|---------------------------------|---------------------------------|
B|-5~--------------5~--------------|-4~--------------4~--------------|
G|-5-5-5-5-5-5-5-5-5-5-5-5-5-5-5-5-|-4-4-4-4-4-4-4-4-4-4-4-4-4-4-4-4-|
D|-5-5-5-5-5-5-5-5-5-5-5-5-5-5-5-5-|-4-4-4-4-4-4-4-4-4-4-4-4-4-4-4-4-|
A|-3-3-3-3-3-3-3-3-3-3-3-3-3-3-3-3-|-2-2-2-2-2-2-2-2-2-2-2-2-2-2-2-2-|
D|---------------------------------|---------------------------------|

e|---------------------------------|---------------------------------|
B|-3~--------------3~--------------|---------------------------------|
G|-3-3-3-3-3-3-3-3-3-3-3-3-3-3-3-3-|---------------------------------|
D|-3-3-3-3-3-3-3-3-3-3-3-3-3-3-3-3-|-3-3-3-3-3-3-3-3-3-3-3-3-3-3-3-3-|
A|-1-1-1-1-1-1-1-1-1-1-1-1-1-1-1-1-|-3-3-3-3-3-3-3-3-3-3-3-3-3-3-3-3-|
D|---------------------------------|-3-3-3-3-3-3-3-3-3-3-3-3-3-3-3-3-|

e|---------------------------------|---------------------------------|
B|-------------5-5-5~--------------|-4~--------------4~--------------|
G|-------------5-5-5-5-5-5-5-5-5-5-|-4-4-4-4-4-4-4-4-4-4-4-4-4-4-4-4-|
D|-3-3-3-3-3-3-5-5-5-5-5-5-5-5-5-5-|-4-4-4-4-4-4-4-4-4-4-4-4-4-4-4-4-|
A|-3-3-3-3-3-3-3-3-3-3-3-3-3-3-3-3-|-2-2-2-2-2-2-2-2-2-2-2-2-2-2-2-2-|
D|-3-3-3-3-3-3---------------------|---------------------------------|

e|---------------------------------|---------------------------------|
B|-------------3-3-3~--------------|---------------------------------|
G|-3-3-3-3-3-3-3-3-3-3-3-3-3-3-3-3-|---------------------------------|
D|-3-3-3-3-3-3-3-3-3-3-3-3-3-3-3-3-|-3-3-3-3-3-3-3-3-3-3-3-3-3-3-3-3-|
A|-1-1-1-1-1-1-1-1-1-1-1-1-1-1-1-1-|-3-3-3-3-3-3-3-3-3-3-3-3-3-3-3-3-|
D|---------------------------------|-3-3-3-3-3-3-3-3-3-3-3-3-3-3-3-3-|

Chorus 3 (guitar 1)
e|---------------------------------|---------------------------------|
B|---------8-----8---------8---8---|---------8-----8---------8-------|
G|-5-5-5-5---5-5---5-5-5-5---5---5-|-5-5-5-5---5-5---5-5-5-5---------|
D|---------------------------------|---------------------------------|
A|---------------------------------|---------------------------------|
D|---------------------------------|---------------------------------|
(guitar 2)
e|---------------------------------|---------------------------------|
B|---------------------------------|---------------------------------|
G|---------------------------------|---------------------------------|
D|---------------------------------|---------------------------------|
A|---------------------------------|---------------------------------|
D|---------------------------------|---------------------------------|

(guitar 1)
e|---------------------------------|---------------------------------|
B|---------------------------------|---------------------------------|
G|---------------------------------|---------------------------------|
D|-6---6---6---6---6---6---6---6---|-6---6---6---6---6---------------|
A|-6---6---6---6---6---6---6---6---|-6---6---6---6---6---------------|
D|-6---6---6---6---6---6---6---6---|-6---6---6---6---6-1-3-1/5-3-1-3-|
(guitar 2)
e|---------------------------------|---------------------------------|
B|---------------------------------|---------------------------------|
G|---------------------------------|---------------------------------|
D|-6---6---6---6---6---6---6---6---|-6---6---6---6---6---6---6---6---|
A|-6---6---6---6---6---6---6---6---|-6---6---6---6---6---6---6---6---|
D|-6---6---6---6---6---6---6---6---|-6---6---6---6---6---6---6---6---|

(guitars 1 & 2)
e|---------------------------------|---------------------------------|
B|---------------------------------|---------------------------------|
G|-5---5---5---5---5---5---5---5---|-5---5---5---5---5---5---5---5---|
D|-5---5---5---5---5---5---5---5---|-5---5---5---5---5---5---5---5---|
A|-3---3---3---3---3---3---3---3---|-3---3---3---3---3---3---3---3---|
D|-5---5---5---5---5---5---5---5---|-5---5---5---5---5---5---5---5---|

(guitar 1)
e|---------------------------------|---------------------------------|
B|---------------------------------|---------------------------------|
G|---------------------------------|---------------------------------|
D|-6---6---6---6---6---6---6---6---|-6---6---6---6---6---------------|
A|-6---6---6---6---6---6---6---6---|-6---6---6---6---6---------------|
D|-6---6---6---6---6---6---6---6---|-6---6---6---6---6-1-3-1/5-3-1-3-|
(guitar 2)
e|---------------------------------|---------------------------------|
B|---------------------------------|---------------------------------|
G|---------------------------------|---------------------------------|
D|-6---6---6---6---6---6---6---6---|-6---6---6---6---6---6---6---6---|
A|-6---6---6---6---6---6---6---6---|-6---6---6---6---6---6---6---6---|
D|-6---6---6---6---6---6---6---6---|-6---6---6---6---6---6---6---6---|

Outro x2 (guitars 1 & 2)
e|---------------------------------|---------------------------------|
B|---------------------------------|---------------------------------|
G|-5---5---5---5---5---5---5---5---|-5---5---5---5---5---5---5---5---|
D|-5---5---5---5---5---5---5---5---|-5---5---5---5---5---5---5---5---|
A|-3---3---3---3---3---3---3---3---|-3---3---3---3---3---3---3---3---|
D|-5---5---5---5---5---5---5---5---|-5---5---5---5---5---5---5---5---|

e|---------------------------------|---------------------------------|
B|---------------------------------|---------------------------------|
G|---------------------------------|---------------------------------|
D|-6---6---6---6---6---6---6---6---|-6---6---6---6---6---6---6---6---|
A|-6---6---6---6---6---6---6---6---|-6---6---6---6---6---6---6---6---|
D|-6---6---6---6---6---6---6---6---|-6---6---6---6---6---6---6---6---|

e|---------------------------------|
B|-9~------------------------------|
G|-8~------------------------------|
D|-6~------------------------------|
A|-6~------------------------------|
D|-6~------------------------------| End
comments
We did not receive enough feedback on this tab! Please rate:
print report bad tab
1 2 3 4 5
I want to post or [tab]
guest
You may want to rate the tab now too:
select rating
Please do not post tabs as comments. Select "correction" instead!