Oops, an error
Loading. Please wait.

A Looking In View Bass Tab

ver1
ver1

Whole song

Interactive

More versions @911Tabs.com
3,780 views 1 this week
no commentswrite comment
1 2 3 4 5
excellent!
x 2
Autoscroll
+/-
esc
set tempo
stop
Contributor
Difficulty
Tuning
intermediate
C# G# C# F# A# D#
Hey! There's an official Ultimate Guitar app which is ideal
for learning songs when you're away from computer. Get the app
WARNING: You are trying to view
                                    content from Ultimate-Guitar.com
                                    in an unauthorized application,
                                    which is prohibited.

                                    Please use an official Ultimate
                                    Guitar Tabs application for iPhone,
                                    iPad or Android to access legitimate
                                    chords, guitar, bass, and drum tabs
                                    from Ultimate-Guitar.com database.

                                    Type "ultimate guitar tabs" in Apple
                                    App Store's or Android Market's
                                    search to find the application.
-------------------------------------------------------------------------------
			     A LOOKING IN VIEW - Alice In Chains
-------------------------------------------------------------------------------

Tabbed By : Isaias Garcia (TexasFury)

Tuning: Drop C#

      Intro
      S     S S S E  E  S S S S S S S S    S S S S E  E  S S S S S S S S
F#||------------------------------------|--------------------------------|
C#||------------------------------------|--------------------------------|
G#||------------------------------------|--------------------------------|
C#||--0-----1-1-1-1-------0-0-1-1-0-0-0-|--0-1-1-1-1-------0-0-1-1-0-0-0-|


  S S S S E  E  S S S S S S S S    S S S S E  E  S S S S S S S S
--------------------------------|--------------------------------|
--------------------------------|--------------------------------|
--------------------------------|--------------------------------|
--0-1-1-1-1-------0-0-1-1-0-0-0-|--0-1-1-1-1-------0-0-1-1-0-0-0-|


  S S S S S S E   S S S S S S S S    S S S S S S E  S S S S S S S S
----------------------------------|---------------------------------|
----------------------------------|---------------------------------|
--------------4b--L---------------|---------------------------------|
--0-1-1-1-1-0-------0-0-1-1-0-0-0-|--0-1-1-1-1-0-8--L-0-0-1-1-0-0-0-|


  S S S S S S E   S S S S S S S S    S S S S S S E   S S S S S S S S
----------------------------------|----------------------------------|
--------------4b--L---------------|----------------------------------|
----------------------------------|--------------4b--L---------------|
--0-1-1-1-1-0-------0-0-1-1-0-0-0-|--0-1-1-1-1-0-------0-0-1-1-0-0-0-|


  Verse 1
  S       S S S E  E  S S S S S S S S    S S S S E  E  S S S S S S S S
--------------------------------------|--------------------------------|
--------------------------------------|--------------------------------|
--------------------------------------|--------------------------------|
--0-------1-1-1-1-------0-0-1-1-0-0-0-|--0-1-1-1-1-------0-0-1-1-0-0-0-|


  S S S S E  E  S S S S S S S S    S S S S E  E  S S S S S S S S
--------------------------------|--------------------------------|
--------------------------------|--------------------------------|
--------------------------------|--------------------------------|
--0-1-1-1-1-------0-0-1-1-0-0-0-|--0-1-1-1-1-------0-0-1-1-0-0-0-|


  S S S S S S E   S S S S S S S S    S S S S S S E  S S S S S S S S
----------------------------------|---------------------------------|
----------------------------------|---------------------------------|
--------------4b--L---------------|---------------------------------|
--0-1-1-1-1-0-------0-0-1-1-0-0-0-|--0-1-1-1-1-0-8--L-0-0-1-1-0-0-0-|


  S S S S S S E   S S S S S S S S    S S S S S S E   S S S S S S S S
----------------------------------|----------------------------------|
--------------4b--L---------------|----------------------------------|
----------------------------------|--------------4b--L---------------|
--0-1-1-1-1-0-------0-0-1-1-0-0-0-|--0-1-1-1-1-0-------0-0-1-1-0-0-0-|


  S S S S E  E  S S S S S S S S    S S S S E  E  S S S S S S S S    S S S S E  E  S S S 
S S S
--------------------------------|--------------------------------|-------------------------------|
--------------------------------|--------------------------------|-------------------------------|
--------------------------------|--------------------------------|-------------------------------|
--0-1-1-1-1-------0-0-1-1-0-0-0-|--0-1-1-1-1-------0-0-1-1-0-0-0-|--0-1-1-1-1-------0-0-1-1-0-0-0|


  S S S S E  E  S S S S S S S S    S S S S S S E   S S S S S S S S
--------------------------------|----------------------------------|
--------------------------------|----------------------------------|
--------------------------------|--------------4b--L---------------|
--0-1-1-1-1-------0-0-1-1-0-0-0-|--0-1-1-1-1-0-------0-0-1-1-0-0-0-|


  S S S S S S E  S S S S S S S S    S S S S S S E   S S S S S S S S
---------------------------------|----------------------------------|
---------------------------------|--------------4b--L---------------|
---------------------------------|----------------------------------|
--0-1-1-1-1-0-8--L-0-0-1-1-0-0-0-|--0-1-1-1-1-0-------0-0-1-1-0-0-0-|


  S S S S S S E   S S S S S S S S    S S S S S S E   S S S S S S S S
----------------------------------|----------------------------------|
----------------------------------|----------------------------------|
--------------4b--L---------------|--------------4b--L---------------|
--0-1-1-1-1-0-------0-0-1-1-0-0-0-|--0-1-1-1-1-0-------0-0-1-1-0-0-0-|


  S S S S S S E  S S S S S S S S    S S S S S S E   S S S S S S S S
---------------------------------|----------------------------------|
---------------------------------|--------------4b--L---------------|
---------------------------------|----------------------------------|
--0-1-1-1-1-0-8--L-0-0-1-1-0-0-0-|--0-1-1-1-1-0-------0-0-1-1-0-0-0-|


                                     Pre-chorus
  S S S S S S E   S S S S S S S S    S          S S S S S S S S S S S S S S S
----------------------------------|-------------------------------------------|
----------------------------------|-------------------------------------------|
--------------4b--L---------------|-----------------------------------------6-|
--0-1-1-1-1-0-------0-0-1-1-0-0-0-|--0----------1-4-0-4-5-0-5-7-0-7-8-L-0-8---|


  S S S S S S S S S S S S S S S S    S S S S S S S S S S S S S S S S
----------------------------------|----------------------------------|
----------------------------------|----------------------------------|
--5-------------------------------|--------------------------------6-|
----0-4-0-4-5-0-5-7-0-7-8-L-0-8-7-|--0-1-4-0-4-5-0-5-7-0-7-8-L-0-8---|


                                     Chorus 1
  S S S S S S S S S S S S S S S S    E        E  E.  S S S E  S S S  S
----------------------------------|------------------------------------|
----------------------------------|------------------------------------|
--5-------------------------------|------------------------------------|
----0-4-0-4-5-0-5-7-0-7-8-L-0-8-7-|--5--------5--5---5-L-5-5--5-5-5h-7-|


  E  E  E.  S S S E  S  S  S S    S S E  S S E  Q    S S E     S S E  S S E  Q    S S E
-------------------------------|----------------------------|----------------------------|
-------------------------------|----------------------------|----------------------------|
-------------------------------|----------------------------|----------------------------|
--3--3--3---3-L-3-3--3-10-10-8-|--8-7-0--0-3-0--L----L-3-5--|--5-3-0--0-3-0--L----L-5-7--|


  E  E  E.  S S S E  S S S  S    E  E  E.  S S S E  S  S  S S    S S E  S S E  Q    S S E
------------------------------|-------------------------------|---------------------------|
-----------------------------|-------------------------------|----------------------------|
------------------------------|-------------------------------|---------------------------|
--5--5--5---5-L-5-5--5-5-5h-7-|--3--3--3---3-L-3-3--3-10-10-8-|--8-7-0--0-3-0--L----L-3-5-|


                            Verse 1
  S S E  S S E  H           S       S S S E  E  S S S S S S S S    S S S S E  E  S S S S 
S S
-------------------------|--------------------------------------|-------------------------------|
-------------------------|--------------------------------------|-------------------------------|
-------------------------|--------------------------------------|-------------------------------|
--5-3-0--0-3-0-----------|--0-------1-1-1-1-------0-0-1-1-0-0-0-|--0-1-1-1-1-------0-0-1-1-0-0-0|


  S S S S E  E  S S S S S S S S    S S S S E  E  S S S S S S S S    S S S S E  E  S S S 
S S S
--------------------------------|--------------------------------|-------------------------------|
--------------------------------|--------------------------------|-------------------------------|
--------------------------------|--------------------------------|-------------------------------|
--0-1-1-1-1-------0-0-1-1-0-0-0-|--0-1-1-1-1-------0-0-1-1-0-0-0-|--0-1-1-1-1-------0-0-1-1-0-0-0|


  S S S S E  E  S S S S S S S S    S S S S E  E  S S S S S S S S    S S S S E  E  S S S 
S S S
--------------------------------|--------------------------------|-------------------------------|
--------------------------------|--------------------------------|-------------------------------|
--------------------------------|--------------------------------|-------------------------------|
--0-1-1-1-1-------0-0-1-1-0-0-0-|--0-1-1-1-1-------0-0-1-1-0-0-0-|--0-1-1-1-1-------0-0-1-1-0-0-0|


  S S S S S S E   S S S S S S S S    S S S S S S E  S S S S S S S S
----------------------------------|---------------------------------|
----------------------------------|---------------------------------|
--------------4b--L---------------|---------------------------------|
--0-1-1-1-1-0-------0-0-1-1-0-0-0-|--0-1-1-1-1-0-8--L-0-0-1-1-0-0-0-|


  S S S S S S E   S S S S S S S S    S S S S S S E   S S S S S S S S
----------------------------------|----------------------------------|
--------------4b--L---------------|----------------------------------|
----------------------------------|--------------4b--L---------------|
--0-1-1-1-1-0-------0-0-1-1-0-0-0-|--0-1-1-1-1-0-------0-0-1-1-0-0-0-|


  Pre-chorus
  S          S S S S S S S S S S S S S S S    S S S S S S S S S S S S S S S S
-------------------------------------------|----------------------------------|
-------------------------------------------|----------------------------------|
-----------------------------------------6-|--5-------------------------------|
--0----------1-4-0-4-5-0-5-7-0-7-8-L-0-8---|----0-4-0-4-5-0-5-7-0-7-8-L-0-8-7-|


  S S S S S S S S S S S S S S S S    S S S S S S S S S S S S S S S S
----------------------------------|----------------------------------|
----------------------------------|----------------------------------|
--------------------------------6-|--5-------------------------------|
--0-1-4-0-4-5-0-5-7-0-7-8-L-0-8---|----0-4-0-4-5-0-5-7-0-7-8-L-0-8-7-|


  S S S S S S S S S S S S S S S S    S S S S S S S S S S S S S S S S
----------------------------------|----------------------------------|
----------------------------------|----------------------------------|
--------------------------------6-|--5-------------------------------|
--0-1-4-0-4-5-0-5-7-0-7-8-L-0-8---|----0-4-0-4-5-0-5-7-0-7-8-L-0-8-7-|


  S S S S S S S S S S S S S S S S    S S S S S S S S S S S S S S S S
----------------------------------|----------------------------------|
----------------------------------|----------------------------------|
--------------------------------6-|--5-------------------------------|
--0-1-4-0-4-5-0-5-7-0-7-8-L-0-8---|----0-4-0-4-5-0-5-7-0-7-8-L-0-8-7-|


  Chorus 2
  E        E  E.  S S S E  S S S  S    E  E  E.  S S S E  S  S  S S    S S E  S S E  Q
S S E
------------------------------------|-------------------------------|----------------------------|
------------------------------------|-------------------------------|----------------------------|
------------------------------------|-------------------------------|----------------------------|
--5--------5--5---5-L-5-5--5-5-5h-7-|--3--3--3---3-L-3-3--3-10-10-8-|--8-7-0--0-3-0--L----L-3-5--|


  S S E  S S E  Q    S S E     E  E  E.  S S S E  S S S  S    E  E  E.  S S S E  S  S  S S
----------------------------|------------------------------|-------------------------------|
----------------------------|------------------------------|-------------------------------|
----------------------------|------------------------------|-------------------------------|
--5-3-0--0-3-0--L----L-5-7--|--5--5--5---5-L-5-5--5-5-5h-7-|--3--3--3---3-L-3-3--3-10-10-8-|


  S S E  S S E  Q    S S E     S S E  S S E  Q    S S E     S S E  S S E  Q    S S E
----------------------------|----------------------------|----------------------------|
----------------------------|----------------------------|----------------------------|
----------------------------|----------------------------|----------------------------|
--8-7-0--0-3-0--L----L-3-5--|--5-3-0--0-3-0--L----L-3-5--|--5-3-0--0-3-0--L----L-3-5--|


                               Interlude
  S S E  S S E  Q    E  S S    Q         S S E  Q    S S E     S S E  S S E  Q    S S E
----------------------------|-------------------------------|----------------------------|
----------------------------|-------------------------------|----------------------------|
---------------------3--3-3-|------------5------------------|----------------------------|
--5-3-0--0-3-0--L-----------|--0-----------3-0--L----L-3-5--|--5-3-0--0-3-0--L----L-3-5--|


  S S E  S S E  Q    S S E     S S E  S S E  Q    S S S S    Q    S S E  Q    S S E
----------------------------|-----------------------------|--------------------------|
----------------------------|-----------------------------|--------------------------|
----------------------------|---------------------3-3-3-3-|--------------------------|
--5-3-0--0-3-0--L----L-3-5--|--5-3-0--0-3-0--L------------|--0----0-3-0--L----L-3-5--|


  S S E  S S E  Q    S S E      S S E  S S E  Q    S S E     S S E  S S E  Q    S S S S
-----------------------------|----------------------------|-----------------------------|
-----------------------------|----------------------------|-----------------------------|
-----------------------------|----------------------------|---------------------3-3-3-3-|
--5-3-0--0-3-0--L----L-3-5b--|--5-3-0--0-3-0--L----L-3-5--|--5-3-0--0-3-0--L------------|


  Q    S S E  Q    S S E     S S E  S S E  Q    S S E     S S E  S S E  Q    S S E
--------------------------|----------------------------|----------------------------|
--------------------------|----------------------------|----------------------------|
--------------------------|----------------------------|----------------------------|
--0----0-3-0--0----L-3-5--|--5-3-0--0-3-0--L----L-3-5--|--5-3-0--0-3-0--L----L-3-5--|


                               Chorus 3
  S S E  S S E  Q    S S E     E        E  E.  S S S E  S S S  S    E  E  E.  S S S E  S
S  S S
----------------------------|------------------------------------|-------------------------------|
----------------------------|------------------------------------|-------------------------------|
----------------------------|------------------------------------|-------------------------------|
--5-3-0--0-3-0--L----0-5-7--|--5--------5--5---5-L-5-5--5-5-5h-7-|--3--3--3---3-L-3-3--3-10-10-8-|


  S S E  S S E  Q    S S E     S S E  S S E  Q    S S E     E  E  E.  S S S E  S S S  S
----------------------------|----------------------------|------------------------------|
----------------------------|----------------------------|------------------------------|
----------------------------|----------------------------|------------------------------|
--8-7-0--0-3-0--L----L-3-5--|--5-3-0--0-3-0--L----L-5-7--|--5--5--5---5-L-5-5--5-5-5h-7-|


  E  E  E.  S S S E  S  S  S S    S S E  S S E  Q    S S E     S S E  S S E  Q    S S E
-------------------------------|----------------------------|----------------------------|
-------------------------------|----------------------------|----------------------------|
-------------------------------|----------------------------|----------------------------|
--3--3--3---3-L-3-3--3-10-10-8-|--8-7-0--0-3-0--L----L-3-5--|--5-3-0--0-3-0--L----L-3-5--|


                                                             Outro
  S S E  S S E  Q    S S E     S S E  S S E  Q    S S S S    Q     S S E  Q    S S E
----------------------------|-----------------------------|---------------------------|
----------------------------|-----------------------------|---------------------------|
----------------------------|---------------------3-3-3-3-|---------------------------|
--5-3-0--0-3-0--L----L-3-5--|--5-3-0--0-3-0--L------------|--0-----0-3-0--L----L-3-5--|


  S S E  S S E  Q    S S E     S S E  S S E  Q    S S E     S S E  S S E  Q    S S S S
----------------------------|----------------------------|-----------------------------|
----------------------------|----------------------------|-----------------------------|
----------------------------|----------------------------|---------------------3-3-3-3-|
--5-3-0--0-3-0--L----L-3-5--|--5-3-0--0-3-0--L----L-3-5--|--5-3-0--0-3-0--L------------|


  Q    S S E  Q    S S E     S S E  S S E  Q    S S E     S S E  S S E  Q    S S E
--------------------------|----------------------------|----------------------------|
--------------------------|----------------------------|----------------------------|
--------------------------|----------------------------|----------------------------|
--0----0-3-0--L----L-3-5--|--5-3-0--0-3-0--L----L-3-5--|--5-3-0--0-3-0--L----L-3-5--|


  S S E  S S E  Q    S S S S    Q    S S E  Q    S S E     S S E  S S E  Q    S S E
-----------------------------|--------------------------|----------------------------|
-----------------------------|--------------------------|----------------------------|
---------------------3-3-3-3-|--------------------------|----------------------------|
--5-3-0--0-3-0--L------------|--0----0-3-0--L----L-3-5--|--5-3-0--0-3-0--L----L-3-5--|


  S S E  S S E  Q    S S E     S S E  S S E  Q    S S S S    Q    S S E  Q    S S E
----------------------------|-----------------------------|--------------------------|
----------------------------|-----------------------------|--------------------------|
----------------------------|-----------------------------|--------------------------|
--5-3-0--0-3-0--L----L-3-5--|--5-3-0--0-3-0--L----5-5-5-5-|--0----0-3-0--L----L-3-5--|


  S S E  S S E  Q    S S E     S S E  S S E  Q    S S E     S S E  S S E  Q    S S S S
----------------------------|----------------------------|-----------------------------||
----------------------------|----------------------------|-----------------------------||
----------------------------|----------------------------|---------------------3-3-3-3-||
--5-3-0--0-3-0--L----L-3-5--|--5-3-0--0-3-0--L----L-3-5--|--5-3-0--0-3-0--L------------||


Duration Legend
---------------
W - whole
H - half
Q - quarter
E - 8th
S - 16th
T - 32nd
X - 64th
. - note dotted
|-n-|  - n-tuplets


Tablature Legend
----------------
L - tied note
x - dead note
g - grace note
(n) - ghost note
> - accentuded note
NH - natural harmonic
AH - artificial harmonic
TH - tapped harmonic
SH - semi harmonic
PH - pitch harmonic
h - hammer on
p - pull off
b - bend
br - bendRelease
pb - preBend
pbr - preBendRelease
brb - bendReleaseBend
\n/ - tremolo bar dip
\n - tremolo bar dive
-/n - tremolo bar Release up
/n\ - tremolo bar inverted dip
/n - tremolo bar return
-\n - tremolo bar Release down
S - shift slide
s - legato slide
/ -  slide into from below or out of upwards
\ -  slide into from above or out of downwards
~ - vibrato
W - wide vibrato
tr - trill
TP - tremolo picking
T - tapping
S - slap
P - pop
< - fade in
^ - brush up
v - brush down
comments
We did not receive enough feedback on this tab! Please rate:
print report bad tab
1 2 3 4 5
I want to post or [tab]
guest
You may want to rate the tab now too:
select rating
Please do not post tabs as comments. Select "correction" instead!