Oops, an error
Loading. Please wait.

A Looking In View Tab

ver3
ver3

Whole song

More versions @911Tabs.com
2,943 views 6 this week
no commentswrite comment
1 2 3 4 5
worth learning
x 2
Autoscroll
+/-
esc
set tempo
stop
Contributor
Difficulty
Tuning
Tabbers playing skills
intermediate
C# G# C# F# A# D#
advanced ++
WARNING: You are trying to view
                                    content from Ultimate-Guitar.com
                                    in an unauthorized application,
                                    which is prohibited.

                                    Please use an official Ultimate
                                    Guitar Tabs application for iPhone,
                                    iPad or Android to access legitimate
                                    chords, guitar, bass, and drum tabs
                                    from Ultimate-Guitar.com database.

                                    Type "ultimate guitar tabs" in Apple
                                    App Store's or Android Market's
                                    search to find the application.
-------------------------------------------------------------------------------
                             A LOOKING IN VIEW - Alice In Chains
-------------------------------------------------------------------------------

Tabbed by: Isaias Garcia (TexasFury)

Tuning: Drop C#


Guitar - rhythm
      Intro
      PM    PM PM PM PM      PM PM PM PM PM PM PM    PM PM PM PM PM      PM PM PM PM PM PMPM
      S     S  S  S  E  E  S S  S  S  S  S  S  S     S  S  S  S  E  E  S S  S  S  S  S  S S
D#||----------------------------------------------|-------------------------------------------|
A#||----------------------------------------------|-------------------------------------------|
F#||----------------------------------------------|-------------------------------------------|
C#||----------------------------------------------|-------------------------------------------|
G#||--0-----1--1--1--1-------0--0--1--1--0--0--0--|--0--1--1--1--1-------0--0--1--1--0--0--0--|
C#||--0-----1--1--1--1-------0--0--1--1--0--0--0--|--0--1--1--1--1-------0--0--1--1--0--0--0--|


  PM PM PM PM PM      PM PM PM PM PM PM PM    PM PM PM PM PM      PM PM PM PM PM PM PM
  S  S  S  S  E  E  S S  S  S  S  S  S  S     S  S  S  S  E  E  S S  S  S  S  S  S  S
-------------------------------------------|-------------------------------------------|
-------------------------------------------|-------------------------------------------|
-------------------------------------------|-------------------------------------------|
-------------------------------------------|-------------------------------------------|
--0--1--1--1--1-------0--0--1--1--0--0--0--|--0--1--1--1--1-------0--0--1--1--0--0--0--|
--0--1--1--1--1-------0--0--1--1--0--0--0--|--0--1--1--1--1-------0--0--1--1--0--0--0--|


  S S S S S S E   S S S S S S S S    S S S S S S E  S S S S S S S S
----------------------------------|---------------------------------|
----------------------------------|---------------------------------|
----------------------------------|---------------------------------|
----------------------------------|---------------------------------|
--0-1-1-1-1-0-4b--L-0-0-1-1-0-0-0-|--0-1-1-1-1-0------0-0-1-1-0-0-0-|
--0-1-1-1-1-0-------0-0-1-1-0-0-0-|--0-1-1-1-1-0-8--L-0-0-1-1-0-0-0-|


                                                                        Verse 1
  S S S S S S E   S S S S S S S S    S S S S S S E   S S S S S S S S    W
----------------------------------|----------------------------------|-------------------|
----------------------------------|----------------------------------|-------------------|
----------------------------------|----------------------------------|-------------------|
--------------4b--L---------------|----------------------------------|-------------------|
--0-1-1-1-1-0-------0-0-1-1-0-0-0-|--0-1-1-1-1-0-4b--L-0-0-1-1-0-0-0-|-------------------|
--0-1-1-1-1-0-------0-0-1-1-0-0-0-|--0-1-1-1-1-0-------0-0-1-1-0-0-0-|-------------------|


  W                   W                   W                   S S S S S S E   S S S S S SS S
-------------------|-------------------|-------------------|----------------------------------|
-------------------|-------------------|-------------------|----------------------------------|
-------------------|-------------------|-------------------|----------------------------------|
-------------------|-------------------|-------------------|----------------------------------|
-------------------|-------------------|-------------------|--0-1-1-1-1-0-4b--L-0-0-1-1-0-0-0-|
-------------------|-------------------|-------------------|--0-1-1-1-1-0-------0-0-1-1-0-0-0-|


  S S S S S S E  S S S S S S S S    S S S S S S E   S S S S S S S S
---------------------------------|----------------------------------|
---------------------------------|----------------------------------|
---------------------------------|----------------------------------|
---------------------------------|--------------4b--L---------------|
--0-1-1-1-1-0------0-0-1-1-0-0-0-|--0-1-1-1-1-0-------0-0-1-1-0-0-0-|
--0-1-1-1-1-0-8--L-0-0-1-1-0-0-0-|--0-1-1-1-1-0-------0-0-1-1-0-0-0-|


                                         PM PM
  S S S S S S E   S S S S S S S S    S S S  S  E  E  H           W
----------------------------------|---------------------------|-------------------|
----------------------------------|---------------------------|-------------------|
----------------------------------|---------------------------|-------------------|
----------------------------------|---------------------------|-------------------|
--0-1-1-1-1-0-4b--L-0-0-1-1-0-0-0-|--0-1-1--1--1--------------|-------------------|
--0-1-1-1-1-0-------0-0-1-1-0-0-0-|--0-1-1--1--1--------------|-------------------|


  W                   W                   S S S S S S E   S S S S S S S S
-------------------|-------------------|----------------------------------|
-------------------|-------------------|----------------------------------|
-------------------|-------------------|----------------------------------|
-------------------|-------------------|----------------------------------|
-------------------|-------------------|--0-1-1-1-1-0-4b--L-0-0-1-1-0-0-0-|
-------------------|-------------------|--0-1-1-1-1-0-------0-0-1-1-0-0-0-|


  S S S S S S E  S S S S S S S S    S S S S S S E   S S S S S S S S
---------------------------------|----------------------------------|
---------------------------------|----------------------------------|
---------------------------------|----------------------------------|
---------------------------------|--------------4b--L---------------|
--0-1-1-1-1-0------0-0-1-1-0-0-0-|--0-1-1-1-1-0-------0-0-1-1-0-0-0-|
--0-1-1-1-1-0-8--L-0-0-1-1-0-0-0-|--0-1-1-1-1-0-------0-0-1-1-0-0-0-|


  S S S S S S E   S S S S S S S S    S S S S S S E   S S S S S S S S
----------------------------------|----------------------------------|
----------------------------------|----------------------------------|
----------------------------------|----------------------------------|
----------------------------------|----------------------------------|
--0-1-1-1-1-0-4b--L-0-0-1-1-0-0-0-|--0-1-1-1-1-0-4b--L-0-0-1-1-0-0-0-|
--0-1-1-1-1-0-------0-0-1-1-0-0-0-|--0-1-1-1-1-0-------0-0-1-1-0-0-0-|


  S S S S S S E  S S S S S S S S    S S S S S S E   S S S S S S S S
---------------------------------|----------------------------------|
---------------------------------|----------------------------------|
---------------------------------|----------------------------------|
---------------------------------|--------------4b--L---------------|
--0-1-1-1-1-0------0-0-1-1-0-0-0-|--0-1-1-1-1-0-------0-0-1-1-0-0-0-|
--0-1-1-1-1-0-8--L-0-0-1-1-0-0-0-|--0-1-1-1-1-0-------0-0-1-1-0-0-0-|


                                     Pre-chorus
  S S S S S S E   S S S S S S S S    S          S S S S S S S S S S S S S S S
----------------------------------|-------------------------------------------|
----------------------------------|-------------------------------------------|
----------------------------------|-------------------------------------------|
----------------------------------|-------------------------------------------|
--0-1-1-1-1-0-4b--L-0-0-1-1-0-0-0-|--0----------1-4-0-4-5-0-5-7-0-7-8-L---8-6-|
--0-1-1-1-1-0-------0-0-1-1-0-0-0-|--0----------1-4-0-4-5-0-5-7-0-7-8-L-0-8---|


  S S S S S S S S S S S S S S S S    S S S S S S S S S S S S S S S S
----------------------------------|----------------------------------|
----------------------------------|----------------------------------|
----------------------------------|----------------------------------|
----------------------------------|----------------------------------|
--5-0-4-0-4-5-0-5-7-0-7-8-L---8-7-|--0-1-4-0-4-5-0-5-7-0-7-8-L---8-6-|
----0-4-0-4-5-0-5-7-0-7-8-L-0-8-7-|--0-1-4-0-4-5-0-5-7-0-7-8-L-0-8---|


                                     Chorus 1
  S S S S S S S S S S S S S S S S    S        S E  E  S S S S E  S S S  S
----------------------------------|---------------------------------------|
----------------------------------|---------------------------------------|
----------------------------------|---------------------------------------|
----------------------------------|---------------------7-L---7--L--------|
--5-0-4-0-4-5-0-5-7-0-7-8-L---8-7-|--7s-------5-5--5--5-5-L-5-5--L-5-5s-7-|
----0-4-0-4-5-0-5-7-0-7-8-L-0-8-7-|--7s-------5-5--5--5-----5------5-5s-7-|


  S  S E  E  S S S S E  S  S  S S    S S E  S S E  Q    S S E     S S E  S S E  Q    S S E
----------------------------------|----------------------------|----------------------------|
----------------------------------|----------------------------|----------------------------|
----------------------------------|----------------------------|----------------------------|
-------5--5--5-5-L-5-5--L---------|----------------------------|----------------------------|
--5s-3-3--3--3-3-L-3-3--L-10-10-8-|--8-7-0--0-3-0--L----0-3-5--|--5-3-0--0-3-0--L----0-5-7--|
--5s-3-3--3--3-3-L-3-3--L-10-10-8-|--8-7-0--0-3-0--L----0-3-5--|--5-3-0--0-3-0--L----0-5-7--|


  S  S E  E  S S S S E  S S S  S    S  S E  E  S S S S E  S  S  S S    S S E  S S E  Q
S S E
---------------------------------|----------------------------------|----------------------------|
---------------------------------|----------------------------------|----------------------------|
---------------------------------|----------------------------------|----------------------------|
---------------7-L---7--L-x------|-------5--5--5-5-L-5-5--L---------|----------------------------|
--7s-5-5--5--5-5-L-5-5--L-5-5s-7-|--5s-3-3--3--3-3-L-3-3--L-10-10-8-|--8-7-0--0-3-0--L----0-3-5--|
--7s-5-5--5--5-----5------5-5s-7-|--5s-3-3--3--3-3-L-3-3--L-10-10-8-|--8-7-0--0-3-0--L----0-3-5--|


                            Verse 2
                            PM      PM PM PM PM      PM PM PM PM PM PM PM
  S S E  S S E  H           S       S  S  S  E  E  S S  S  S  S  S  S  S
-------------------------|------------------------------------------------|
-------------------------|------------------------------------------------|
-------------------------|------------------------------------------------|
-------------------------|------------------------------------------------|
--5-3-0--0-3-0-----------|--0-------1--1--1--1-------0--0--1--1--0--0--0--|
--5-3-0--0-3-0-----------|--0-------1--1--1--1-------0--0--1--1--0--0--0--|


  PM PM PM PM PM      PM PM PM PM PM PM PM    PM PM PM PM PM      PM PM PM PM PM PM PM
  S  S  S  S  E  E  S S  S  S  S  S  S  S     S  S  S  S  E  E  S S  S  S  S  S  S  S
-------------------------------------------|-------------------------------------------|
-------------------------------------------|-------------------------------------------|
-------------------------------------------|-------------------------------------------|
-------------------------------------------|-------------------------------------------|
--0--1--1--1--1-------0--0--1--1--0--0--0--|--0--1--1--1--1-------0--0--1--1--0--0--0--|
--0--1--1--1--1-------0--0--1--1--0--0--0--|--0--1--1--1--1-------0--0--1--1--0--0--0--|


  PM PM PM PM PM      PM PM PM PM PM PM PM    PM PM PM PM PM      PM PM PM PM PM PM PM
  S  S  S  S  E  E  S S  S  S  S  S  S  S     S  S  S  S  E  E  S S  S  S  S  S  S  S
-------------------------------------------|-------------------------------------------|
-------------------------------------------|-------------------------------------------|
-------------------------------------------|-------------------------------------------|
-------------------------------------------|-------------------------------------------|
--0--1--1--1--1-------0--0--1--1--0--0--0--|--0--1--1--1--1-------0--0--1--1--0--0--0--|
--0--1--1--1--1-------0--0--1--1--0--0--0--|--0--1--1--1--1-------0--0--1--1--0--0--0--|


  PM PM PM PM PM      PM PM PM PM PM PM PM    PM PM PM PM PM      PM PM PM PM PM PM PM
  S  S  S  S  E  E  S S  S  S  S  S  S  S     S  S  S  S  E  E  S S  S  S  S  S  S  S
-------------------------------------------|-------------------------------------------|
-------------------------------------------|-------------------------------------------|
-------------------------------------------|-------------------------------------------|
-------------------------------------------|-------------------------------------------|
--0--1--1--1--1-------0--0--1--1--0--0--0--|--0--1--1--1--1-------0--0--1--1--0--0--0--|
--0--1--1--1--1-------0--0--1--1--0--0--0--|--0--1--1--1--1-------0--0--1--1--0--0--0--|


  PM PM PM PM PM      PM PM PM PM PM PM PM
  S  S  S  S  E  E  S S  S  S  S  S  S  S     S S S S S S E   S S S S S S S S
-------------------------------------------|----------------------------------|
-------------------------------------------|----------------------------------|
-------------------------------------------|----------------------------------|
-------------------------------------------|----------------------------------|
--0--1--1--1--1-------0--0--1--1--0--0--0--|--0-1-1-1-1-0-4b--L-0-0-1-1-0-0-0-|
--0--1--1--1--1-------0--0--1--1--0--0--0--|--0-1-1-1-1-0-------0-0-1-1-0-0-0-|


  S S S S S S E  S S S S S S S S    S S S S S S E   S S S S S S S S
---------------------------------|----------------------------------|
---------------------------------|----------------------------------|
---------------------------------|----------------------------------|
---------------------------------|--------------4b--L---------------|
--0-1-1-1-1-0------0-0-1-1-0-0-0-|--0-1-1-1-1-0-------0-0-1-1-0-0-0-|
--0-1-1-1-1-0-8--L-0-0-1-1-0-0-0-|--0-1-1-1-1-0-------0-0-1-1-0-0-0-|


                                     Pre-chorus
  S S S S S S E   S S S S S S S S    S          S S S S S S S S S S S S S S S
----------------------------------|-------------------------------------------|
----------------------------------|-------------------------------------------|
----------------------------------|-------------------------------------------|
----------------------------------|-------------------------------------------|
--0-1-1-1-1-0-4b--L-0-0-1-1-0-0-0-|--0----------1-4-0-4-5-0-5-7-0-7-8-L---8-6-|
--0-1-1-1-1-0-------0-0-1-1-0-0-0-|--0----------1-4-0-4-5-0-5-7-0-7-8-L-0-8---|


  S S S S S S S S S S S S S S S S    S S S S S S S S S S S S S S S S
----------------------------------|----------------------------------|
----------------------------------|----------------------------------|
----------------------------------|----------------------------------|
----------------------------------|----------------------------------|
--5-0-4-0-4-5-0-5-7-0-7-8-L---8-7-|--0-1-4-0-4-5-0-5-7-0-7-8-L---8-6-|
----0-4-0-4-5-0-5-7-0-7-8-L-0-8-7-|--0-1-4-0-4-5-0-5-7-0-7-8-L-0-8---|


  S S S S S S S S S S S S S S S S    S S S S S S S S S S S S S S S S
----------------------------------|----------------------------------|
----------------------------------|----------------------------------|
----------------------------------|----------------------------------|
----------------------------------|----------------------------------|
--5-0-4-0-4-5-0-5-7-0-7-8-L---8-7-|--0-1-4-0-4-5-0-5-7-0-7-8-L---8-6-|
----0-4-0-4-5-0-5-7-0-7-8-L-0-8-7-|--0-1-4-0-4-5-0-5-7-0-7-8-L-0-8---|


  S S S S S S S S S S S S S S S S    S S S S S S S S S S S S S S S S
----------------------------------|----------------------------------|
----------------------------------|----------------------------------|
----------------------------------|----------------------------------|
----------------------------------|----------------------------------|
--5-0-4-0-4-5-0-5-7-0-7-8-L---8-7-|--0-1-4-0-4-5-0-5-7-0-7-8-L---8-6-|
----0-4-0-4-5-0-5-7-0-7-8-L-0-8-7-|--0-1-4-0-4-5-0-5-7-0-7-8-L-0-8---|


                                     Chorus 2
  S S S S S S S S S S S S S S S S    S        S E  E  S S S S E  S S S  S
----------------------------------|---------------------------------------|
----------------------------------|---------------------------------------|
----------------------------------|---------------------------------------|
----------------------------------|---------------------7-L---7--L-x------|
--5-0-4-0-4-5-0-5-7-0-7-8-L---8-7-|--7s-------5-5--5--5-5-L-5-5--L-5-5s-7-|
----0-4-0-4-5-0-5-7-0-7-8-L-0-8-7-|--7s-------5-5--5--5-----5------5-5s-7-|


  S  S E  E  S S S S E  S  S  S S    S S E  S S E  Q    S S E     S S E  S S E  Q    S S E
----------------------------------|----------------------------|----------------------------|
----------------------------------|----------------------------|----------------------------|
----------------------------------|----------------------------|----------------------------|
-------5--5--5-5-L-5-5--L---------|----------------------------|----------------------------|
--5s-3-3--3--3-3-L-3-3--L-10-10-8-|--8-7-0--0-3-0--L----L-3-5--|--5-3-0--0-3-0--L----L-5-7--|
--5s-3-3--3--3-3-L-3-3--L-10-10-8-|--8-7-0--0-3-0--L----L-3-5--|--5-3-0--0-3-0--L----L-5-7--|


  S  S E  E  S S S S E  S S S  S    S  S E  E  S S S S E  S  S  S S    S S E  S S E  Q
S S E
---------------------------------|----------------------------------|----------------------------|
---------------------------------|----------------------------------|----------------------------|
---------------------------------|----------------------------------|----------------------------|
---------------7-L---7--L-x------|-------5--5--5-5-L-5-5--L---------|----------------------------|
--7s-5-5--5--5-5-L-5-5--L-5-5s-7-|--5s-3-3--3--3-3-L-3-3--L-10-10-8-|--8-7-0--0-3-0--L----L-3-5--|
--7s-5-5--5--5-----5------5-5s-7-|--5s-3-3--3--3-3-L-3-3--L-10-10-8-|--8-7-0--0-3-0--L----L-3-5--|


  S S E  S S E  Q    S S E     S S E  S S E  Q    S S E     S S E  S S E  Q    S S S S
----------------------------|----------------------------|-----------------------------|
----------------------------|----------------------------|-----------------------------|
----------------------------|----------------------------|-----------------------------|
----------------------------|----------------------------|---------------------5-5-5-5-|
--5-3-0--0-3-0--L----L-3-5--|--5-3-0--0-3-0--L----L-3-5--|--5-3-0--0-3-0--L----3-3-3-3-|
--5-3-0--0-3-0--L----L-3-5--|--5-3-0--0-3-0--L----L-3-5--|--5-3-0--0-3-0--L------------|


  Interlude
  Q         S S E  Q    S S E     S S E  S S E  Q    S S E     S S E  S S E  Q    S S E
-------------------------------|----------------------------|----------------------------|
-------------------------------|----------------------------|----------------------------|
-------------------------------|----------------------------|----------------------------|
-------------------------------|----------------------------|----------------------------|
--0---------0-3-0--L----L-3-5--|--5-3-0--0-3-0--L----0-3-5--|--5-3-0--0-3-0--L----0-3-5--|
--0---------0-3-0--L----L-3-5--|--5-3-0--0-3-0--L----0-3-5--|--5-3-0--0-3-0--L----0-3-5--|


  S S E  S S E  Q    S S S S    Q    S S E  Q    S S E      S S E  S S E  Q    S S E
-----------------------------|---------------------------|-----------------------------|
-----------------------------|---------------------------|-----------------------------|
-----------------------------|---------------------------|-----------------------------|
---------------------5-5-5-5-|---------------------------|-----------------------------|
--5-3-0--0-3-0--L----3-3-3-3-|---------------------------|-----------------------------|
--5-3-0--0-3-0--L------------|--0----0-3-0--L----L-3-5b--|--5-3-0--0-3-0--L----L-3-5b--|


  S S E  S S E  Q    S S E      S S E  S S E  Q    S S S S    Q    S S E  Q    S S E
-----------------------------|-----------------------------|---------------------------|
-----------------------------|-----------------------------|---------------------------|
-----------------------------|-----------------------------|---------------------------|
-----------------------------|---------------------5-5-5-5-|---------------------------|
-----------------------------|---------------------3-3-3-3-|---------------------------|
--5-3-0--0-3-0--L----L-3-5b--|--5-3-0--0-3-0--L------------|--0----0-3-0--L----L-3-5b--|


  S S E  S S E  Q    S S E      S S E  S S E  Q    S S E      S S E  S S E  Q    S S E
-----------------------------|-----------------------------|----------------------------|
-----------------------------|-----------------------------|----------------------------|
-----------------------------|-----------------------------|----------------------------|
-----------------------------|-----------------------------|----------------------------|
-----------------------------|-----------------------------|---------------------0-5-7--|
--5-3-0--0-3-0--L----L-3-5b--|--5-3-0--0-3-0--L----L-3-5b--|--5-3-0--0-3-0--L----0-5-7--|


  Chorus 3
  S        S E  E  S S S S E  S S S  S    S  S E  E  S S S S E  S  S  S S
---------------------------------------|----------------------------------|
---------------------------------------|----------------------------------|
---------------------------------------|----------------------------------|
---------------------7-L---7--L-x------|-------5--5--5-5-L-5-5--L---------|
--7s-------5-5--5--5-5-L-5-5--L-5-5s-7-|--5s-3-3--3--3-3-L-3-3--L-10-10-8-|
--7s-------5-5--5--5-----5------5-5s-7-|--5s-3-3--3--3-3-L-3-3--L-10-10-8-|


  S S E  S S E  Q    S S E     S S E  S S E  Q    S S E     S  S E  E  S S S S E  S S S  S
----------------------------|----------------------------|---------------------------------|
----------------------------|----------------------------|---------------------------------|
----------------------------|----------------------------|---------------------------------|
----------------------------|----------------------------|---------------7-L---7--L-x------|
--8-7-0--0-3-0--L----L-3-5--|--5-3-0--0-3-0--L----L-5-7--|--7s-5-5--5--5-5-L-5-5--L-5-5s-7-|
--8-7-0--0-3-0--L----L-3-5--|--5-3-0--0-3-0--L----L-5-7--|--7s-5-5--5--5-----5------5-5s-7-|


  S  S E  E  S S S S E  S  S  S S    S S E  S S E  Q    S S E     S S E  S S E  Q    S S E
----------------------------------|----------------------------|----------------------------|
----------------------------------|----------------------------|----------------------------|
----------------------------------|----------------------------|----------------------------|
-------5--5--5-5-L-5-5--L---------|----------------------------|----------------------------|
--5s-3-3--3--3-3-L-3-3--L-10-10-8-|--8-7-0--0-3-0--L----L-3-5--|--5-3-0--0-3-0--L----L-3-5--|
--5s-3-3--3--3-3-L-3-3--L-10-10-8-|--8-7-0--0-3-0--L----L-3-5--|--5-3-0--0-3-0--L----L-3-5--|


                                                             Outro
  S S E  S S E  Q    S S E     S S E  S S E  Q    S S S S    Q     S S E  Q    S S E
----------------------------|-----------------------------|---------------------------|
----------------------------|-----------------------------|---------------------------|
----------------------------|-----------------------------|---------------------------|
----------------------------|---------------------5-5-5-5-|---------------------------|
--5-3-0--0-3-0--L----L-3-5--|--5-3-0--0-3-0--L----3-3-3-3-|--0-----0-3-0--L----L------|
--5-3-0--0-3-0--L----L-3-5--|--5-3-0--0-3-0--L------------|--0-----0-3-0--L----L-3-5--|


  S S E  S S E  Q    S S E      S S E  S S E  Q    S S E      S S E  S S E  Q    S S S S
-----------------------------|-----------------------------|-----------------------------|
-----------------------------|-----------------------------|-----------------------------|
-----------------------------|-----------------------------|-----------------------------|
-----------------------------|-----------------------------|---------------------5-5-5-5-|
-----------------------------|-----------------------------|---------------------3-3-3-3-|
--5-3-0--0-3-0--L----L-3-5b--|--5-3-0--0-3-0--L----L-3-5b--|--5-3-0--0-3-0--L------------|


  Q    S S E  Q    S S E      S S E  S S E  Q    S S E      S S E  S S E  Q    S S E
---------------------------|-----------------------------|-----------------------------|
---------------------------|-----------------------------|-----------------------------|
---------------------------|-----------------------------|-----------------------------|
---------------------------|-----------------------------|-----------------------------|
---------------------------|-----------------------------|-----------------------------|
--0----0-3-0--L----L-3-5b--|--5-3-0--0-3-0--L----L-3-5b--|--5-3-0--0-3-0--L----L-3-5b--|


  S S E  S S E  Q    S S S S    Q    S S E  Q    S S E      S S E  S S E  Q    S S E
-----------------------------|---------------------------|-----------------------------|
-----------------------------|---------------------------|-----------------------------|
-----------------------------|---------------------------|-----------------------------|
---------------------5-5-5-5-|---------------------------|-----------------------------|
---------------------3-3-3-3-|---------------------------|-----------------------------|
--5-3-0--0-3-0--L------------|--0----0-3-0--L----L-3-5b--|--5-3-0--0-3-0--L----L-3-5b--|


  S S E  S S E  Q    S S E      S S E  S S E  Q    S S S S    Q    S S E  Q    S S E
-----------------------------|-----------------------------|---------------------------|
-----------------------------|-----------------------------|---------------------------|
-----------------------------|-----------------------------|---------------------------|
-----------------------------|---------------------5-5-5-5-|---------------------------|
-----------------------------|---------------------3-3-3-3-|---------------------------|
--5-3-0--0-3-0--L----L-3-5b--|--5-3-0--0-3-0--L------------|--0----0-3-0--L----L-3-5b--|


  S S E  S S E  Q    S S E      S S E  S S E  Q    S S E      S S E  S S E  Q    S S S S
-----------------------------|-----------------------------|-----------------------------||
-----------------------------|-----------------------------|-----------------------------||
-----------------------------|-----------------------------|-----------------------------||
-----------------------------|-----------------------------|---------------------5-5-5-5-||
-----------------------------|-----------------------------|---------------------3-3-3-3-||
--5-3-0--0-3-0--L----L-3-5b--|--5-3-0--0-3-0--L----L-3-5b--|--5-3-0--0-3-0--L------------||


Lead - center
    Intro
      W                    W                    W                    W
D#||--------------------|--------------------|--------------------|--------------------|
A#||--------------------|--------------------|--------------------|--------------------|
F#||--------------------|--------------------|--------------------|--------------------|
C#||--------------------|--------------------|--------------------|--------------------|
G#||--5b----------------|--5b----------------|--5b----------------|--5b----------------|
C#||--------------------|--------------------|--------------------|--------------------|


  W                    W                    W                    W
--------------------|--------------------|--------------------|--------------------|
--------------------|--------------------|--------------------|--------------------|
--------------------|--------------------|--------------------|--------------------|
--------------------|--------------------|--------------------|--------------------|
--5b----------------|--5b----------------|--5b----------------|--5b----------------|
--------------------|--------------------|--------------------|--------------------|


  Verse 1
  Q       E  E   H           W                   W                   W
--------------------------|-------------------|-------------------|-------------------|
--------------------------|-------------------|-------------------|-------------------|
--------------------------|-------------------|-------------------|-------------------|
--------------------------|-------------------|-------------------|-------------------|
-------------3b--L--------|-------------------|-------------------|-------------------|
--------------------------|-------------------|-------------------|-------------------|


  W                   W                   W                   W
-------------------|-------------------|-------------------|-------------------|
-------------------|-------------------|-------------------|-------------------|
-------------------|-------------------|-------------------|-------------------|
-------------------|-------------------|-------------------|-------------------|
-------------------|-------------------|-------------------|-------------------|
-------------------|-------------------|-------------------|-------------------|


  Q    E  E   H           W                   W                   W
-----------------------|-------------------|-------------------|-------------------|
-----------------------|-------------------|-------------------|-------------------|
-----------------------|-------------------|-------------------|-------------------|
-----------------------|-------------------|-------------------|-------------------|
----------3b--L--------|-------------------|-------------------|-------------------|
-----------------------|-------------------|-------------------|-------------------|


  Verse 2 - m.41
  W                    W                    W                    W
  W                    W                    W                    W
--------------------|--------------------|--------------------|--------------------|
--------------------|--------------------|--------------------|--------------------|
--------------------|--------------------|--------------------|--------------------|
--------------------|--------------------|--------------------|--------------------|
--5b----------------|--5b----------------|--5b----------------|--5b----------------|
--------------------|--------------------|--------------------|--------------------|


  Outro - m.95
                                                                           W
  W                   W                   W                   H        E   E   S E.
-------------------|-------------------|-------------------|-------------------------|
-------------------|-------------------|-------------------|-------------------------|
-------------------|-------------------|-------------------|-------------------------|
-------------------|-------------------|-------------------|-------------------------|
-------------------|-------------------|-------------------|--------------12---L-----|
-------------------|-------------------|-------------------|-------------------------|


   W
   H        H           W                    S  E.   S     S   E   H
---------------------|-------------------|----------------------------------|
---------------------|-------------------|----------------------------------|
---------------------|-------------------|----------------------------------|
--10-----------------|-------------------|--11---------10g12s-10---L--------|
---------------------|-------------------|-----12----L----------------------|
---------------------|-------------------|----------------------------------|


   Q.         E   H           W                   W
---------------------------|-------------------|-------------------|
---------------------------|-------------------|-------------------|
---------------------------|-------------------|-------------------|
---L-----------------------|-------------------|-------------------|
----------10g12---L--------|-------------------|-------------------|
---------------------------|-------------------|-------------------|


   S  E.   S     S   E   H            W                   W                   W
----------------------------------|--------------------|-------------------|-------------------||
----------------------------------|--------------------|-------------------|-------------------||
----------------------------------|--------------------|-------------------|-------------------||
--11---------10g12s-10---L--------|---L----------------|-------------------|-------------------||
-----12----L----------------------|--------------------|-------------------|-------------------||
----------------------------------|--------------------|-------------------|-------------------||


Lead - right

      Intro
      W                   W                   W                   W
D#||-------------------|-------------------|-------------------|-------------------|
A#||-------------------|-------------------|-------------------|-------------------|
F#||-------------------|-------------------|-------------------|-------------------|
C#||-------------------|-------------------|-------------------|-------------------|
G#||-------------------|-------------------|-------------------|-------------------|
C#||-------------------|-------------------|-------------------|-------------------|


  Q     E   E  H            Q     E   E  Q    S  S S S    Q     E   E  H
-------------------------|-----------------------------|-------------------------|
-------------------------|-----------------------------|-------------------------|
--9b----9b--7--L~--------|--6b----6b--2--L-------------|--9b----9b--7--L~--------|
-------------------------|--------------------7s-8-8-8-|-------------------------|
-------------------------|-----------------------------|-------------------------|
-------------------------|-----------------------------|-------------------------|


                                 Verse 1
                                                              \1/
  Q     E   E  Q    S  S S S     S      S S S H.              W                   W
-----------------------------|-----------------------------|-------------------|-----|
-----------------------------|--10-------------------------|-------------------|-----|
--6b----6b--2--L-------------|----------7-7-7-7------------|-------------------|-----|
--------------------7s-8-8-8-|----------------0------------|--0----------------|--L--|
-----------------------------|-----------------------------|-------------------|-----|
-----------------------------|-----------------------------|-------------------|-----|


  W                   W                   W                   W                   W
-------------------|-------------------|-------------------|-------------------|-----------------|
-------------------|-------------------|-------------------|-------------------|-----------------|
-------------------|-------------------|-------------------|-------------------|-----------------|
--L----------------|-------------------|-------------------|-------------------|-----------------|
-------------------|-------------------|-------------------|-------------------|-----------------|
-------------------|-------------------|-------------------|-------------------|-----------------|


                          \1/
  Q    E  E   H           W                   W                   W
-----------------------|-------------------|-------------------|-------------------|
-----------------------|-------------------|-------------------|-------------------|
-----------------------|-------------------|-------------------|-------------------|
-----------------------|--0----------------|--L----------------|--L----------------|
----------3b--L--------|-------------------|-------------------|-------------------|
-----------------------|-------------------|-------------------|-------------------|

  Verse 2 - m.45
                                    \1/
  Q              E  E   H           W                   W                   W
---------------------------------|-------------------|-------------------|-------------------|
---------------------------------|-------------------|-------------------|-------------------|
---------------------------------|-------------------|-------------------|-------------------|
---------------------------------|--0----------------|--L----------------|--L----------------|
--------------------3b--L--------|-------------------|-------------------|-------------------|
---------------------------------|-------------------|-------------------|-------------------|


  Outro - m.93 - use slide                                        feedback...................
  /2\                                                             <
  W                           W                   H        Q      Q
---------------------------|-------------------|----------------(19)----------------------|
---------------------------|-------------------|------------------------------------------|
--7------------------------|--L----------------|------------------------------------------|
---------------------------|-------------------|------------------------------------------|
---------------------------|-------------------|------------------------------------------|
---------------------------|-------------------|------------------------------------------|


                      no slide
          <
   Q      H           S        S  S   S     W
---L-----------------13--------L-13---L-|--13-----------------|
--------(19)~--------15b-------L-15b--L-|--15b----------------|
----------------------------------------|---------------------|
----------------------------------------|---------------------|
----------------------------------------|---------------------|
----------------------------------------|---------------------|


    feedback.........................
    <                                 <              <
    Q.                                E     Q    S   E.       W                   W
--(19)b--------------------------------------------(18)b---|-------------------|-----------------|
------------------------------------(18)b---L--------------|-------------------|-----------------|
-----------------------------------------------------------|-------------------|-----------------|
-----------------------------------------------------------|-------------------|-----------------|
-----------------------------------------------------------|-------------------|-----------------|
-----------------------------------------------------------|-------------------|-----------------|


  S  S E    H.              H.           Q        S S E  E  E  Q    S S E
-------------------------|---------------------|---------------------------|
-------------------------|---------------------|---------------------------|
--6h-7-9b---L------------|--L------------------|------------5--L----5-5-5--|
-------9b---L------------|--L------------------|--0-0-0--L-----------------|
-------------------------|---------------7b----|------------3--L-----------|
-------------------------|---------------------|---------------------------|


  H        S E    S  S   S  S   S     W                    W                   W
--------------------13---L-13---L-|--13-----------------|-------------------|-----------------|
-----------------15-15b--L-15b--L-|--15b----------------|-------------------|-----------------|
--L--------L-x/-------------------|---------------------|-------------------|-----------------|
----------------------------------|---------------------|-------------------|-----------------|
-------------x/-------------------|---------------------|-------------------|-----------------|
----------------------------------|---------------------|-------------------|-----------------|


  W
-------------------||
-------------------||
-------------------||
-------------------||
-------------------||
-------------------||


Duration Legend
---------------
W - whole
H - half
Q - quarter
E - 8th
S - 16th
T - 32nd
X - 64th
. - note dotted
|-n-|  - n-tuplets


Tablature Legend
----------------
L - tied note
x - dead note
g - grace note
(n) - ghost note
> - accentuded note
NH - natural harmonic
AH - artificial harmonic
TH - tapped harmonic
SH - semi harmonic
PH - pitch harmonic
h - hammer on
p - pull off
b - bend
br - bendRelease
pb - preBend
pbr - preBendRelease
brb - bendReleaseBend
\n/ - tremolo bar dip
\n - tremolo bar dive
-/n - tremolo bar Release up
/n\ - tremolo bar inverted dip
/n - tremolo bar return
-\n - tremolo bar Release down
S - shift slide
s - legato slide
/ -  slide into from below or out of upwards
\ -  slide into from above or out of downwards
~ - vibrato
W - wide vibrato
tr - trill
TP - tremolo picking
T - tapping
S - slap
P - pop
< - fade in
^ - brush up
v - brush down
comments
We did not receive enough feedback on this tab! Please rate:
1 2 3 4 5
I want to post or [tab]
guest
You may want to rate the tab now too:
select rating
Please do not post tabs as comments. Select "correction" instead!