Oops, an error
Loading. Please wait.

Alice In Chains Tab

39,273 views 24 this week
no commentswrite comment
1 2 3 4 5
accurate
x 4
Autoscroll
+/-
esc
set tempo
stop
Contributor
Hey! There's an official Ultimate Guitar app which is ideal
for learning songs when you're away from computer. Get the app
WARNING: You are trying to view
                                    content from Ultimate-Guitar.com
                                    in an unauthorized application,
                                    which is prohibited.

                                    Please use an official Ultimate
                                    Guitar Tabs application for iPhone,
                                    iPad or Android to access legitimate
                                    chords, guitar, bass, and drum tabs
                                    from Ultimate-Guitar.com database.

                                    Type "ultimate guitar tabs" in Apple
                                    App Store's or Android Market's
                                    search to find the application.
Band- Alice In Chains
Album- Alice In Chains

1.GRIND

verse riff/intro     fill 1          fill 2
   E5  F#5/G  Cadd9
e|------------3--|-----------------|-----------------|
B|------------3--|--15p12----------|--15p12----------|
G|------------5--|-------14--------|-------12--------|
D|--2-2--4/5-----|---------12~~~~--|---------11~~~~--|
A|--2-2--4/x-----|-----------------|-----------------|
E|--0-0--2/3-----|-----------------|-----------------|

   1st variation   2nd variation
    E5   F#5/G      E5 F#5/G  D
e|---------------|---------------|
B|------------0--|------------7--|
G|------------0--|------------7--|
D|--2-2--4/5--0--|--2-2--4/5--7--|
A|--2-2--4/x-----|--2-2--4/5--5--|
E|--0-0--2/3-----|--0-0--2/3-----|

[ every once in a while, change the verse riff with one of the       ]
[ variations. a second (lead) guitar plays the fills over the riffs. ]

*chorus "let the sun..."

 -rhythm guitar -lead guitar
e|-------------|-------------|
B|-------------|--4b-2-------|
G|--8--6--4-3--|--------4-3--|
D|--8--6--4-3--|-------------|
A|--6--4--2-1--|-------------|
E|-------------|-------------|

2.BRUSH AWAY

Intro - and verse riff
|---------------------|
|---------------------|
|----------------6----|     <== guitar 1
|---6---5_6_5-6-------|
|-4---4--------4------|
|---------------------|
(lead w/ vocals)
|-----3^4^3-4------------------| <===guitar 2
|------------------------------|
|------------------------------|
|-----5^6^5-6------------------| <== guitar 3
|------------------------------|
|------------------------------|

Chorus - (as *close* as i can get it)
Heavy palm mutes....
|------------------------------------|------------------------------------|
|------------------------------------|------------------------------------|
|------------------------------------|------------------------------------|
|------------------------------------|---------------2-2-4-4-4-4-4-4-4-4--|
|-2-4-4-5-5-2-2-0-0-4-4-4-4-4-4-4-4--|-2-4-4-5-5-2-2-0-0-2-2-2-2-2-2-2-2--|
|-2-4-4-5-5-2-2-0-0-4-4-4-4-4-4-4-4--|-2-4-4-5-5-2-2----------------------|

3.SLUDGE FACTORY

INTRO - play throughout the song

	  F5 Dsus2		   D5    D5
e    --------0---0--0--0--0--0--0--0--0--0--0--0--0-|
B    --------3---3--3--3--3--3--3--3--3--3--3--3--3-|
G    --------2---2--2--2--2--2--2--2--2--2--2--2--2-|
D    --1--3--0---0--0--0--0--0--0--0--0--0--0--0--0-|
A    --1--3--0---0--0--0--0--0--0--0--0--0--0--0--0-|
E    --1--1------------------------0-----0----------|

CHORUS
This is the bit Jerry plays

e    ------------------------------------|----------------------------------|
B    --2h3-s5-s10-8----------------------|--2h3-s5--------------------------|
G    ---------------7-6-5v---------------|---------5-4-2-4-4b--4-2----------|
D    ----------------------5-4-3v--------|-------------------------3--------|
A    -----------------------------3-4s5--|---------------------------3-4s5--|
E    ------------------------------------|----------------------------------|
       			Once again you see an in...

e    ------------------------------------|------------------------------|
B    --2h3-s5-s10-8----------------------|--2h3-s5-s10-8----------------|
G    ---------------7-6-5v---------------|---------------7-6-5v---------|
D    ----------------------5-4-3v--------|----------------------5-4-3v--|
A    -----------------------------3-4s5--|------------------------------|
E    ------------------------------------|------------------------------|
     			So afraid you kindly gurgle out...

Here's the chords which Scott plays in time with Jerry.

          F5 Cadd9		     F5
e    --------0--0--0--0--0--0--0--0-----------------------|
B    --------3--3--3--3--3--3--3--3-----------------------|
G    --------0--0--0--0--0--0--0--0-----------------------|
D    --1--3--2--2--2--2--2--2--2--2--3--3--3--3--3--3--3--|
A    --1--3--3--3--3--3--3--3--3--2--3--3--3--3--3--3--3--|
E    --1--1--------------------------1--1--1--1--1--1--1--|
				    Once again you see an in...

SOLO

E    -------------------------|--------------------------|
B    --------6-----6--8-7-6v--|------6---6v------6---6v--|
G    --5--7-----7-------------|--7-7---7-----7-7---7-----|
D    -------------------------|--------------------------|
A    -------------------------|--------------------------|
E    -------------------------|--------------------------|

E    -------------------------------|--------------------------------|
B    ------8-7-6--------------------|--------------------------------|
G    --7-7-------7--5h7-5h7-5h7-7v--|--5h7p5-------------------------|
D    -------------------------------|--------7-5-7-5-3--5-3-5p3------|
A    -------------------------------|----------------------------5v--|
E    -------------------------------|--------------------------------|

E    --------------------------------------|-------------------|
B    --------------------------------------|-------------------|
G    --------------------------------------|-------------------|
D    --------------------------------------|------3-3s5--7--5--|
A    --5p3-----------3--5--5---3---3h5-5v--|--3h5--------------|
E    -------3v----5--------------5---------|-------------------|

E    --------------------|-------------8--------------|
B    --------------------|--6---6--9b-----9r--6-8-----|
G    --------5--7-7-7-7--|----7-----|-------------7v--|
D    --5--7--------------|---------hold---------------|
A    --------------------|---------bend---------------|
E    --------------------|----------------------------|

4.HEAVEN BESIDE YOU

INTRO - Gtr 1, play this 10 times

e    -------------------------------------|
B    -------------------------------------|
G    -------------------------------------|
D    -----5br-----------0--------------0--|
A    ----------7-----7-----7--------5-----|
E    --0----------5-----------5--3--------|

CHORUS

       Aadd9	      G6	     Badd11	    Badd4	   Aadd9
e    --0--0--0--0--0--0--0--0--0--0--0--0--0--0--0--0--0--0--0--0--0--0--0--|
B    --0--0--0--0--0--0--0--0--0--0--0--0--0--0--0--0--0--0--0--0--0--0--0--|
G    --6--6--6--6--6--4--4--4--4--4--9--9--9--9--9--8--8--8--8--8--6--6--6--|
D    --7--7--7--7--7--5--5--5--5--5-10-10-10-10-10--9--9--9--9--9--7--7--7--|
A    --7--7--7--7--7--5--5--5--5--5-10-10-10-10-10--9--9--9--9--9--7--7--7--|
E    --5--5--5--5--5--3--3--3--3--3--8--8--8--8--8--7--7--7--7--7--5--5--5--|
       Like the coldest winter chill, heaven beside you, hell within...

BRIDGE - play this 2 times

e    -------------------------------------------------------------------|
B    -------------------------------------------------------------------|
G    ------0-------0-------0-------0-------0-------0-------0-------0----|
D    -------------------------------------------------------------------|
A    --3-3---3-3-3---3-4-4---4-4-4---4-5-5---5-5-5---5-6-6---6-6-6---6--|
E    --4-4---4-4-4---4-5-5---5-5-5---5-6-6---6-6-6---6-7-7---7-7-7---7--|
       So there's problems in your life, that's ***ed up, and I'm not blind...

Play this several times where needed

       Em
e    --0-0-0-------------------------|
B    --0-0-0-------------------------|
G    --0-0-0-------------------------|
D    --2-2-2---2v-----------0-----0--|
A    --2-2-2--------1b----2-----1----|
E    --0-0-0-0----0-----3-----2------|

SOLO

e    ------------------|-----------------------------------------|
B    ------------------|-----------------------------------------|
G    --14v--12-14-12v--|-----12----------12-14-14b--14-14-14-12--|
D    ------------------|--14----14-12h14-------------------------|
A    ------------------|-----------------------------------------|
E    ------------------|-----------------------------------------|

e    --------------------------------------|---------------------------|
B    --15-15-15s17s15--12-15-12----12------|---------------------------|
G    ---------------------------14----14v--|--12-----------------------|
D    --------------------------------------|-----14v--12-14------------|
A    --------------------------------------|----------------13s12-10v--|
E    --------------------------------------|---------------------------|

Here's the next bit Jerry plays in the solo, and he plays
this again at the end of the song - play several times

     let ring throughout
e    --0----------------------|--0----------------------|
B    -----12------------------|-----12------------------|
G    ---------15--15------15--|--------15--15------12v--|
D    -----------------14------|----------------14-------|
A    -------------------------|-------------------------|
E    -------------------------|-------------------------|

5.HEAD CREEPS

very beginning    |lead intro  | rhythm intro riff                |
                    |            | verse riff           x3          |
e:-----------------||-----------||---------------------------|--------|
B:-----------------||-----------||*-------------------------*|--------|
G:-----------------||-----------||---------------------------|--------|
D:2--------2-------||-----------||*2------------------------*|2---3---|
A:2--------2-------||10--9--/14||-2-------------------------|2---3----|
E:0--------0-------||-----------||-0---5b(6)b(5)b(6)b(5)b(6)-|0---1---|
                                   P.M. during intro only .....
=0D

   prechorus riff                                      | prechorus-chorus=

                                                       | transition
e:---------------------------------|------------------||--------------------|
B:*--------------------------------|-----------------*||--------------------|
G:---------------------------------|------------------||-----------------4~-|
D:*2---------7b(8)7b(8)7b(8)-b(8)7-|2----------------*||-10--9--5--4--2--2--|
A:-2---5-7-5----------------------6|2---5-7-5---------||-10--9--5--4--2-----|
E:-0-------------------------------|0---------6-6-6/7-||-8---7--3--2--0-----|
=0D


  |    chorus riff                                | that squeaky outro pa=
rt |
  |                                    x a bunch  |                      =
   |
e:|------------------|---------------------------||-10----10----11----12----|
B:|*-----------------|--------------------------*||*---11----11----11----11*|
G:|---------------4~-|------------------------4~-||-------------------------|
D:|*2--8--8/9--2--2--|-2------5-----4---3--2--2-*||*-----------------------*|
A:|-2--8--8/9--2-----|-2----5-----4--------2-----||-------------------------|
E:|-0--6--6/7--0-----|-0--3-----2-----1----0-----||-------------------------|

6.AGAIN

Intro
  Q=122
 4/4
  Gtr I
          PM----------|     PM------------------|
|-----||------------------|---------------------|
|-----||o-----------------|---------------------|
|-----||----6-----------7-|---------------------|
|-----||----6-----------7-|-5-5-5-5-5-5-5-------|
|-6-6-||o-6---6-6-6-6-6---|-5-5-5-5-5-5-5-5-5---|
|-4-4-||--4---4-4-4-4-4---|-3-3-3-3-3-3-3-3-3---|


 -|     PM------|       PM---------------------|
|---------------------|------------------------|
|---------------------|--------------------o---|
|----6-------------7--|------------------------|
|----6-------------7--|-5-5-5-5-5-5-5----------|
|-6-(4)-6-6-6-6-6-(5)-|-5-5-5-5-5-5-5-x-x--o---|
|-4-----4-4-4-4-4-----|-3-3-3-3-3-3-3-x-x------|


   Verses
    $
    PM  PM------|     PM------------------|   PM------|     PM------------------|
||------------------|-------------------|-----------------|---------------------|
||o-----------------|-------------------|-----------------|---------------------|
||----6-----------7-|-------------------|---6-----------7-|---------------------|
||----6-----------7-|-5-5-5-5-5-5-5-----|---6-----------7-|-5-5-5-5-5-5-5-------|
||o-6---6-6-6-6-6-5-|-5-5-5-5-5-5-5-5-5-|-6-4-6-6-6-6-6-5-|-5-5-5-5-5-5-5-5-5---|
||--4---4-4-4-4-4---|-3-3-3-3-3-3-3-3-3-|-4---4-4-4-4-4---|-3-3-3-3-3-3-3-3-3---|


  PM  PM------|     PM------------------|   PM------|     PM---------------------|
|-----------------|-------------------|-----------------|------------------------|
|-----------------|-------------------|-----------------|--------------------o---|
|---6-----------7-|-------------------|---6-----------7-|------------------------|
|---6-----------7-|-5-5-5-5-5-5-5-----|---6-----------7-|-5-5-5-5-5-5-5----------|
|-6---6-6-6-6-6-5-|-5-5-5-5-5-5-5-5-5-|-6-4-6-6-6-6-6-5-|-5-5-5-5-5-5-5-5-5--o---|
|-4---4-4-4-4-4---|-3-3-3-3-3-3-3-3-3-|-4---4-4-4-4-4---|-3-3-3-3-3-3-3-3-3------|


  PM  PM------|     PM------------------|   PM------|     PM--------------------|
|-----------------|-------------------|-----------------|-----------------------|
|-----------------|-------------------|-----------------|-----------------------|
|---6-----------7-|-------------------|---6-----------7-|-----------------------|
|---6-----------7-|-5-5-5-5-5-5-5-----|---6-----------7-|-5-5-5-5-5-5-5---------|
|-6---6-6-6-6-6-5-|-5-5-5-5-5-5-5-5-5-|-6-4-6-6-6-6-6-5-|-5-5-5-5-5-5-5-5-5-----|
|-4---4-4-4-4-4---|-3-3-3-3-3-3-3-3-3-|-4---4-4-4-4-4---|-3-3-3-3-3-3-3-3-3-----|


 Chorus
  $$
  AbDbAbAb      G       A
  Gtrs I, II
  | | |   |     |    |   |   |     |
  / / /   /     /    /   /   /     /

  Gtr III
                ~~~~~~~~
|-----------------|-----(0)-----0-(0)--0--|
|-----------------|------2------2-(2)--2--|
|-----------------|------0------0-(0)--0--|
|-----------------|-----------------------|
|-----4---5p4-----|-----------------------|
|-4-4-4-4-----4-3-|-(3)-----(3)-----------|


  AbDbAbAb         G       A
  | |  |     |     |    |  | |    |
  / /  /     /     /    /  / /    /

                   ~~~~~~~~
|--------------------|----------------0---|
|--------------------|-----2---2-(2)--2---|
|--------------------|-----0---0-(0)--0---|
|-----(4)---(4)------|--------------------|
|------4-----5p4-----|--------------------|
|-4-4--4--4------4-3-|-(3)---3------------|


  AbDbAbAb         G       A
  | |  |     |     |    |   |   |     |
  / /  /     /     /    /   /   /     /

                   ~~~~~~~~
|--------------------|-----(0)-----0-(0)---0--|
|--------------------|------2------2-(2)-2-2--|
|--------------------|------0------0-(0)-0-0--|
|-----(4)---(4)------|------------------------|
|------4-----5p4-x---|------------------------|
|-4-4--4--4--------3-|-(3)-----(3)------------|


                                 To Coda
                                 To Coda
  AbDbAbAb        G       A
  | |  |    |     |    |  | |    |
  / /  /    /     /    /  / /    /

                  ~~~~~~~~
|-------------------|----------------0---|
|-------------------|-----2---2-(2)--2---|
|-------------------|-----0---0-(0)--0---|
|-----(4)---4-------|--------------------|
|------4----5p4-----|--------------------|
|-4-4--4--4-----4-3-|-(3)---3------------|


                                                                D.S. al Coda
  Gtrs I, II
  PM  PM------|     PM------------------|   PM------|     PM--------------------|
|-----------------|-------------------|-----------------|-----------------------|
|-----------------|-------------------|-----------------|-----------------------|
|---6-----------7-|-------------------|---6-----------7-|-----------------------|
|---6-----------7-|-5-5-5-5-5-5-5-----|---6-----------7-|-5-5-5-5-5-5-5---------|
|-6---6-6-6-6-6-5-|-5-5-5-5-5-5-5-5-5-|-6-4-6-6-6-6-6-5-|-5-5-5-5-5-5-5-5-5-----|
|-4---4-4-4-4-4---|-3-3-3-3-3-3-3-3-3-|-4---4-4-4-4-4---|-3-3-3-3-3-3-3-3-3-----|


  &
  Gtr I
|-------------------|-------------------|---------------------|
|-------------------|-------------------|---------------------|
|---6-----------7-7-|---6-----------7-7-|---6-------------7-7-|
|---6-6-----0-5-7-7-|---6-6-----0-5-7-7-|---6-6-----<5>-5-7-7-|
|-6-4-6-------5-5-5-|-6-4-6-------5-5-5-|-6-4-6---------5-5-5-|
|-4-4-4-<4>---3-----|-4-4-4-<4>---3-----|-4-4-4-<4>-----3-----|


  Gtr III
  <
  ~~~~~
|-------------------------|
|-------------------------|
|-6pb7====================|
|-------------------------|
|-------------------------|
|-------------------------|
|
| Gtr II                  G
|-------------------------|
|-------------------------|
|---------5-----------7-7-|
|-6-----6-6---------5-7-7-|
|-6-----4-6---------5-5-5-|
|-4-----4-4-<4>-<3>-3-----|


                                 ~
|--------------------------|--------------------------|
|---7b9==(7)--7---7--7-7-7r|=(7)-7-------(7)----------|
|--------------------------|-----------------6b7======|
|--------------------------|--------------------------|
|--------------------------|--------------------------|
|--------------------------|--------------------------|
|
|trs I, II
|--------------------------|--------------------------|
|--------------------------|--------------------------|
|---6------------------7-7-|-----6----------------7-7-|
|---6-----6----------5-7-7-|--6--6-6---------5----7-7-|
|-6-4-----6----------5-5-5-|--6--4-6---------5----5-5-|
|-4-4-----4--<4>-<3>-3-----|--4----4-<4>-<3>-3--------|


         ~~~~~~~~~~~~~~~~~~~~~~~~~~~~~~~~~~~~~~~~~~~~
|---------------------------|-----------------------|
|---------------------------|-----------------------|
|-(6)---(6)-----------(6)r==|=(6)-------------------|
|---------------------------|-----------------------|
|---------------------------|-----------------------|
|---------------------------|-----------------------|
|
|---------------------------|-----------------------|
|---------------------------|-----------------------|
|-----6----------------7--7-|-----6-------------7-7-|
|--6--6--6----------5--7--7-|--6--6-6---------5-7-7-|
|--6--4--6----------5--5--5-|--6--4-6---------5-5-5-|
|--4-----4--<4>-<3>-3-------|--4----4-<4>-<3>-3-----|


 ~~~~~
|-------------------------------|
|-----7b9==(7)--7---7--7-[7]-7r=|
|-(6)---------------------------|
|-------------------------------|
|-------------------------------|
|-------------------------------|
|
|-------------------------------|
|-------------------------------|
|-----6-------------------7--7--|
|--6--6-----6----------5--7--7--|
|--6--4-----6----------5--5--5--|
|--4--------4--<4>-<3>-3--------|


      ~
|----------------------------|---------------------------|
|-(7)-7-------(7)------------|---------------------------|
|-----------------6b7====(6)-|-(6)---------------(6)r(6)-|
|----------------------------|---------------------------|
|----------------------------|---------------------------|
|----------------------------|---------------------------|
|
|----------------------------|---------------------------|
|----------------------------|---------------------------|
|-----6----------------7--7--|-----6--------------7---7--|
|--6--6-6---------5----7--7--|--6--6-6---------5--7---7--|
|--6--4-6---------5----5--5--|--6--4-6---------5--5---5--|
|--4----4-<4>-<3>-3----------|--4----4-<4>-<3>-3---------|


   ~~~~~~~~~~~~~~~  T
|--------------------------------|----------------------|
|--------------------------------|----------------------|
|-(6)---------(6)-4-4(16)b6==(4)-|-(4)r==========(4)----|
|--------------------------------|----------------------|
|--------------------------------|----------------------|
|--------------------------------|----------------------|
|
|                                      PM-----------------|
|--------------------------------|------------------------|
|--------------------------------|------------------------|
|-----6-------------7---------7--|-----6-------------7----|
|--6--6-6---------5-7---------7--|--6--6-6-6-6-6--6--7----|
|--6--4-6---------5-5---------5--|--6--4-6-6-6-6--6--5----|
|--4----4-<4>-<3>-3--------------|--4----4-4-4-4--4-------|


  Gtrs I, II
   PM-------------------|     PM--------------|
|---------------------|-----------------------|
|---------------------|-----------------------|
|-(4)-----------------|----6-------------7----|
|--5--5-5-5-5-5-5-----|----6-------------7----|
|--5--5-5-5-5-5-5-5-5-|-6-(4)-6-6-6-6-6-(5)---|
|--3--3-3-3-3-3-3-3-3-|-4-----4-4-4-4-4-------|


                       Verse 3
  PM--------------------|   PM-------------|
|-------------------||---------------------|
|-------------------||o--------------------|
|-------------------||----6-----------7----|
|-5-5-5-5-5-5-5-----||----6-----------7----|
|-5-5-5-5-5-5-5-x-x-||o-6---6-6-6-6-6------|
|-3-3-3-3-3-3-3-x-x-||--4---4-4-4-4-4------|


  PM------------------|   PM------------|
|-------------------|-------------------|
|-------------------|-------------------|
|-------------------|---6-----------7---|
|-5-5-5-5-5-5-5-----|---6-----------7---|
|-5-5-5-5-5-5-5-5-5-|-6-4-6-6-6-6-6-5---|
|-3-3-3-3-3-3-3-3-3-|-4---4-4-4-4-4-----|


 1.,2.                  3.
                     D.S.S. al Dbl. Coda
  PM----------------------------------------|
|--------------------||---------------------|
|-------------------o||---------------------|
|--------------------||---------------------|
|-5-5-5-5-5-5-5------||-5-5-5-5-5-5-5-5-----|
|-5-5-5-5-5-5-5-5-5-o||-5-5-5-5-5-5-5-5-----|
|-3-3-3-3-3-3-3-3-3--||-3-3-3-3-3-3-3-3-----|


  &&
  Gtrs I, II
|-------------------|-------------------|---------------------|
|-------------------|-------------------|---------------------|
|---6-----------7-7-|---6-----------7-7-|-----------------7-7-|
|-6-6-6-------5-7-7-|-6-6-6---x-0-5-7-7-|-6-6-6-----x-0-5-7-7-|
|-6-4-6-----5-5-5-5-|-6-4-6-------5-5-5-|-6-4-6---------5-5-5-|
|-4-4-4-<4>-3-3-----|-4---4-4-----3-----|-4-4-4-<4>-----3-----|


                      Outro
  Gtr III
|-------------------||----------------------------------------|
|-------------------||---7b9==(7)-7--7--[7]-[7]-[7]-[7]r([7])-|
|-------------------||----------------------------------------|
|-------------------||----------------------------------------|
|-------------------||----------------------------------------|
|-------------------||----------------------------------------|
|
| Gtrs I, II
|-------------------||----------------------------------------|
|-------------------||----------------------------------------|
|---6-----------7-7-||---6-----------------------7---7--------|
|-6-6-6-------5-7-7-||-6-6--------6----------5---7---7--------|
|-6-4-6-----5-5-5-5-||-6-4--------6------5---5---5---5--------|
|-4-4-4-<4>-3-3-----||-4-4--------4-<4>--3---3----------------|


      ~~~~~~~~~~~~
|----------------------------|
|-(7)-7-------(7)------------|
|-----------------6---(6)b7==|
|----------------------------|
|----------------------------|
|----------------------------|
|
|----------------------------|
|----------------------------|
|-----6-------------7--7-----|
|--6--6-6---------5-7--7-----|
|--6--4-6------5--5-5--5-----|
|--4--4-4-<4>--3--3----------|


                           ~~~
|-----------------------|---------------------|
|-----------------------|---------------------|
|-(6)-------------(6)r==|=(6)-----------------|
|-----------------------|---------------------|
|-----------------------|---------------------|
|-----------------------|---------------------|
|
|-----------------------|---------------------|
|-----------------------|---------------------|
|-----6------------7--7-|-----6-----------7-7-|
|--6--6-6-------5--7--7-|--6--6-6-------5-7-7-|
|--6--4-6-----5-5--5--5-|--6--4-6-----5-5-5-5-|
|--4--4-4-<4>-3-3-------|--4--4-4-<4>-3-3-----|


||------------------------------------|
||o-----7b9==(7)--7--[7]-[7]-[7]-[7]r=|
||--(6)-------------------------------|
||------------------------------------|
||o-----------------------------------|
||------------------------------------|
|
||------------------------------------|
||o-----------------------------------|
||------6---------------------7---7---|
||---6--6-----6-----------5---7---7---|
||o--6--4-----6-------5---5---5---5---|
||---4--4-----4--<4>--3---3-----------|


      ~~~~~~~~~~~~
|----------------------------|-----------------------|
|-(7)-7-------(7)------------|-----------------------|
|-----------------6---(6)b7==|=(6)-------------(6)r==|
|----------------------------|-----------------------|
|----------------------------|-----------------------|
|----------------------------|-----------------------|
|
|----------------------------|-----------------------|
|----------------------------|-----------------------|
|-----6-------------7--7-----|-----6------------7--7-|
|--6--6-6---------5-7--7-----|--6--6-6-------5--7--7-|
|--6--4-6------5--5-5--5-----|--6--4-6-----5-5--5--5-|
|--4--4-4-<4>--3--3----------|--4--4-4-<4>-3-3-------|


  ~
|--------------------||----------------------------|
|-------------------o||-----7b9==(7)--7--7-7-7-7r==|
|-6------------------||-(6)------------------------|
|--------------------||----------------------------|
|-------------------o||----------------------------|
|--------------------||----------------------------|
|
|--------------------||----------------------------|
|-------------------o||----------------------------|
|---6-----------7-7--||-----6----------------7-7---|
|-6-6-6-------5-7-7--||--6--6-----6--------5-7-7---|
|-6-4-6-----5-5-5-5-o||--6--4-----6------5-5-5-5---|
|-4-4-4-<4>-3-3------||--4--4-----4--<4>-3-3-------|


      ~~~~~~~~~~~~
|----------------------------|
|-(7)-7-------(7)------------|
|-----------------6---(6)b7==|
|----------------------------|
|----------------------------|
|----------------------------|
|
|----------------------------|
|----------------------------|
|-----6-------------7--7-----|
|--6--6-6---------5-7--7-----|
|--6--4-6------5--5-5--5-----|
|--4--4-4-<4>--3--3----------|


                   T        T          ~~
|------------------------------------|---------------------*|
|------------------------------------|---------------------*|
|-(6)---------(6)-18p6-(6)-(6(18))---|-6r=============(6)--*|
|------------------------------------|---------------------*|
|------------------------------------|---------------------*|
|------------------------------------|---------------------*|
|
|------------------------------------|---------------------*|
|------------------------------------|---------------------*|
|-----6-----------------7----------7-|---6-----------------*|
|--6--6-6------------5--7----------7-|-6-6-6---------------*|
|--6--4-6------5-----5--5----------5-|-6-4-6-----<5>-------*|
|--4--4-4-<4>--3-----3---------------|-4-4-4-<4>-<3>-------*|

7.SHAME IN YOU

Intro: D   C#  C    A

Lead Riff:  Bb|-----12b-(14)-12-----

Verse 1:

           D                       C#                   C                  A
When I waken,   And I'm achin', Time for sleepin', yeah

               D                    C#                      C
                 A                                     When I'm sayin',  Time
to go and,  I've been hurtin', yeah

               D                  F#                  C              A
When I'm layin',  I'm still trying,  Concentrating on dyin', yeah

Chorus:

D  F#  F   A   (pick out, don't strum)

          D
You're right as rain

               F#
But you're wrong to blame

                 F               A
Agreed my crime's the same

      D
My sin's I'll claim

             F#
Give you back shed pain

     F                            A
Go find a place for own shame, yeah

     D
So you can deal

              F#
With this thing unreal

           F                          A
No one made you feel any hurt, yeah

Verse 2:

Body's movin',  Only Provin',
No one heeds to move

Still believin',  Yet mistaken,
All God's children, yeah

And I must say, I was stupid
Selfishly she consumed, yeah

Chorus:

And you must change, patterns all we trained
or n'er regain peace you seek
Now you hear me, for the things I see
Yeah, I believe in inner peace, yeah

Bridge:

D              C             G             D
Throw out,  Blow up,  Hold in

D              C            G                 D     A
Show fine, No signs, Grow Blind

8.GOD AM

Tune down half-step to Eb and Drop D

Intro and Verse.  Play Loosely.

Eb----------------------0--------------------------------0-------------------|
Bb----------------------0----------------0--------------0--------------------|
Gb---------------------------------------3-----------------------------------|
Db--8--6-6-6--8--2---X--------2-2-2--X--------2-2-2---X----------------------|
Ab--8--6-6-6--8--2---X--------2-2-2--X--------2-2-2---X----------------------|
Db--8--6-6-6--8--2---X--------2-2-2--X--------2-2-2---X----------------------|
Chorus
Eb------------------------------------------------------------------------------------|
Bb------------------------------------------------------------------------------------|
Gb------------------------------------------------------------------------------------|
Db--2--2--2-/-6-6-6--4--4--4-----------2--2--2-/-6--6--6---4-4---2--------------------|
Ab--2--2--2-/-6-6-6--4--4--4-----------2--2--2-/-6--6--6---4-4---2--------------------|
Db--2--2--2-/-6-6-6--4--4--4-----------2--2--2-/-6--6--6---4-4---2--------------------|
       Can I be as my God Am?            God   of   all   my   God  Am.

Solo and Chorus Fill
Eb----------------------------------------------------------------------------------|
Bb----------------------------------------------------------------------------------|
Gb----------------------------------------------------------------------------------|
Db----------------------------------------------------------------------------------|
Ab---2--2/-6/-4-4/--2-2-2---1-2-1---------------------------------------------------|
Db------------------------------------------6---------------------------------------|

9.SO CLOSE

E-------------------------------------------------------------------------------|
B-------------------------------------------------------------------------------|
G-------------------------3--------3--------2-----------------------3--------3--|
D--------3--------2----------3--------------3--------3--------2-----3--3--3--3--|
A--------------------1----------1--------3-----------------------1-----1--1--1--|
E--0--3-----0--2----------------------1--------0--3-----0--2--------------------|

-------------||
-------------||
------2------||
------3------||
---3---------||
1------------||


                                                  4x
E-------------------------------------------------||
B-------------------------------------------------||
G------------------------3--------3--------2------||
D--------3--------2---------3--------------3------||
A--------------------1---------1--------3---------||
E--0--3-----0--2---------------------1------------||


    ~~~~~~~~~~~                            2x
E----------------0-------------------------||
B-------------------6----------------------||
G--(0)-----------------7-----7--0--0-------||
D-------------------------8----------------||
A------------------------------------------||
E------------------------------------------||

CHORUS


E--------------------0-----------------------------0-----------------------------|
B--------------------0-----------------------------0-----------------------------|
G-------------3------3----------------------3------3------------------------2--1-|
D--2--3--4----4------4------------2--3--4---4------4--------4--3--2----2----2--2-|
A--2--3--4----4---4--4------------2--3--4---4---4--4--------4--3--2----2----2--2-|
E--0--1--2----2---2--2------------0--1--2---2---2--2--------2--1--0----0----0--0-|

------------------------0---||
------------------------0---||
-----1--2--2--2--2--1---1---||
-----2--2--2--2--2--2---2---||
-----2--2--2--2--2--2---2---||
-----0--0--0--0--0--0---0---||

10.NOTHIN'

gtr. 1:  D7b5        D

gtr. 2:
-------------------------------|
----------15---------12--------|
----------14---------12--------|
-----------0---------12--------|
-------------------------------|
-------------------------------|

repeat that a bunch, then riff A:
    hold bend
-------------------------------0------------|
-2b--2-2-2-2--r2--3-2br(2)--------0---------|
---------------------------2b---------0-----|
--------------------------------------0-----|
--------------------------------------0-----|
--------------------------------------0-----|

repeat that in the verses, then:

"workin   so   late?"
----------------------0------0------0------0------------------------------|
-----3-2br(2)---2b------0------0------0------0----------------------------|
--------------------------b2-----b2-----b2-----b2r(2)---------------0-----|
-------------------------------------------------------2-2-2-2-2-2--0-----|
-------------------------------------------------------2-2-2-2-2-2--0-----|
-------------------------------------------------------2-2-2-2-2-2--0-----|

the part during the chorus is:

gtrs 1 + 2:
------------------------------------------------|
-----------15b~~~~~~~~--------------------------|
-0---------14b~~~~~~~~--------------------------|
-0----------0-----------------------------------|
-0----------0-----------------------------------|
-0----------------------------------------------|

gtr. 3:       hold bend
-------------------------------------------------|
-------------------------------------------------|
-8--8--8--8--8b--8--8--8r(8)---------------------|
-------------------------------------------------|
-------------------------------------------------|
-------------------------------------------------|
(gtr 3 w/ flange)


11.FROGS

INTRO - play several times

e    --------------------------------------------------|
B    --------------------------------------------------|
G    --------------------------------------------------|
D    --------5--------5--------5--------5-----5-----5--|
A    -----4--------4--------4--------4-----------------|
E    --0--------0--------0--------0--------4-----3-----|

PRE CHORUS - play 3 times

       G5		 G5
e    --------------------------------------|
B    --------------------------------------|
G    --------------------------------------|
D    --------5--------5--------5--------5--|
A    -----5--------4--------5--------4-----|
E    --3--------3--------3--------3--------|

CHORUS - play 4 times
		  	  Cadd9
e    ---------------------0--0--0--0--0--0--0--|
B    ---------------------3--3--3--3--3--3--3--|
G    --3--3--3--3--5--3---0--0--0--0--0--0--0--|
D    --3--3--3--3--3--3---2--2--2--2--2--2--2--|
A    --3--3--3--3--3--3---3--3--3--3--3--3--3--|
E    --4--4--4--4--4--4------------------------|
       Why's it have to be this way?

SOLOS
Jerry plays this at 2:31 and again at 4:10

e    ------------8-10-10b-10-8-------10----|------------8-10-10b--10-8-10b--|
B    ----------8---------------8v--8----8--|----------8---------------------|
G    ------8-7-----------------------------|------8-7-----------------------|
D    --5-6---------------------------------|--5-6---------------------------|
A    --------------------------------------|--------------------------------|
E    --------------------------------------|--------------------------------|
       Be this way...			      Be this way..

							      G6
e    ------------8-10-10b-10-8-------10----|------------8-10--0--(0)--|
B    ----------8---------------8v--8----8--|----------8-------0--(0)--|
G    ------8-7-----------------------------|------8-7---------4--(4)--|
D    --5-6---------------------------------|--5-6-------------5--(5)--|
A    --------------------------------------|------------------5--(5)--|
E    --------------------------------------|------------------3--(3)--|
       Be this way...			      Be this way.


At 5:53 Jerry plays this riff 8 times

e    --------------------------------------|
B    --------------------------------------|
G    --3b--------3-------------------------|
D    ------4--5-----------4----------------|
A    ---------------4--5-----------4br-----|
E    ------------------------3--5-------0--|

Jerry then continues with harmonics as below

          Harm...		  	   Harm
e					   5
B    --7--7--7--7--7--7---7--7-- etc, then
G       \
D       you get the higher pitched sound on the
A       first note by pressing the string down
E       and slightly to the right of the 7th fret.

12.OVER NOW

guitar 4, electric w/distortion tone control set to 0. (standard half step
down tuning)

1st solo:
                                                        yeah we pay our debt sometime
         We pay our debt sometime                 (hold bend)
-------------------------------------------------------------------------12------------|
----------------------------------9-10-9~~~~~9-10-12-12b~~~~~~~--------------b12r(12)--|
-7b--7b7b----------------------11------------------------------------------------------|
---------------------------------------------------------------------------------------|
---------------------------------------------------------------------------------------|
---------------------------------------------------------------------------------------|

----------------------------------------------------------------|
-10~~~~9h10p9-----11br(11)--------------------------------------|
--------------9~~----------9~~-9br(9)p7~~~~-6--7p6---9br(9)-----|
----------------------------------------------------------------|
----------------------------------------------------------------|
----------------------------------------------------------------|

This is where it gets tricky because an octaver is used, which doubles
everything one octave below.

---------------------------------------------------------------------------------------|
---------------------------------------------------------------------------------------|
-----------------11br(11)--9-----------------------------------------------------------|
--9/11-11~~-9-11-------------12p11h12p11p9----9------------------------------9h11--9~~-|
-------------------------------------------12---12p11--12p11-9~~-11-12p11-12-----------|
---------------------------------------------------------------------------------------|

                        octaver off:
-------------------------------------------------------------------------|
-------------------------------------------------------------------------|
------------------------------------------------11br(11)--9h11-----------|
------------9br(9)---------------------11br(11)-----------------11br(11)-|
-9--9--9--7--------7~~~~~------------------------------------------------|
-------------------------------------------------------------------------|

that does it for the first solo, here's the second one, same guitar:

                             we pay our debt sometime
--------------------------------------------------------------|
--------------------------------------------------------------|
--------------------------------------------------------------| repeat once, only slide
-------------9~~-----------9~~------6br(6)-----6--7-----------| to to 9 second time.
-4br(4)-4/7------4b(4)-4/7-----------------9-------------9~~~-|
--------------------------------------------------------------|


------------------------------------------------------------------------------|
------------------------------------------------------------------------------|
-------------------------9--------9b-b9r(9)-7-6br(6)-------------6/7--9-9~~---|
------------11-11b-11-/9---7-------------------------7-------7-7--------------|
-9-11br(11)--------------------------------------------9--9-------------------|
------------------------------------------------------------------------------|

--------------------10~~-9-10-12b-12~~-10-9-10-9---------------------------------|
---10br10~~~-9-10p9-------------------------------12b--12br(12)b--12br(12)p10~~~-|
-7-------------------------------------------------------------------------------|
---------------------------------------------------------------------------------|
---------------------------------------------------------------------------------|
---------------------------------------------------------------------------------|

--19b-19b-19-17-----22b-22b---22b-22b--21---------|
--------------------------------------------------|
--------------------------------------------------|
--------------------------------------------------|
--------------------------------------------------|
--------------------------------------------------|

Questions, comments, or requests, e-mail krinks@apk.net


===============================================================================


From: Nutshell@keene.k12.nh.us (Tim)
Tab done by: Jeremy at 5403208@mail-1.ns.net

****TUNED IN OPEN D AND A HALF STEP DOWN****

Tuning (low to high):  D-A-D-F#-A-D


Rythym Figure #1

-4--7-6-4-4-4-4---4-4--4-4-|
-4--4-4-4-7-6-4---4-4--4-4-|
-4--4-4-4-4-4-4---5-4--5-4-|
-4--4-4-4-4-4-4---4-4--4-4-|
-4--4-4-4-4-4-4---4-4--4-4-|
-4--4-4-4-4-4-4---4-4--4-4-|


Rythym Figure #2

-3-2-0-0-0-0---0-0--0-0-|
-0-0-0-3-2-0---0-0--0-0-|
-0-0-0-0-0-0---2-0--2-3-|
-0-0-0-0-0-0---0-0--0-0-|
-0-0-0-0-0-0---0-0--0-0-|
-0-0-0-0-0-0---0-0--0-0-|


Intro: Fig. 1, Fig. 2, Fig. 1, Fig. 2

Verse: Fig. 1 x2, Fig. 2, Fig. 1


Chorus: ("You know it's been on my mind...")

-7----7----7--7----7--7--7---7--7--6----6---6--6---9---9--9--9---9--9--9--9-|
-7---10---10--7----7--7-10--10-10--6----9---9--9--12--12-12--9---9--9-12-12-|
-7----7----7--7----7--7--7---7--7--6----6---6--6---9---9--9--9---9--9--9--9-|
-7----7----7--7----7--7--7---7--7--6----6---6--6---9---9--9--9---9--9--9--9-|
-7----7----7--7----7--7--7---7--7--6----6---6--6---9---9--9--9---9--9--9--9-|
-7----7----7--7----7--7--7---7--7--6----6---6--6---9---9--9--9---9--9--9--9-|

Repeat Verse for ost-chorus


2nd and 3rd Post-chorus picking figures:

-----------------------------------2-------|
-------0--------2-------4------------0-----|
-----3---3--------3-------3-----3------3---|
-----------------------------------------0-|
-------------------------------------------|
-4-----------4-------4-------4-------------|

--------------------------------0-------|
------0-------2------4------------4-----|
----3---3-------3------3-----3------3---|
--------------------------------------0-|
----------------------------------------|
-0---------0-------0------0-------------|


Outro:

----0---------0---------0---------0------|
--------4----------4---------4---------4-|
-----------------------------------------|
-----------------------------------------|
-4----4----4----4----4----4----4----4----|
-4----4----4----4----4----4----4----4----|

---------0---------0---------0---------0-|
---4----------4---------4---------4------|
-----------------------------------------|
-----------------------------------------|
-0----0----0----0----0----0----0----0----|
-0----0----0----0----0----0----0----0----|


After playing outro a few times, rest for 1/2 measure
and play this:


----0-----------------------0------|
---------4-----------------------4-|
---------0-----------------------0-|
-----------------------------------|
-4----4------------------0----0----|
-4----4------------------0----0----|

------------------------------|
---------9^11-------9^11^9----|
-7^8^7----------------------8-|
------------------------------|
------------------------------|
------------------------------|


===============================================================================


From: Eric (Rea), reag@wave.co.nz

The relative tuning for this song is definitely DADF#AD(low to high)
despite many postings of an alternate tuning (DADF#DG).  Believe me
I've tried and it is nearly impossible to play it this way.  Any way,
if your playing along with the album or something, because AIC tunes
1/2 step down always, the actual tuning would be C#/G#/C#/F/C#/F#, but
who has time to do that anyway?  The previous posting of this has the
first part half right at least.

Verse Fig.1 (play twice on most times)

D-|-4-4-7-6-4-4-4-4-----4-4-x---4-x-4-|   <- x=fret hand muting
A-|-4-4-4-4-4-7-6-4-----4-4-x---4-x-4-|
F#|-4-4-4-4-4-4-4-4-----5-4-x---5-x-7-|
D-|-4-4-4-4-4-4-4-4-----4-4-x---4-x-4-|
A-|-4-4-4-4-4-4-4-4-----4-4-x---4-x-4-|
D-|-4-4-4-4-4-4-4-4-----4-4-x---4-x-4-|

Verse Fig.2 (Follows Fig.1, play once)

D-|-0-0-3-2-0-0-0-0-----0-0-x---0-x-0-|   <- x=pick hand muting
A-|-0-0-0-0-0-3-2-0-----0-0-x---0-x-0-|
F#|-0-0-0-0-0-0-0-0-----2-0-x---2-x-3-|
D-|-0-0-0-0-0-0-0-0-----0-0-x---0-x-0-|
A-|-0-0-0-0-0-0-0-0-----0-0-x---0-x-0-|
D-|-0-0-0-0-0-0-0-0-----0-0-x---0-x-0-|

Thie previous posting had the chorus right, but if you didn't catch
it, here it is again.

Chorus (play once)

D-|-7----7----7--7----7--7--7---7--7--6--|
A-|-7---10---10--7---10-10-10--10-10--9--|
F#|-7----7----7--7----7--7--7---7--7--6--|
D-|-7----7----7--7----7--7--7---7--7--6--|
A-|-7----7----7--7----7--7--7---7--7--6--|
D-|-7----7----7--7----7--7--7---7--7--6--|


--6---6--6---9---9--9--9---9--9--9--9|
--9---9--9---9--12-12--9---9--9--9--9|
--6---6--6---9---9--9--9---9--9--9--9|
--6---6--6---9---9--9--9---9--9--9--9|
--6---6--6---9---9--9--9---9--9--9--9|
--6---6--6---9---9--9--9---9--9--9--9|

                                                   pg.1
(on the chorus, listen to the song or use your own judgement on when
to hit that one note in each chord with your pinky.)
Bridge Fig.1 (listen to song for when to play this)
D-|-----------------------------------2-------|
A-|-------0--------2-------4------------0-----|
F#|-----3---3--------3-------3-----3------3---|Immediately followed by
D-|-----------------------------------------0-|      Fig.2
A-|-------------------------------------------|
D-|-4-----------4-------4-------4-------------|

Bridge Fig.2
D-|--------------------------------0-------|
A-|------0-------2------4------------4-----|
F#|----3---3-------3------3-----3------3---|Then return to Fig.1
D-|--------------------------------------0-|     again.
A-|----------------------------------------|
D-|-0---------0-------0------0-------------|

Outro - new and improved
D-|----0---------0---------0---------0-------|
A-|--------4----------4---------4---------4--|
F#|--------0--------------------0------------|
D-|------------------------------------------|
A-|-4----4----4----4----4----4----4----4-----|
D-|-4----4----4----4----4----4----4----4-----|

D-|---------0---------0---------0---------0--|
A-|---4----------4---------4---------4-------|
F#|---0--------------------0-----------------|Then Repeat this a
D-|------------------------------------------| couple times.
A-|-0----0----0----0----0----0----0----0-----|
D-|-0----0----0----0----0----0----0----0-----|
To end the last repeat of the outro, the bottom 3 strings are strum
like this.
D-|-------|
A-|-------|
F#|-------|
D-|---0---|
A-|---0---|
D-|---0---|

At the end, it repeats only half a bar of the outro, like this.
D-|----0-----------------------0-------|
A-|---------4-----------------------4--|
F#|---------0-----------------------0--|
D-|------------------------------------|
A-|-4----4------------------0----0-----|
D-|-4----4------------------0----0-----|

And the lead plays this one weird riff with a few variations.
D-|---------------------------------|
A-|----------9b11-------9-9b11r9----|
F#|--7b8r7------------------------8-|
D-|---------------------------------|
A-|---------------------------------|
D-|---------------------------------|


===============================================================================


From: MeltTheSky@aol.com (Adam)

here it is.. best i could figure out (just  the intro/chorus/whatever)
(a poorly tabbed out song by: ADAM aka MeltTheSky@aol.com)
btw this is my first time tabbing anything ever! :-) hope it doesnt suck!

----------------------------------------|----------------------------------------------|
-10---10---10--10-----------------------|--6-6-6---6-6-6--6-6-6-6----------------------|
---------10---13---12--10--10--10--10-----------|--6-9-8---6-6-6--6-6-6-6--------------|
-----------------10---10---10--10--13--12--10---8--8--7-|--6-6-6---9-8-6--6-8----------|
8-6-----------------------------------------------------8--8--8-|----------------------|
------------------------------------------------------------------------|--------------|
---------------------------------------------------------------------------------------|

~adam


===============================================================================


From: waltb@netcom.ca (Mike Byj)

Tuning- E#, A#, D#, G#, B#, E# (I recommend using a capo)

Riff 1-
1: 0---0---3---2---0---X---X---X---0---0---X---0---0-|
2: 0---0---X---X---X---3---2---0---0---1---0---1---0-|
3: 1---1---1---1---1---1---1---1---1---2---1---2---1-|
4: 2---2---2---2---2---2---2---2---2---2---2---2---2-|
5: 2---2---2---2---2---2---2---2---2---X---2---X---2-|
6: 0---0---0---0---0---0---0---0---0---X---0---X---0-|

Riff 2-
1: 0---0---0---0---0---0---0---0---0---0---0-|
2: 1---1---4---3---1---X---X---1---1---1---1-|
3: X---X---X---X---X---3---2---0---X---2---X-|
4: 2---2---2---2---2---2---2---2---2---2---2-|
5: 3---3---3---3---3---3---3---3---3---3---3-|
6: X---X---X---X---X---X---X---X---X---X---X-|


-And this repeats a bunch of times, you can figure it out.
 This is the chorus riff. You'll have to practice it alot.


1: 3---3---X---|(repeats or something)
2: 6---6---X---|
3: 4---4---X---|
4: 3---3---X---|
5: 5---5---X---|
6: 3---3---X---|

Then you slide that chord down to the 2nd fret and play it there.
Then this chord

1: 3---3---2---3-|
2: 2---2---2---2-|
3: 2---2---2---2-|
4: 2---2---2---2-|
5: 0---0---0---0-|
6: X---X---X-----|X and then back to e chord riff (Riff 1)

You should be able to figure the solo out for yourself.
It's really easy except for the super high ending part,
and My les paul only has 22 frets, so I can't reach that
high unless I make a really hard bend. Oh well. The tab
might not be exactly right because I didn't feel like
writing the chords as many times as they are played.
You should be able to figure it out...


===============================================================================


From: Veryhairy@aol.com

OK everybody this is my first tab so bear with me on this one


Intro:


e:4-3-1----------1-1-1                                ----------------------4---|
b:-------4-3-1---1-3-1                                5-4-2-----------------6---|
g:---------------2-3-2 repeat that a few times then: --------4-3-1----------6---|
d:---------------3-3-3                               -----------------------6---|
a:---------------3-3-3                               -----------------------4---|
e:---------------1-1-1                                  ----------------------x-|


For the next part you use these three chords:

e:4-3-6
b:4-3-6
g:5-4-7
d:6-5-8     strum the last one longer than the rest.
a:6-5-8
e:4-3-6


this part goes under the solo:

e:-------------------------|
b:-------------------4-----|
g:-1-1---3-3---5-5-5-------|
d:3---3-3---3-3------6-----|
a:-----------------------6-|
e:-------------------------|
comments
print report bad tab
I want to post or [tab]
guest
You may want to rate the tab now too:
select rating
Please do not post tabs as comments. Select "correction" instead!