Oops, an error
Loading. Please wait.

Black Gives Way To Blue Tab

ver1
ver1

Album

Whole song

More versions @911Tabs.com
39,487 views 21 this week
5 commentsread comments
1 2 3 4 5
excellent!
x 6
Autoscroll
+/-
esc
set tempo
stop
Contributor
Difficulty
Tuning
intermediate
C# G# C# F# A# D#
WARNING: You are trying to view
                                    content from Ultimate-Guitar.com
                                    in an unauthorized application,
                                    which is prohibited.

                                    Please use an official Ultimate
                                    Guitar Tabs application for iPhone,
                                    iPad or Android to access legitimate
                                    chords, guitar, bass, and drum tabs
                                    from Ultimate-Guitar.com database.

                                    Type "ultimate guitar tabs" in Apple
                                    App Store's or Android Market's
                                    search to find the application.
hey everyone, this album is amazing!  since no one tabbed the whole album yet, i decided 
put all the tabs together so you can play along when you are listening to it.

Keep rocking!

Artist: Alice in Chains
Title: All Secrets Known
Album: Black Gives Way to Blue

Tuning: (low to high) Db Ab Db Gb Ab Eb

Tabbed by: FireReaverX


Intro
Eb|-------------------------------------------------|
Bb|-------------------------------------------------|
Gb|-7-7-7-7-7-7-7-7-7-7-7-7-8-8-8-8-8-8-8-8-8-8-8-8-|
Db|-0-4-5-0-4-5-0-4-5-0-4-5-0-5-7-0-5-7-0-5-7-0-5-7-|
Ab|-------------------------------------------------|
Db|-------------------------------------------------|
PM  . . . . . . . . . . . . . . . . . . . . . . . .

Eb|-------------------------------------------------|
Bb|-------------------------------------------------|
Gb|-7-7-7-7-7-7-7-7-7-7-7-7-8-8-8-8-8-8-8-8-8-8-8-8-|
Db|-0-4-5-0-4-5-0-4-5-0-4-5-0-5-7-0-5-7-0-5-7-0-5-7-|
Ab|-------------------------------------------------|
Db|-------------------------------------------------|
PM  . . . . . . . . . . . . . . . . . . . . . . . .

(Guitar 1)
Eb|-------------------------------------------------|
Bb|-------------------------------------------------|
Gb|-7-7-7-7-7-7-7-7-7-7-7-7-8-8-8-8-8-8-8-8-8-8-8-8-|
Db|-0-4-5-0-4-5-0-4-5-0-4-5-0-5-7-0-5-7-0-5-7-0-5-7-|
Ab|-------------------------------------------------|
Db|-------------------------------------------------|
PM  . . . . . . . . . . . . . . . . . . . . . . . . |
                                                    |
(Guitar 2)                                          |
Eb|-------------------------------------------------|
Bb|-------------------------------------------------|
Gb|-------------------------------------------------|
Db|-0-----------------------1-----------------------|
Ab|-0-----------------------1-----------------------|
Db|-0-----------------------1-----------------------|

Eb|-------------------------------------------------------------------------|
Bb|-------------------------------------------------------------------------|
Gb|-10-10-10-10-10-10-10-10-10-10-10-10-12-12-12-12-12-12-12-12-12-12-12-12-|
Db|--0--7--8--0--7--8--0--7--8--0--7--8--0--9-10--0--9-10--0--9-10--0--9-10-|
Ab|-------------------------------------------------------------------------|
Db|-------------------------------------------------------------------------|
PM   .  .  .  .  .  .  .  .  .  .  .  .  .  .  .  .  .  .

Eb|-------------------------------------------------------------------------|
Bb|-------------------------------------------------------------------------|
Gb|-------------------------------------------------------------------------|
Db|-3------------------------------------5----------------------------------|
Ab|-3------------------------------------5----------------------------------|
Db|-3------------------------------------5----------------------------------|


Verse
Eb|-------------------------------------------------|
Bb|-------------------------------------------------|
Gb|-7-7-7-7-7-7-7-7-7-7-7-7-8-8-8-8-8-8-8-8-8-8-8-8-|
Db|-0-4-5-0-4-5-0-4-5-0-4-5-0-5-7-0-5-7-0-5-7-0-5-7-|
Ab|-------------------------------------------------|
Db|-------------------------------------------------|
PM  . . . . . . . . . . . . . . . . . . . . . . . . |
                                                    |  3x
Eb|-------------------------------------------------|
Bb|-------------------------------------------------|
Gb|-------------------------------------------------|
Db|-0-----------------------1-----------------------|
Ab|-0-----------------------1-----------------------|
Db|-0-----------------------1-----------------------|
PM  .                       .

Eb|-------------------------------------------------|
Bb|-------------------------------------------------|
Gb|-7-7-7-7-7-7-7-7-7-7-7-7-8-8-8-8-8-8-8-8-8-8-8-8-|
Db|-0-4-5-0-4-5-0-4-5-0-4-5-0-5-7-0-5-7-0-5-7-0-5-7-|
Ab|-------------------------------------------------|
Db|-------------------------------------------------|
PM  . . . . . . . . . . . .                         |
                                                    |
Eb|-------------------------------------------------|
Bb|-------------------------------------------------|
Gb|-------------------------------------------------|
Db|-0-----------------------1---1-1-1-1-1---1-1-1-1-|
Ab|-0-----------------------1-1-1-1-1-1-1-1-1-1-1-1-|
Db|-0-----------------------1-1-1-1-1-1-1-1-1-1-1-1-|


Chorus
Eb|-------------------------------------------------|
Bb|-------------------------------------------------|
Gb|-7-7-7-7-7-7-7-7-7-7-7-7-8-8-8-8-8-8-8-8-8-8-8-8-|
Db|-0-4-5-0-4-5-0-4-5-0-4-5-0-5-7-0-5-7-0-5-7-0-5-7-|
Ab|-------------------------------------------------|
Db|-------------------------------------------------|
                                                    |
Eb|-------------------------------------------------|
Bb|-------------------------------------------------|
Gb|-------------------------------------------------|
Db|-0---0-0-0-0-0---0-0-0-0-1---1-1-1-1-1---1-1-1-1-|  4x
Ab|-0-0-0-0-0-0-0-0-0-0-0-0-1-1-1-1-1-1-1-1-1-1-1-1-|
Db|-0-0-0-0-0-0-0-0-0-0-0-0-1-1-1-1-1-1-1-1-1-1-1-1-|
                                                    |
Eb|-10tr--------------------------------6tr-------8-|
Bb|-------------10tr--------------------------------|
Gb|-------------------------7-b8--------------------|
Db|-------------------------------------------------|
Ab|-------------------------------------------------|
Db|-------------------------------------------------|


Verse
Chorus


Chorus Fill
Eb|-------------------------------------------------------------------------|
Bb|-------------------------------------------------------------------------|
Gb|-10-10-10-10-10-10-10-10-10-10-10-10-12-12-12-12-12-12-12-12-12-12-12-12-|
Db|--0--7--8--0--7--8--0--7--8--0--7--8--0--9-10--0--9-10--0--9-10--0--9-10-|
Ab|-------------------------------------------------------------------------|
Db|-------------------------------------------------------------------------|

Eb|-------------------------------------------------------------------------|
Bb|-------------------------------------------------------------------------|
Gb|-------------------------------------------------------------------------|
Db|--3-----3--3--3--3--3-----3--3--3--3--5-----5--5--5--5--5-----5--5--5--5-|
Ab|--3--3--3--3--3--3--3--3--3--3--3--3--5--5--5--5--5--5--5--5--5--5--5--5-|
Db|--3--3--3--3--3--3--3--3--3--3--3--3--5--5--5--5--5--5--5--5--5--5--5--5-|

Eb|--------------------------------------|
Bb|--------------------------------------|
Gb|-12-12-12-12-12-12-12-12-12-12-12-12--|
Db|--0--9-10--0--9-10--0--9-10--0--9-10--|
Ab|--------------------------------------|
Db|--------------------------------------|
                                         |
Eb|--------------------------------------|
Bb|--------------------------------------|
Gb|--------------------------------------|
Db|--5-----5--5--5--5--5-----5--5--5--5--|
Ab|--5--5--5--5--5--5--5--5--5--5--5--5--|
Db|--5--5--5--5--5--5--5--5--5--5--5--5--|


Bridge
Eb|--------------------------------------------------3-------------------|
Bb|--------------------------------------------------3-------------------|
Gb|-2-------2-----2-----2------------11-10-----------0------------7-9-10-|
Db|-2-------2-----2-----2----/7-9-10-------7---7---5-----5-7-9-10--------|
Ab|-0-------0-----0-----0------------------------------------------------|
Db|----------------------------------------------------------------------|
                                                                         |  3x
Eb|--------------------------------------------------3-------------------|
Bb|--------------------------------------------------3-------------------|
Gb|-2-------2-----2-----2----------------------------0-------------------|
Db|-2-------2-----2-----2-------------3--2------------------------0-2--3-|
Ab|-0-------0-----0-----0-----0-2--3-------0---0-----------0-2--3--------|
Db|------------------------------------------------5-----5---------------|

Eb|--------------------------------------------------3-------------------|
Bb|--------------------------------------------------3-------------------|
Gb|-2-------2-----2-----2------------11-10-----------0-------------------|
Db|-2-------2-----2-----2----/7-9-10-------7---7---5---------------------|
Ab|-0-------0-----0-----0------------------------------------------------|
Db|----------------------------------------------------------------------|
                                                                         |
Eb|--------------------------------------------------3-------------------|
Bb|--------------------------------------------------3-------------------|
Gb|-2-------2-----2-----2----------------------------0-------------------|
Db|-2-------2-----2-----2-------------3--2-------------------------------|
Ab|-0-------0-----0-----0-----0-2--3-------0---0-------------------------|
Db|------------------------------------------------5---------------------|


Guitar Solo (w/ Verse Rhythm Guitars)
Eb|-------------------------------------------------|
Bb|-------------------------------------------------|
Gb|-------------------------7-/8~-------------------|
Db|-------------------------------------------------|
Ab|-5~----------------------------------------------|
Db|-------------------------------------------------|

Eb|-------------------------------------------------|
Bb|-10~--------------------10-/11~------------------|
Gb|-------------------------7-/-8~------------------|
Db|-------------------------------------------------|
Ab|-------------------------------------------------|
Db|-------------------------------------------------|

Eb|-10/-/18-18p17p15\14h15p14h15h17-15-17-17b18-17b18-p15-16p15p13----------|
Bb|----------------------------------------------------------------16p15p13-|
Gb|-------------------------------------------------------------------------|
Db|-------------------------------------------------------------------------|
Ab|-------------------------------------------------------------------------|
Db|-------------------------------------------------------------------------|

Eb|------------------------------------15----------------|
Bb|-15-b16=r15--------------15-b16========16=r15---------|
Gb|------------------------------------------------14----|
Db|---------------------------------------------------12-|
Ab|------------------------------------------------------|
Db|------------------------------------------------------|


Verse
Chorus
Chorus Fill


Note: After the first chorus, the overdubbed lead guitar plays different variations
based on that lick throughout the remaining verses and choruses.

-------------------------------------------------------------------------------
                             CHECK MY BRAIN - Alice In Chains
-------------------------------------------------------------------------------

Tabbed by: Isaias Garcia (TexasFury)

Tuning: Eb (half step down)


Rhythm - Eb tuning

      Intro
      H        Q    E  E      Q    E    E    E    E    E    E       Q    E  E  E  E   E  E
D#||-----------------------|-------------------------------------|---------------------------|
A#||-----------------------|-------------------------------------|---------------------------|
F#||-----------------------|-------------------------------------|---------------------------|
C#||-----------------------|-------------------------------------|---------------------------|
G#||-----------------------|-------------------------------------|---------------------------|
D#||-------------------1b--|--L----1pb--1pb--1pb--1pb--1pb--1pb--|--L----1--1--1--2b--L--1b--|


  Q    E    E    E    E    E    E       Q    E  E  E  E   E  E
-------------------------------------|---------------------------|
-------------------------------------|---------------------------|
-------------------------------------|---------------------------|
-------------------------------------|---------------------------|
-------------------------------------|---------------------------|
--L----1pb--1pb--1pb--1pb--1pb--1pb--|--L----1--1--1--2b--L--1b--|


  Q    E    E    E    E    E    E       Q    E  E  E  E   E  E
-------------------------------------|---------------------------|
-------------------------------------|---------------------------|
-------------------------------------|---------------------------|
-------------------------------------|---------------------------|
-------------------------------------|---------------------------|
--L----1pb--1pb--1pb--1pb--1pb--1pb--|--L----1--1--1--2b--L--1b--|


  Q    E    E    E    E    E    E       Q    E  E  E  E   E  E
-------------------------------------|---------------------------|
-------------------------------------|---------------------------|
-------------------------------------|---------------------------|
-------------------------------------|---------------------------|
-------------------------------------|---------------------------|
--L----1pb--1pb--1pb--1pb--1pb--1pb--|--L----1--1--1--2b--L--1b--|


  Q    E    E    E    E    E    E       Q    E  E  E  E   E  E
-------------------------------------|---------------------------|
-------------------------------------|---------------------------|
-------------------------------------|---------------------------|
-------------------------------------|---------------------------|
-------------------------------------|---------------------------|
--L----1pb--1pb--1pb--1pb--1pb--1pb--|--L----1--1--1--2b--L--1b--|


  Q    E    E    E    E    E    E       Q    E  E  E  E   E  E
-------------------------------------|---------------------------|
-------------------------------------|---------------------------|
-------------------------------------|---------------------------|
-------------------------------------|---------------------------|
-------------------------------------|---------------------------|
--L----1pb--1pb--1pb--1pb--1pb--1pb--|--L----1--1--1--2b--L--1b--|


  Q    E    E    E    E    E    E       Q    E  E  E  E   E  E
-------------------------------------|---------------------------|
-------------------------------------|---------------------------|
-------------------------------------|---------------------------|
-------------------------------------|---------------------------|
-------------------------------------|---------------------------|
--L----1pb--1pb--1pb--1pb--1pb--1pb--|--L----1--1--1--2b--L--1b--|


  Q    E    E    E    E    E    E       Q    E  E  E  E   E  E
-------------------------------------|---------------------------|
-------------------------------------|---------------------------|
-------------------------------------|---------------------------|
-------------------------------------|---------------------------|
-------------------------------------|---------------------------|
--L----1pb--1pb--1pb--1pb--1pb--1pb--|--L----1--1--1--2b--L--1b--|


  Verse 1
  Q       E    E    E    E    E    E       Q    E  E  E  E   E  E
----------------------------------------|---------------------------|
----------------------------------------|---------------------------|
----------------------------------------|---------------------------|
----------------------------------------|---------------------------|
----------------------------------------|---------------------------|
--L-------1pb--1pb--1pb--1pb--1pb--1pb--|--L----1--1--1--2b--L--1b--|


  Q    E    E    E    E    E    E       Q    E  E  E  E   E  E
-------------------------------------|---------------------------|
-------------------------------------|---------------------------|
-------------------------------------|---------------------------|
-------------------------------------|---------------------------|
-------------------------------------|---------------------------|
--L----1pb--1pb--1pb--1pb--1pb--1pb--|--L----1--1--1--2b--L--1b--|


  Q    E    E    E    E    E    E       Q    E  E  E  E   E  E
-------------------------------------|---------------------------|
-------------------------------------|---------------------------|
-------------------------------------|---------------------------|
-------------------------------------|---------------------------|
-------------------------------------|---------------------------|
--L----1pb--1pb--1pb--1pb--1pb--1pb--|--L----1--1--1--2b--L--1b--|


                                                                   Chorus 1
  Q    E    E    E    E    E    E       Q    E  E  E  E   E  E     Q        Q    E  E  E  E
-------------------------------------|--------------------------|----------------------------|
-------------------------------------|--------------------------|----------------------------|
-------------------------------------|--------------------------|-------------------------9--|
-------------------------------------|-----------------------4--|--L--------4----4--4--4--9--|
-------------------------------------|-----------------------4--|--L--------4----4--4--4--7--|
--L----1pb--1pb--1pb--1pb--1pb--1pb--|--L----1--1--1--2b--L--2--|--L--------2----2--2--2-----|


  E  E  Q    E  E  E  E     E  E  Q    E  E  E  E     Q.     E  E   E   E  E
-------------------------|-------------------------|--------------------------|
-------------------------|-------------------------|--------------------------|
--L--9--9----9--9--9-----|-------------------------|--------------------------|
--L--9--9----9--9--9--9--|--L--9--9----9--9--9--7--|--L------9--L--11---L--4--|
--L--7--7----7--7--7--9--|--L--9--9----9--9--9--7--|--L------9--L--11---L--4--|
----------------------7--|--L--7--7----7--7--7--5--|--L------7--L---9---L--2--|


  Q    Q    E  E  E  E     E  E  Q    E  E  E  E     E  E  Q    E  E  E  E
------------------------|-------------------------|-------------------------|
------------------------|-------------------------|-------------------------|
---------------------9--|--L--9--9----9--9--9--4--|--L--4--4----4--4--4--2--|
--L----4----4--4--4--9--|--L--9--9----9--9--9--4--|--L--4--4----4--4--4--2--|
--L----4----4--4--4--7--|--L--7--7----7--7--7--2--|--L--2--2----2--2--2--0--|
--L----2----2--2--2-----|-------------------------|-------------------------|


  Q.     E  E  E   E  E      Q    E    E    E    E    E    E       Q    E  E  E  E   E  E
--------------------------|-------------------------------------|---------------------------|
--------------------------|-------------------------------------|---------------------------|
--L------4--L--6---L------|-------------------------------------|---------------------------|
--L------4--L--6---L------|-------------------------------------|---------------------------|
--L------2--L--4---L------|-------------------------------------|---------------------------|
----------------------1b--|--L----1pb--1pb--1pb--1pb--1pb--1pb--|--L----1--1--1--2b--L--1b--|


  Q    E    E    E    E    E    E       Q    E  E  E  E   E  E
-------------------------------------|---------------------------|
-------------------------------------|---------------------------|
-------------------------------------|---------------------------|
-------------------------------------|---------------------------|
-------------------------------------|---------------------------|
--L----1pb--1pb--1pb--1pb--1pb--1pb--|--L----1--1--1--2b--L--1b--|


  Q    E    E    E    E    E    E       Q    E  E  E  E   E  E
-------------------------------------|---------------------------|
-------------------------------------|---------------------------|
-------------------------------------|---------------------------|
-------------------------------------|---------------------------|
-------------------------------------|---------------------------|
--L----1pb--1pb--1pb--1pb--1pb--1pb--|--L----1--1--1--2b--L--1b--|


  Q    E    E    E    E    E    E       Q    E  E  E  E   E  E
-------------------------------------|---------------------------|
-------------------------------------|---------------------------|
-------------------------------------|---------------------------|
-------------------------------------|---------------------------|
-------------------------------------|---------------------------|
--L----1pb--1pb--1pb--1pb--1pb--1pb--|--L----1--1--1--2b--L--1b--|


  Verse 2
  Q       E    E    E    E    E    E       Q    E  E  E  E   E  E
----------------------------------------|---------------------------|
----------------------------------------|---------------------------|
----------------------------------------|---------------------------|
----------------------------------------|---------------------------|
----------------------------------------|---------------------------|
--L-------1pb--1pb--1pb--1pb--1pb--1pb--|--L----1--1--1--2b--L--1b--|


  Q    E    E    E    E    E    E       Q    E  E  E  E   E  E
-------------------------------------|---------------------------|
-------------------------------------|---------------------------|
-------------------------------------|---------------------------|
-------------------------------------|---------------------------|
-------------------------------------|---------------------------|
--L----1pb--1pb--1pb--1pb--1pb--1pb--|--L----1--1--1--2b--L--1b--|


  Q    E    E    E    E    E    E       Q    E  E  E  E   E  E
-------------------------------------|---------------------------|
-------------------------------------|---------------------------|
-------------------------------------|---------------------------|
-------------------------------------|---------------------------|
-------------------------------------|---------------------------|
--L----1pb--1pb--1pb--1pb--1pb--1pb--|--L----1--1--1--2b--L--1b--|


                                                                   Chorus 2
  Q    E    E    E    E    E    E       Q    E  E  E  E   E  E     Q        Q    E  E  E  E
-------------------------------------|--------------------------|----------------------------|
-------------------------------------|--------------------------|----------------------------|
-------------------------------------|--------------------------|-------------------------9--|
-------------------------------------|-----------------------4--|--L--------4----4--4--4--9--|
-------------------------------------|-----------------------4--|--L--------4----4--4--4--7--|
--L----1pb--1pb--1pb--1pb--1pb--1pb--|--L----1--1--1--2b--L--2--|--L--------2----2--2--2-----|


  E  E  Q    E  E  E  E     E  E  Q    E  E  E  E     Q.     E  E   E   E  E
-------------------------|-------------------------|--------------------------|
-------------------------|-------------------------|--------------------------|
--L--9--9----9--9--9-----|-------------------------|--------------------------|
--L--9--9----9--9--9--9--|--L--9--9----9--9--9--7--|--L------9--L--11---L--4--|
--L--7--7----7--7--7--9--|--L--9--9----9--9--9--7--|--L------9--L--11---L--4--|
----------------------7--|--L--7--7----7--7--7--5--|--L------7--L---9---L--2--|


  Q    Q    E  E  E  E     E  E  Q    E  E  E  E     E  E  Q    E  E  E  E
------------------------|-------------------------|-------------------------|
------------------------|-------------------------|-------------------------|
---------------------9--|--L--9--9----9--9--9-----|-------------------------|
--L----4----4--4--4--9--|--L--9--9----9--9--9--9--|--L--9--9----9--9--9--7--|
--L----4----4--4--4--7--|--L--7--7----7--7--7--9--|--L--9--9----9--9--9--7--|
--L----2----2--2--2-----|----------------------7--|--L--7--7----7--7--7--5--|


  Q.     E  E   E   E  E     Q    Q    E  E  E  E     Q    Q    E  E  E  E
--------------------------|------------------------|------------------------|
--------------------------|------------------------|------------------------|
--------------------------|---------------------7--|--L----7----7--7--7-----|
--L------9--L--11---L--4--|--L----4----4--4--4--7--|--L----7----7--7--7--6--|
--L------9--L--11---L--4--|--L----4----4--4--4--5--|--L----5----5--5--5--6--|
--L------7--L---9---L--2--|--L----2----2--2--2-----|---------------------4--|


  E  E  E  E  E  E  E  E     E  E  Q    E  E  E  E     Q    Q    E  E  E  E
--------------------------|-------------------------|------------------------|
--------------------------|-------------------------|------------------------|
--------------------------|-------------------------|---------------------7--|
--L--6--6--6--6--6--6--5--|--L--5--5----5--5--5--4--|--L----4----4--4--4--7--|
--L--6--6--6--6--6--6--5--|--L--5--5----5--5--5--4--|--L----4----4--4--4--5--|
--L--4--4--4--4--4--4--3--|--L--3--3----3--3--3--2--|--L----2----2--2--2-----|


  Q    Q    E  E  E  E     E  E  E  E  E  E  E  E     E  E  Q    E  E  E  E
------------------------|--------------------------|--------------------------|
------------------------|--------------------------|--------------------------|
--L----7----7--7--7-----|--------------------------|--------------------------|
--L----7----7--7--7--6--|--L--6--6--6--6--6--6--5--|--L--5--5----5--5--5------|
--L----5----5--5--5--6--|--L--6--6--6--6--6--6--5--|--L--5--5----5--5--5------|
---------------------4--|--L--4--4--4--4--4--4--3--|--L--3--3----3--3--3--1b--|


  Guitar Solo
  Q           E    E    E    E    E    E       Q    E  E  E  E   E  E
--------------------------------------------|---------------------------|
--------------------------------------------|---------------------------|
--------------------------------------------|---------------------------|
--------------------------------------------|---------------------------|
--------------------------------------------|---------------------------|
--L-----------1pb--1pb--1pb--1pb--1pb--1pb--|--L----1--1--1--2b--L--1b--|


  Q    E    E    E    E    E    E       Q    E  E  E  E   E  E
-------------------------------------|---------------------------|
-------------------------------------|---------------------------|
-------------------------------------|---------------------------|
-------------------------------------|---------------------------|
-------------------------------------|---------------------------|
--L----1pb--1pb--1pb--1pb--1pb--1pb--|--L----1--1--1--2b--L--1b--|


  Q    E    E    E    E    E    E       Q    E  E  E  E   E  E
-------------------------------------|---------------------------|
-------------------------------------|---------------------------|
-------------------------------------|---------------------------|
-------------------------------------|---------------------------|
-------------------------------------|---------------------------|
--L----1pb--1pb--1pb--1pb--1pb--1pb--|--L----1--1--1--2b--L--1b--|


  Q    E    E    E    E    E    E       Q    E  E  E  E   E  E
-------------------------------------|---------------------------|
-------------------------------------|---------------------------|
-------------------------------------|---------------------------|
-------------------------------------|---------------------------|
-------------------------------------|---------------------------|
--L----1pb--1pb--1pb--1pb--1pb--1pb--|--L----1--1--1--2b--L--1b--|


  Verse 3
  Q       E    E    E    E    E    E       Q    E  E  E  E   E  E
----------------------------------------|---------------------------|
----------------------------------------|---------------------------|
----------------------------------------|---------------------------|
----------------------------------------|---------------------------|
----------------------------------------|---------------------------|
--L-------1pb--1pb--1pb--1pb--1pb--1pb--|--L----1--1--1--2b--L--1b--|


  Q    E    E    E    E    E    E       Q    E  E  E  E   E  E
-------------------------------------|---------------------------|
-------------------------------------|---------------------------|
-------------------------------------|---------------------------|
-------------------------------------|---------------------------|
-------------------------------------|---------------------------|
--L----1pb--1pb--1pb--1pb--1pb--1pb--|--L----1--1--1--2b--L--1b--|


  Q    E    E    E    E    E    E       Q    E  E  E  E   E  E
-------------------------------------|---------------------------|
-------------------------------------|---------------------------|
-------------------------------------|---------------------------|
-------------------------------------|---------------------------|
-------------------------------------|---------------------------|
--L----1pb--1pb--1pb--1pb--1pb--1pb--|--L----1--1--1--2b--L--1b--|


                                                                   Chorus 3
  Q    E    E    E    E    E    E       Q    E  E  E  E   E  E     Q        Q    E  E  E  E
-------------------------------------|--------------------------|----------------------------|
-------------------------------------|--------------------------|----------------------------|
-------------------------------------|--------------------------|-------------------------9--|
-------------------------------------|-----------------------4--|--L--------4----4--4--4--9--|
-------------------------------------|-----------------------4--|--L--------4----4--4--4--7--|
--L----1pb--1pb--1pb--1pb--1pb--1pb--|--L----1--1--1--2b--L--2--|--L--------2----2--2--2-----|


  E  E  Q    E  E  E  E     E  E  Q    E  E  E  E     Q.     E  E   E   E  E
-------------------------|-------------------------|--------------------------|
-------------------------|-------------------------|--------------------------|
--L--9--9----9--9--9-----|-------------------------|--------------------------|
--L--9--9----9--9--9--9--|--L--9--9----9--9--9--7--|--L------9--L--11---L--4--|
--L--7--7----7--7--7--9--|--L--9--9----9--9--9--7--|--L------9--L--11---L--4--|
----------------------7--|--L--7--7----7--7--7--5--|--L------7--L---9---L--2--|


  Q    Q    E  E  E  E     E  E  Q    E  E  E  E     E  E  Q    E  E  E  E
------------------------|-------------------------|-------------------------|
------------------------|-------------------------|-------------------------|
---------------------9--|--L--9--9----9--9--9-----|-------------------------|
--L----4----4--4--4--9--|--L--9--9----9--9--9--9--|--L--9--9----9--9--9--7--|
--L----4----4--4--4--7--|--L--7--7----7--7--7--9--|--L--9--9----9--9--9--7--|
--L----2----2--2--2-----|----------------------7--|--L--7--7----7--7--7--5--|


  Q.     E  E   E   E  E     Q    Q    E  E  E  E     Q    Q    E  E  E  E
--------------------------|------------------------|------------------------|
--------------------------|------------------------|------------------------|
--------------------------|---------------------7--|--L----7----7--7--7-----|
--L------9--L--11---L--4--|--L----4----4--4--4--7--|--L----7----7--7--7--6--|
--L------9--L--11---L--4--|--L----4----4--4--4--5--|--L----5----5--5--5--6--|
--L------7--L---9---L--2--|--L----2----2--2--2-----|---------------------4--|


  E  E  E  E  E  E  E  E     E  E  Q    E  E  E  E     Q    Q    E  E  E  E
--------------------------|-------------------------|------------------------|
--------------------------|-------------------------|------------------------|
--------------------------|-------------------------|---------------------7--|
--L--6--6--6--6--6--6--5--|--L--5--5----5--5--5--4--|--L----4----4--4--4--7--|
--L--6--6--6--6--6--6--5--|--L--5--5----5--5--5--4--|--L----4----4--4--4--5--|
--L--4--4--4--4--4--4--3--|--L--3--3----3--3--3--2--|--L----2----2--2--2-----|


  Q    Q    E  E  E  E     E  E  E  E  E  E  E  E     E  E  Q    E  E  E  E
------------------------|--------------------------|-------------------------|
------------------------|--------------------------|-------------------------|
--L----7----7--7--7-----|--------------------------|-------------------------|
--L----7----7--7--7--6--|--L--6--6--6--6--6--6--5--|--L--5--5----5--5--5--4--|
--L----5----5--5--5--6--|--L--6--6--6--6--6--6--5--|--L--5--5----5--5--5--4--|
---------------------4--|--L--4--4--4--4--4--4--3--|--L--3--3----3--3--3--2--|


  Q    Q    E  E  E  E     Q    Q    E  E  E  E     E  E  E  E  E  E  E  E
------------------------|------------------------|--------------------------|
------------------------|------------------------|--------------------------|
---------------------7--|--L----7----7--7--7-----|--------------------------|
--L----4----4--4--4--7--|--L----7----7--7--7--6--|--L--6--6--6--6--6--6--5--|
--L----4----4--4--4--5--|--L----5----5--5--5--6--|--L--6--6--6--6--6--6--5--|
--L----2----2--2--2-----|---------------------4--|--L--4--4--4--4--4--4--3--|


  E  E  Q    E  E  E  E     Q    Q    E  E  E  E     Q    Q    E  E  E  E
-------------------------|------------------------|------------------------|
-------------------------|------------------------|------------------------|
-------------------------|---------------------7--|--L----7----7--7--7-----|
--L--5--5----5--5--5--4--|--L----4----4--4--4--7--|--L----7----7--7--7--6--|
--L--5--5----5--5--5--4--|--L----4----4--4--4--5--|--L----5----5--5--5--6--|
--L--3--3----3--3--3--2--|--L----2----2--2--2-----|---------------------4--|


                                                        Outro
  E  E  E  E  E  E  E  E     E  E  Q    E  E  E  E      Q     E    E    E    E    E    E
--------------------------|--------------------------|--------------------------------------|
--------------------------|--------------------------|--------------------------------------|
--------------------------|--------------------------|--------------------------------------|
--L--6--6--6--6--6--6--5--|--L--5--5----5--5--5------|--------------------------------------|
--L--6--6--6--6--6--6--5--|--L--5--5----5--5--5------|--------------------------------------|
--L--4--4--4--4--4--4--3--|--L--3--3----3--3--3--1b--|--L-----1pb--1pb--1pb--1pb--1pb--1pb--|


  Q    E  E  E  E   E  E      Q    E    E    E    E    E    E       Q    E  E  E  E   E  E
---------------------------|-------------------------------------|---------------------------|
---------------------------|-------------------------------------|---------------------------|
---------------------------|-------------------------------------|---------------------------|
---------------------------|-------------------------------------|---------------------------|
---------------------------|-------------------------------------|---------------------------|
--L----1--1--1--2b--L--1b--|--L----1pb--1pb--1pb--1pb--1pb--1pb--|--L----1--1--1--2b--L--1b--|


  Q    E    E    E    E    E    E       Q    E  E  E  E   E  E
-------------------------------------|---------------------------|
-------------------------------------|---------------------------|
-------------------------------------|---------------------------|
-------------------------------------|---------------------------|
-------------------------------------|---------------------------|
--L----1pb--1pb--1pb--1pb--1pb--1pb--|--L----1--1--1--2b--L--1b--|


  Q    E    E    E    E    E    E       Q    E  E  E  E   Q       W
-------------------------------------|-------------------------|-------------------||
-------------------------------------|-------------------------|-------------------||
-------------------------------------|-------------------------|-------------------||
-------------------------------------|-------------------------|-------------------||
-------------------------------------|-------------------------|-------------------||
--L----1pb--1pb--1pb--1pb--1pb--1pb--|--L----1--1--1--3b-------|-------------------||


Rhythm Guitar - Drop D
     Intro
     H        Q    E  E      Q    E    E    E    E    E    E       Q    E  E  E  E   E  E
E||-----------------------|-------------------------------------|---------------------------|
B||-----------------------|-------------------------------------|---------------------------|
G||-----------------------|-------------------------------------|---------------------------|
D||-----------------------|-------------------------------------|---------------------------|
A||-----------------------|-------------------------------------|---------------------------|
D||-------------------2b--|--L----2pb--2pb--2pb--2pb--2pb--2pb--|--L----2--2--2--2b--L--2b--|


  Q    E    E    E    E    E    E       Q    E  E  E  E   E  E
-------------------------------------|---------------------------|
-------------------------------------|---------------------------|
-------------------------------------|---------------------------|
-------------------------------------|---------------------------|
-------------------------------------|---------------------------|
--L----2pb--2pb--2pb--2pb--2pb--2pb--|--L----2--2--2--2b--L--2b--|


  Q    E    E    E    E    E    E       Q    E  E  E  E   E  E
-------------------------------------|---------------------------|
-------------------------------------|---------------------------|
-------------------------------------|---------------------------|
-------------------------------------|---------------------------|
-------------------------------------|---------------------------|
--L----2pb--2pb--2pb--2pb--2pb--2pb--|--L----2--2--2--2b--L--2b--|


  Q    E    E    E    E    E    E       Q    E  E  E  E   E  E
-------------------------------------|---------------------------|
-------------------------------------|---------------------------|
-------------------------------------|---------------------------|
-------------------------------------|---------------------------|
-------------------------------------|---------------------------|
--L----2pb--2pb--2pb--2pb--2pb--2pb--|--L----2--2--2--2b--L--2b--|


  Q    E    E    E    E    E    E       Q    E  E  E  E   E  E
-------------------------------------|---------------------------|
-------------------------------------|---------------------------|
-------------------------------------|---------------------------|
-------------------------------------|---------------------------|
-------------------------------------|---------------------------|
--L----2pb--2pb--2pb--2pb--2pb--2pb--|--L----2--2--2--2b--L--2b--|


  Q    E    E    E    E    E    E       Q    E  E  E  E   E  E
-------------------------------------|---------------------------|
-------------------------------------|---------------------------|
-------------------------------------|---------------------------|
-------------------------------------|---------------------------|
-------------------------------------|---------------------------|
--L----2pb--2pb--2pb--2pb--2pb--2pb--|--L----2--2--2--2b--L--2b--|


  Q    E    E    E    E    E    E       Q    E  E  E  E   E  E
-------------------------------------|---------------------------|
-------------------------------------|---------------------------|
-------------------------------------|---------------------------|
-------------------------------------|---------------------------|
-------------------------------------|---------------------------|
--L----2pb--2pb--2pb--2pb--2pb--2pb--|--L----2--2--2--2b--L--2b--|


  Q    E    E    E    E    E    E       Q    E  E  E  E   E  E
-------------------------------------|---------------------------|
-------------------------------------|---------------------------|
-------------------------------------|---------------------------|
-------------------------------------|---------------------------|
-------------------------------------|---------------------------|
--L----2pb--2pb--2pb--2pb--2pb--2pb--|--L----2--2--2--2b--L--2b--|


  Verse 1
  Q       E    E    E    E    E    E       Q    E  E  E  E   E  E
----------------------------------------|---------------------------|
----------------------------------------|---------------------------|
----------------------------------------|---------------------------|
----------------------------------------|---------------------------|
----------------------------------------|---------------------------|
--L-------2pb--2pb--2pb--2pb--2pb--2pb--|--L----2--2--2--2b--L--2b--|


  Q    E    E    E    E    E    E       Q    E  E  E  E   E  E
-------------------------------------|---------------------------|
-------------------------------------|---------------------------|
-------------------------------------|---------------------------|
-------------------------------------|---------------------------|
-------------------------------------|---------------------------|
--L----2pb--2pb--2pb--2pb--2pb--2pb--|--L----2--2--2--2b--L--2b--|


  Q    E    E    E    E    E    E       Q    E  E  E  E   E  E
-------------------------------------|---------------------------|
-------------------------------------|---------------------------|
-------------------------------------|---------------------------|
-------------------------------------|---------------------------|
-------------------------------------|---------------------------|
--L----2pb--2pb--2pb--2pb--2pb--2pb--|--L----2--2--2--2b--L--2b--|


                                                                   Chorus 1
  Q    E    E    E    E    E    E       Q    E  E  E  E   E  E     Q        Q    E  E  E  E
-------------------------------------|--------------------------|----------------------------|
-------------------------------------|--------------------------|----------------------------|
-------------------------------------|--------------------------|-------------------------8--|
-------------------------------------|-----------------------3--|--L--------3----3--3--3--8--|
-------------------------------------|-----------------------3--|--L--------3----3--3--3--6--|
--L----2pb--2pb--2pb--2pb--2pb--2pb--|--L----2--2--2--2b--L--3--|--L--------3----3--3--3-----|


  E  E  Q    E  E  E  E     E  E  Q    E  E  E  E     Q.     E  E   E   E  E
-------------------------|-------------------------|--------------------------|
-------------------------|-------------------------|--------------------------|
--L--8--8----8--8--8-----|-------------------------|--------------------------|
--L--8--8----8--8--8--8--|--L--8--8----8--8--8--6--|--L------8--L--10---L--3--|
--L--6--6----6--6--6--8--|--L--8--8----8--8--8--6--|--L------8--L--10---L--3--|
----------------------8--|--L--8--8----8--8--8--6--|--L------8--L--10---L--3--|


  Q    Q    E  E  E  E     E  E  Q    E  E  E  E     E  E  Q    E  E  E  E
------------------------|-------------------------|-------------------------|
------------------------|-------------------------|-------------------------|
---------------------8--|--L--8--8----8--8--8-----|-------------------------|
--L----3----3--3--3--8--|--L--8--8----8--8--8--8--|--L--8--8----8--8--8--6--|
--L----3----3--3--3--6--|--L--6--6----6--6--6--8--|--L--8--8----8--8--8--6--|
--L----3----3--3--3-----|----------------------8--|--L--8--8----8--8--8--6--|


  Q.     E  E   E   E  E      Q    E    E    E    E    E    E       Q    E  E  E  E   E  E
---------------------------|-------------------------------------|---------------------------|
---------------------------|-------------------------------------|---------------------------|
---------------------------|-------------------------------------|---------------------------|
--L------8--L--10---L------|-------------------------------------|---------------------------|
--L------8--L--10---L------|-------------------------------------|---------------------------|
--L------8--L--10---L--2b--|--L----2pb--2pb--2pb--2pb--2pb--2pb--|--L----2--2--2--2b--L--2b--|


  Q    E    E    E    E    E    E       Q    E  E  E  E   E  E
-------------------------------------|---------------------------|
-------------------------------------|---------------------------|
-------------------------------------|---------------------------|
-------------------------------------|---------------------------|
-------------------------------------|---------------------------|
--L----2pb--2pb--2pb--2pb--2pb--2pb--|--L----2--2--2--2b--L--2b--|


  Q    E    E    E    E    E    E       Q    E  E  E  E   E  E
-------------------------------------|---------------------------|
-------------------------------------|---------------------------|
-------------------------------------|---------------------------|
-------------------------------------|---------------------------|
-------------------------------------|---------------------------|
--L----2pb--2pb--2pb--2pb--2pb--2pb--|--L----2--2--2--2b--L--2b--|


  Q    E    E    E    E    E    E       Q    E  E  E  E   E  E
-------------------------------------|---------------------------|
-------------------------------------|---------------------------|
-------------------------------------|---------------------------|
-------------------------------------|---------------------------|
-------------------------------------|---------------------------|
--L----2pb--2pb--2pb--2pb--2pb--2pb--|--L----2--2--2--2b--L--2b--|


  Verse 2
  Q       E    E    E    E    E    E       Q    E  E  E  E   E  E
----------------------------------------|---------------------------|
----------------------------------------|---------------------------|
----------------------------------------|---------------------------|
----------------------------------------|---------------------------|
----------------------------------------|---------------------------|
--L-------2pb--2pb--2pb--2pb--2pb--2pb--|--L----2--2--2--2b--L--2b--|


  Q    E    E    E    E    E    E       Q    E  E  E  E   E  E
-------------------------------------|---------------------------|
-------------------------------------|---------------------------|
-------------------------------------|---------------------------|
-------------------------------------|---------------------------|
-------------------------------------|---------------------------|
--L----2pb--2pb--2pb--2pb--2pb--2pb--|--L----2--2--2--2b--L--2b--|


  Q    E    E    E    E    E    E       Q    E  E  E  E   E  E
-------------------------------------|---------------------------|
-------------------------------------|---------------------------|
-------------------------------------|---------------------------|
-------------------------------------|---------------------------|
-------------------------------------|---------------------------|
--L----2pb--2pb--2pb--2pb--2pb--2pb--|--L----2--2--2--2b--L--2b--|


                                                                   Chorus 2
  Q    E    E    E    E    E    E       Q    E  E  E  E   E  E     Q        Q    E  E  E  E
-------------------------------------|--------------------------|----------------------------|
-------------------------------------|--------------------------|----------------------------|
-------------------------------------|--------------------------|-------------------------8--|
-------------------------------------|-----------------------3--|--L--------3----3--3--3--8--|
-------------------------------------|-----------------------3--|--L--------3----3--3--3--6--|
--L----2pb--2pb--2pb--2pb--2pb--2pb--|--L----2--2--2--2b--L--3--|--L--------3----3--3--3-----|


  E  E  Q    E  E  E  E     E  E  Q    E  E  E  E     Q.     E  E   E   E  E
-------------------------|-------------------------|--------------------------|
-------------------------|-------------------------|--------------------------|
--L--8--8----8--8--8-----|-------------------------|--------------------------|
--L--8--8----8--8--8--8--|--L--8--8----8--8--8--6--|--L------8--L--10---L--3--|
--L--6--6----6--6--6--8--|--L--8--8----8--8--8--6--|--L------8--L--10---L--3--|
----------------------8--|--L--8--8----8--8--8--6--|--L------8--L--10---L--3--|


  Q    Q    E  E  E  E     E  E  Q    E  E  E  E     E  E  Q    E  E  E  E
------------------------|-------------------------|-------------------------|
------------------------|-------------------------|-------------------------|
---------------------8--|--L--8--8----8--8--8-----|-------------------------|
--L----3----3--3--3--8--|--L--8--8----8--8--8--8--|--L--8--8----8--8--8--6--|
--L----3----3--3--3--6--|--L--6--6----6--6--6--8--|--L--8--8----8--8--8--6--|
--L----3----3--3--3-----|----------------------8--|--L--8--8----8--8--8--6--|


  E  E  E  E  E   E   E   E     Q    Q    E  E  E  E     Q    Q    E  E  E  E
-----------------------------|------------------------|------------------------|
-----------------------------|------------------------|------------------------|
-----------------------------|---------------------6--|--L----6----6--6--6-----|
--L--6--6--8--L--10---L\--3--|--L----3----3--3--3--6--|--L----6----6--6--6--5--|
--L--6--6--8--L--10---L\--3--|--L----3----3--3--3--4--|--L----4----4--4--4--5--|
--L--6--6--8--L--10---L\--3--|--L----3----3--3--3-----|---------------------5--|


  E  E  E  E  E  E  E  E     E  E  Q    E  E  E  E     Q    Q    E  E  E  E
--------------------------|-------------------------|------------------------|
--------------------------|-------------------------|------------------------|
--------------------------|-------------------------|---------------------6--|
--L--5--5--5--5--5--5--4--|--L--4--4----4--4--4--3--|--L----3----3--3--3--6--|
--L--5--5--5--5--5--5--4--|--L--4--4----4--4--4--3--|--L----3----3--3--3--4--|
--L--5--5--5--5--5--5--4--|--L--4--4----4--4--4--3--|--L----3----3--3--3-----|


  Q    Q    E  E  E  E     E  E  Q    E  E  E  E     E  E  Q    E  E  E  E
------------------------|-------------------------|--------------------------|
------------------------|-------------------------|--------------------------|
--L----6----6--6--6-----|-------------------------|--------------------------|
--L----6----6--6--6--5--|--L--5--5----5--5--5--4--|--L--4--4----4--4--4------|
--L----4----4--4--4--5--|--L--5--5----5--5--5--4--|--L--4--4----4--4--4------|
---------------------5--|--L--5--5----5--5--5--4--|--L--4--4----4--4--4--2b--|


  Guitar Solo
  Q           E    E    E    E    E    E       Q    E  E  E  E   E  E
--------------------------------------------|---------------------------|
--------------------------------------------|---------------------------|
--------------------------------------------|---------------------------|
--------------------------------------------|---------------------------|
--------------------------------------------|---------------------------|
--L-----------2pb--2pb--2pb--2pb--2pb--2pb--|--L----2--2--2--2b--L--2b--|


  Q    E    E    E    E    E    E       Q    E  E  E  E   E  E
-------------------------------------|---------------------------|
-------------------------------------|---------------------------|
-------------------------------------|---------------------------|
-------------------------------------|---------------------------|
-------------------------------------|---------------------------|
--L----2pb--2pb--2pb--2pb--2pb--2pb--|--L----2--2--2--2b--L--2b--|


  Q    E    E    E    E    E    E       Q    E  E  E  E   E  E
-------------------------------------|---------------------------|
-------------------------------------|---------------------------|
-------------------------------------|---------------------------|
-------------------------------------|---------------------------|
-------------------------------------|---------------------------|
--L----2pb--2pb--2pb--2pb--2pb--2pb--|--L----2--2--2--2b--L--2b--|


  Q    E    E    E    E    E    E       Q    E  E  E  E   E  E
-------------------------------------|---------------------------|
-------------------------------------|---------------------------|
-------------------------------------|---------------------------|
-------------------------------------|---------------------------|
-------------------------------------|---------------------------|
--L----2pb--2pb--2pb--2pb--2pb--2pb--|--L----2--2--2--2b--L--2b--|


  Verse 3
  Q       E    E    E    E    E    E       Q    E  E  E  E   E  E
----------------------------------------|---------------------------|
----------------------------------------|---------------------------|
----------------------------------------|---------------------------|
----------------------------------------|---------------------------|
----------------------------------------|---------------------------|
--L-------2pb--2pb--2pb--2pb--2pb--2pb--|--L----2--2--2--2b--L--2b--|


  Q    E    E    E    E    E    E       Q    E  E  E  E   E  E
-------------------------------------|---------------------------|
-------------------------------------|---------------------------|
-------------------------------------|---------------------------|
-------------------------------------|---------------------------|
-------------------------------------|---------------------------|
--L----2pb--2pb--2pb--2pb--2pb--2pb--|--L----2--2--2--2b--L--2b--|


  Q    E    E    E    E    E    E       Q    E  E  E  E   E  E
-------------------------------------|---------------------------|
-------------------------------------|---------------------------|
-------------------------------------|---------------------------|
-------------------------------------|---------------------------|
-------------------------------------|---------------------------|
--L----2pb--2pb--2pb--2pb--2pb--2pb--|--L----2--2--2--2b--L--2b--|


                                                                   Chorus 3
  Q    E    E    E    E    E    E       Q    E  E  E  E   E  E     Q        Q    E  E  E  E
-------------------------------------|--------------------------|----------------------------|
-------------------------------------|--------------------------|----------------------------|
-------------------------------------|--------------------------|-------------------------8--|
-------------------------------------|-----------------------3--|--L--------3----3--3--3--8--|
-------------------------------------|-----------------------3--|--L--------3----3--3--3--6--|
--L----2pb--2pb--2pb--2pb--2pb--2pb--|--L----2--2--2--2b--L--3--|--L--------3----3--3--3-----|


  E  E  Q    E  E  E  E     E  E  Q    E  E  E  E     Q.     E  E   E   E  E
-------------------------|-------------------------|--------------------------|
-------------------------|-------------------------|--------------------------|
--L--8--8----8--8--8-----|-------------------------|--------------------------|
--L--8--8----8--8--8--8--|--L--8--8----8--8--8--6--|--L------8--L--10---L--3--|
--L--6--6----6--6--6--8--|--L--8--8----8--8--8--6--|--L------8--L--10---L--3--|
----------------------8--|--L--8--8----8--8--8--6--|--L------8--L--10---L--3--|


  Q    Q    E  E  E  E     E  E  Q    E  E  E  E     E  E  Q    E  E  E  E
------------------------|-------------------------|-------------------------|
------------------------|-------------------------|-------------------------|
---------------------8--|--L--8--8----8--8--8-----|-------------------------|
--L----3----3--3--3--8--|--L--8--8----8--8--8--8--|--L--8--8----8--8--8--6--|
--L----3----3--3--3--6--|--L--6--6----6--6--6--8--|--L--8--8----8--8--8--6--|
--L----3----3--3--3-----|----------------------8--|--L--8--8----8--8--8--6--|


  E  E  E  E  E   E   E   E     Q    Q    E  E  E  E     Q    Q    E  E  E  E
-----------------------------|------------------------|------------------------|
-----------------------------|------------------------|------------------------|
-----------------------------|---------------------6--|--L----6----6--6--6-----|
--L--6--6--8--L--10--10---3--|--L----3----3--3--3--6--|--L----6----6--6--6--5--|
--L--6--6--8--L--10---L\--3--|--L----3----3--3--3--4--|--L----4----4--4--4--5--|
--L--6--6--8--L--10---L\--3--|--L----3----3--3--3-----|---------------------5--|


  E  E  E  E  E  E  E  E     E  E  Q    E  E  E  E     Q    Q    E  E  E  E
--------------------------|-------------------------|------------------------|
--------------------------|-------------------------|------------------------|
--------------------------|-------------------------|---------------------6--|
--L--5--5--5--5--5--5--4--|--L--4--4----4--4--4--3--|--L----3----3--3--3--6--|
--L--5--5--5--5--5--5--4--|--L--4--4----4--4--4--3--|--L----3----3--3--3--4--|
--L--5--5--5--5--5--5--4--|--L--4--4----4--4--4--3--|--L----3----3--3--3-----|


  Q    Q    E  E  E  E     E  E  Q    E  E  E  E     E  E  Q    E  E  E  E
------------------------|-------------------------|-------------------------|
------------------------|-------------------------|-------------------------|
--L----6----6--6--6-----|-------------------------|-------------------------|
--L----6----6--6--6--5--|--L--5--5----5--5--5--4--|--L--4--4----4--4--4--3--|
--L----4----4--4--4--5--|--L--5--5----5--5--5--4--|--L--4--4----4--4--4--3--|
---------------------5--|--L--5--5----5--5--5--4--|--L--4--4----4--4--4--3--|


  Q    Q    E  E  E  E     Q    Q    E  E  E  E     E  E  E  E  E  E  E  E
------------------------|------------------------|--------------------------|
------------------------|------------------------|--------------------------|
---------------------6--|--L----6----6--6--6-----|--------------------------|
--L----3----3--3--3--6--|--L----6----6--6--6--5--|--L--5--5--5--5--5--5--4--|
--L----3----3--3--3--4--|--L----4----4--4--4--5--|--L--5--5--5--5--5--5--4--|
--L----3----3--3--3-----|---------------------5--|--L--5--5--5--5--5--5--4--|


  E  E  Q    E  E  E  E     Q    Q    E  E  E  E     Q    Q    E  E  E  E
-------------------------|------------------------|------------------------|
-------------------------|------------------------|------------------------|
-------------------------|---------------------6--|--L----6----6--6--6-----|
--L--4--4----4--4--4--3--|--L----3----3--3--3--6--|--L----6----6--6--6--5--|
--L--4--4----4--4--4--3--|--L----3----3--3--3--4--|--L----4----4--4--4--5--|
--L--4--4----4--4--4--3--|--L----3----3--3--3-----|---------------------5--|


                                                       Outro
  E  E  Q    E  E  E  E     E  E  Q    E  E  E  E      Q     E    E    E    E    E    E
-------------------------|--------------------------|--------------------------------------|
-------------------------|--------------------------|--------------------------------------|
-------------------------|--------------------------|--------------------------------------|
--L--5--5----5--5--5--4--|--L--4--4----4--4--4------|--------------------------------------|
--L--5--5----5--5--5--4--|--L--4--4----4--4--4------|--------------------------------------|
--L--5--5----5--5--5--4--|--L--4--4----4--4--4--2b--|--L-----2pb--2pb--2pb--2pb--2pb--2pb--|


  Q    E  E  E  E   E  E      Q    E    E    E    E    E    E       Q    E  E  E  E   E  E
---------------------------|-------------------------------------|---------------------------|
---------------------------|-------------------------------------|---------------------------|
---------------------------|-------------------------------------|---------------------------|
---------------------------|-------------------------------------|---------------------------|
---------------------------|-------------------------------------|---------------------------|
--L----2--2--2--2b--L--2b--|--L----2pb--2pb--2pb--2pb--2pb--2pb--|--L----2--2--2--2b--L--2b--|


  Q    E    E    E    E    E    E       Q    E  E  E  E   E  E
-------------------------------------|---------------------------|
-------------------------------------|---------------------------|
-------------------------------------|---------------------------|
-------------------------------------|---------------------------|
-------------------------------------|---------------------------|
--L----2pb--2pb--2pb--2pb--2pb--2pb--|--L----2--2--2--2b--L--2b--|


  Q    E    E    E    E    E    E       Q    E  E  E  E   Q
-------------------------------------|-------------------------||
-------------------------------------|-------------------------||
-------------------------------------|-------------------------||
-------------------------------------|-------------------------||
-------------------------------------|-------------------------||
--L----2pb--2pb--2pb--2pb--2pb--2pb--|--L----2--2--2--2b-------||

Lead Guitar
  m.30
  W                   W                   W                   H        Q    E  E
-------------------|-------------------|-------------------|-----------------------|
-------------------|-------------------|-------------------|-----------------------|
-------------------|-------------------|-------------------|-----------------------|
-------------------|-------------------|-------------------|-------------------9b--|
-------------------|-------------------|-------------------|-----------------------|
-------------------|-------------------|-------------------|-----------------------|


  Q    E    E    E    E    E    E       Q    Q     E   E   E   E
-------------------------------------|-----------------------------|
-------------------------------------|-----------------------------|
-------------------------------------|-----------------------------|
--L----9pb--9pb--9pb--9pb--9pb--9pb--|--L----9~----9~--9~--9~--9b--|
-------------------------------------|-----------------------------|
-------------------------------------|-----------------------------|


  Q    E    E    E    E    E    E       Q    Q     E   E  E    E       E   S  S  H.
-------------------------------------|-----------------------------|--------------------------|
-------------------------------------|-----------------------------|--------------------------|
-------------------------------------|------------------------10b--|---L---Lp-8---------------|
--L----9pb--9pb--9pb--9pb--9pb--9pb--|--L----9~----9~--9--9~-------|--------------------------|
-------------------------------------|-----------------------------|------------11------------|
-------------------------------------|-----------------------------|--------------------------|


   W                    W                    H         E   E   E   E       W
--------------------|--------------------|-----------------------------|--------------------|
--------------------|--------------------|-----------------------------|--------------------|
--------------------|--------------------|--------------------13--13b--|---L----------------|
--------------------|--------------------|-----------------------------|--------------------|
---L----------------|---L----------------|---L---------L--11-----------|--------------------|
--------------------|--------------------|-----------------------------|--------------------|


   W                   W                   W                   W
--------------------|-------------------|-------------------|-------------------|
--------------------|-------------------|-------------------|-------------------|
---L----------------|-------------------|-------------------|-------------------|
--------------------|-------------------|-------------------|-------------------|
--------------------|-------------------|-------------------|-------------------|
--------------------|-------------------|-------------------|-------------------|


  m.62
  W                   W                   W                   H        Q    E  E
-------------------|-------------------|-------------------|----------------------|
-------------------|-------------------|-------------------|----------------------|
-------------------|-------------------|-------------------|----------------------|
-------------------|-------------------|-------------------|----------------------|
-------------------|-------------------|-------------------|-------------------8--|
-------------------|-------------------|-------------------|----------------------|


  Guitar Solo
  E           E  E  E  E  E  E   E      E   E   E  E  Q.      E
------------------------------------|----------------------------|
------------------------------------|----------------------------|
------------------------------------|------------------------11--|
--------------9--9--------------10--|---L--10--10--9--L----------|
--L-----------------8--8--8--8------|-------------------------9--|
--------------------------------10--|---L--10--10--9--L----------|


   E   E   E   E   E   E   E   E      E   E   E  E  E  E  E   E       E   E  E   E   Q.      E
----------------------------------|-------------------------------|------------------------------|
----------------------------------|-------------------------------|------------------------------|
---L--11--11--10---L--10--10------|--------------------------10b--|---L--10--8-------------------|
------------------------------10--|---L--10--10--9--L--9--9-------|-------------10--10~------9b--|
---L---9---9---8---L---8---8------|-------------------------------|------------------------------|
------------------------------10--|---L--10--10--9--L--9--9-------|------------------------------|


                                            tap at 20th fret
                                            T                T    T    T
  E  E  E  E  S  S  S  S E  E      H        E                E    E    E
--------------------------------|-------------------------------------------|
--------------------------------|-------------------------------------------|
--------------------------------|-------------------------------------------|
--L--9--8--6--8h-9p-8p-6-8--8b--|--L--------8pb--------------8pb--8pb--8pb--|
--------------------------------|-------------------------------------------|
--------------------------------|-------------------------------------------|


  H.           S  S  E     W                   W                   W
------------------------|-------------------|-------------------|-------------------|
------------------------|-------------------|-------------------|-------------------|
------------------------|-------------------|-------------------|-------------------|
--L------------6h-8p-6--|--L----------------|--L----------------|-------------------|
------------------------|-------------------|-------------------|-------------------|
------------------------|-------------------|-------------------|-------------------|

  Outro - m.106
  E             E  E  E  E  E  E   E      Q.     E  Q.     E     E  E  E  E   E   E  E   E
--------------------------------------|-----------------------|-----------------------------|
--------------------------------------|-----------------------|-----------------------------|
--------------------------------------|-----------------------|-----------------------------|
----------------------------------10--|---L------9--L------9--|--L--9--9----------------10--|
----------------8--8--8--8--8--8------|-----------------------|-----------8~--L~--8--8------|
----------------------------------10--|---L------9--L------9--|--L--9--9----------------10--|


   E   E   E  E  Q.      E      E   E   E   E   H            E   E   E  E  Q.      E
----------------------------|----------------------------|----------------------------|
----------------------------|----------------------------|----------------------------|
------------------------11--|---L--11--11--10---L--------|------------------------11--|
--10--10--10--9--L----------|----------------------------|--10--10--10--9--L----------|
-------------------------9--|---L---9---9---8---L--------|-------------------------9--|
--10--10--10--9--L----------|----------------------------|--10--10--10--9--L----------|


   E   E   E   E   Q.      E      E   E   E  E  H
------------------------------|--------------------------||
------------------------------|--------------------------||
---L--11--11--10---L----------|--------------------------||
--------------------------10--|--10--10--10--9-----------||
---L---9---9---8---L----------|--------------------------||
--------------------------10--|--10--10--10--9-----------||

Last of My Kind:


This is the third song off of thier new album 'Black Gives Way to Blue' its a half
step down with a drop D (Db).


intro
Eb-------------------------------------------------------------------|
Bb-------------------------------------------------------------------|
Gb-------------------------------------------------------------------|
Db-------------------------------------------------------------------|
Ab-----4---4s5---5s7---7---5---4--------4---4s5---5s7---7---5---4----|
Db-2s4---4-----5-----7---5---5---4--2s4---4-----5-----7---5---4---4--|

Eb-------------------------------------------------------------------|
Bb-------------------------------------------------------------------|
Gb-------------------------------------------------------------------|
Db-------------------------------------------------------------------|
Ab-----4---4s5---5s7---7---5---4--------4---4s5---5s7---7---8---4----|
Db-2s4---4-----5-----7---5---5---4--2s4---4-----5-----7---8---4------|

verse(2x)
Eb-------------------------------------------------------------------|
Bb-------------------------------------------------------------------|
Gb-------------------------------------------------------------------|
Db-------------------------------------------------------------------|
Ab-----4---4s5---5s7---7---5---4--------4---4s5---5s7---7---5---4----|
Db-2s4---4-----5-----7---5---5---4--2s4---4-----5-----7---5---4---4--|

Eb-------------------------------------------------------------------|
Bb-------------------------------------------------------------------|
Gb-------------------------------------------------------------------|
Db-------------------------------------------------------------------|
Ab-----4---4s5---5s7---7---5---4--------4---4s5---5s7---7---8---4----|
Db-2s4---4-----5-----7---5---5---4--2s4---4-----5-----7---8---4------|

pre-chorus(4x)
Eb-----------------------------|
Bb-----------------------------|
Gb-----------------------------|
Db-5-7----7----7----7---7-8-5--|
Ab-5-7----7----7----7---7-8-5--|
Db-5h7-77-7-77-7-77-7-7-7-8-5--|
       ..   ..   ..   .
       pm   pm   pm   pm

Chorus(2x)
Eb----------------------------------------------------------|
Bb----------------------------------------------------------|
Gb----------------------------------------------------------|
Db-3-2-2-2-2-2-2-3-2-2-2-2-2-2-3-2-2-2-2-2-2-3-2-2-8-7-6-5--|
Ab-1-2-2-2-2-2-2-1-2-2-2-2-2-2-1-2-2-2-2-2-2-1-2-2-8-7-6-5--|
Db---2-2-2-2-2-2---2-2-2-2-2-2---2-2-2-2-2-2---2-2s8-7-6-5--|
     . . . . . .   . . . . . .   . . . . . .   . .
         pm            pm            pm        pm

intro
Eb-------------------------------------------------------------------|
Bb-------------------------------------------------------------------|
Gb-------------------------------------------------------------------|
Db-------------------------------------------------------------------|
Ab-----4---4s5---5s7---7---5---4--------4---4s5---5s7---7---5---4----|
Db-2s4---4-----5-----7---5---5---4--2s4---4-----5-----7---5---4---4--|

Eb-------------------------------------------------------------------|
Bb-------------------------------------------------------------------|
Gb-------------------------------------------------------------------|
Db-------------------------------------------------------------------|
Ab-----4---4s5---5s7---7---5---4--------4---4s5---5s7---7---8---4----|
Db-2s4---4-----5-----7---5---5---4--2s4---4-----5-----7---8---4------|

verse(2x)
Eb-------------------------------------------------------------------|
Bb-------------------------------------------------------------------|
Gb-------------------------------------------------------------------|
Db-------------------------------------------------------------------|
Ab-----4---4s5---5s7---7---5---4--------4---4s5---5s7---7---5---4----|
Db-2s4---4-----5-----7---5---5---4--2s4---4-----5-----7---5---4---4--|

Eb-------------------------------------------------------------------|
Bb-------------------------------------------------------------------|
Gb-------------------------------------------------------------------|
Db-------------------------------------------------------------------|
Ab-----4---4s5---5s7---7---5---4--------4---4s5---5s7---7---8---4----|
Db-2s4---4-----5-----7---5---5---4--2s4---4-----5-----7---8---4------|

pre-chorus(4x)
Eb-----------------------------|
Bb-----------------------------|
Gb-----------------------------|
Db-5-7----7----7----7---7-8-5--|
Ab-5-7----7----7----7---7-8-5--|
Db-5h7-77-7-77-7-77-7-7-7-8-5--|
       ..   ..   ..   .
       pm   pm   pm   pm

Chorus(4x)
Eb----------------------------------------------------------|
Bb----------------------------------------------------------|
Gb----------------------------------------------------------|
Db-3-2-2-2-2-2-2-3-2-2-2-2-2-2-3-2-2-2-2-2-2-3-2-2-8-7-6-5--|
Ab-1-2-2-2-2-2-2-1-2-2-2-2-2-2-1-2-2-2-2-2-2-1-2-2-8-7-6-5--|
Db---2-2-2-2-2-2---2-2-2-2-2-2---2-2-2-2-2-2---2-2s8-7-6-5--|
     . . . . . .   . . . . . .   . . . . . .   . .
         pm            pm            pm        pm

bridge(4x[the solo is played behind thins riff which comes in half way through])
Eb-----------------------------------------------------------------|
Gb-----------------------------------------------------------------|
Bb-----------------------------------------------------------------|
Db-2-0-2-3-2---0----5-3-2-0-2-3-2--2-0-2-3-2---0----7-3-2-0-2-3-2--|
Ab-2-0-2-3-2---0----5-3-2-0-2-3-2--2-0-2-3-2---0----7-3-2-0-2-3-2--|
Db-2-0-2h3-2---0(2)s5-3-2-0-2h3-2--2-0-2h3-2---0(2)s7-3-2-0-2h3-2--|


intro
Eb-------------------------------------------------------------------|
Bb-------------------------------------------------------------------|
Gb-------------------------------------------------------------------|
Db-------------------------------------------------------------------|
Ab-----4---4s5---5s7---7---5---4--------4---4s5---5s7---7---5---4----|
Db-2s4---4-----5-----7---5---5---4--2s4---4-----5-----7---5---4---4--|

Eb-------------------------------------------------------------------|
Bb-------------------------------------------------------------------|
Gb-------------------------------------------------------------------|
Db-------------------------------------------------------------------|
Ab-----4---4s5---5s7---7---5---4--------4---4s5---5s7---7---8---4----|
Db-2s4---4-----5-----7---5---5---4--2s4---4-----5-----7---8---4------|


Chorus(2x)
Eb----------------------------------------------------------|
Bb----------------------------------------------------------|
Gb----------------------------------------------------------|
Db-3-2-2-2-2-2-2-3-2-2-2-2-2-2-3-2-2-2-2-2-2-3-2-2-8-7-6-5--|
Ab-1-2-2-2-2-2-2-1-2-2-2-2-2-2-1-2-2-2-2-2-2-1-2-2-8-7-6-5--|
Db---2-2-2-2-2-2---2-2-2-2-2-2---2-2-2-2-2-2---2-2s8-7-6-5--|
     . . . . . .   . . . . . .   . . . . . .   . .
         pm            pm            pm        pm


outro(Palm muted)
Db-----------------------------------|
Bb-----------------------------------|
Gb-----------------------------------|
Db--2-2-2-2-2-2-2-2-2-2-2-2-2-2-2-2--|
Ab--2-2-2-2-2-2-2-2-2-2-2-2-2-2-2-2--|
Db--2-2-2-2-2-2-2-2-2-2-2-2-2-2-2-2--|


Your Decision

Great new song off AIC's new album Black and Blue

Tuned One Half Step Down

Intro/Verse/Chorus (Listen to song for strumming)

--0----3----2----0--------------------------------------|
--0----0----3----x--------------------------------------|
--x----0----2----2--------------------------------------|
--2----0----0----2--------------------------------------|
--2----2---------0--------------------------------------|
--0----3------------------------------------------------|

1st Lead Part
--------------------------------------------------------|
--------------------------------------------------------|
--------------------------------------------------------|
--9p7--12--9--7/5/14------------------------------------|
--------------------------------------------------------|
--------------------------------------------------------|

2nd Lead Part
--------------------------------------------------------|
----12--------------------------------------------------|
-12----12-14-14b16r14-----------------------------------|
-----------------------14-------------------------------|
--------------------------------------------------------|
--------------------------------------------------------|


Bridge 1 (x2)
------------3----8--------------------------------------|
--7----10---3----8--------------------------------------|
--7----10---4----9--------------------------------------|
--7----10---5----10-------------------------------------|
--5----8----5----10-------------------------------------|
------------3----8--------------------------------------|
"you feed the fire that burned us all..."

Bridge 2
--------------------------------------------------------------------------|
---------------------------------------------5----------------5-----------|
--12---14---9---7--------------------------5---5---5--------5---5---------|
--12---14---9---7--repeat--then----------5-------5--------5-------5-------|
--10---12---7---5----------------------3----------------3-----------3-----|
-------------------------------------3----------------3---------------5---|
"no one plans to take..."       "its over"


Solo (guitar 1 plays verse chords)
-------------------------------------------------------------|
------------------12----------12---------------------10------|
-12-9-12-9-12/14------14-12-14----14/9---9h12p9--9h12--------|
-------------------------------------------------------------|
-------------------------------------------------------------|
-------------------------------------------------------------|


-------------------------------------------------------------|
--------10-----------------------------12-----------12-------|
-9-12p9----9h12p9-----12-9-12-9-12/14-----14-12-14-----14/9--|
-------------------------------------------------------------|
-------------------------------------------------------------|
-------------------------------------------------------------|

-------------------15--------------15-17b19r17p15------------|
----------15-17-12-15-17--17p15h17----------------17~~-------|
-12h14/16----------------------------------------------------|
-------------------------------------------------------------|
-------------------------------------------------------------|
-------------------------------------------------------------|

Finish With:

Bridge 1 (x2)
Intro/Verse/Chorus
Bridge 2 (x2)

A Looking in View

This is the new alice in chains song from their new album "Black Gives Way to Blue"

this is in drop D and down a step.

Intro
Eb-----------------------------|
Bb-----------------------------|
Gb-----------------------------|
Db-0-1-1-1-1--0-0-1-1-0-0-0----|
Ab-0-1-1-1-1--0-0-1-1-0-0-0----| 4x
Db-0-1-1-1-1--0-0-1-1-0-0-0----|
[      P-M               ]

Main Riff
Eb-----------------------------------------------------------------------------|
Bb-----------------------------------------------------------------------------|
Gb-----------------------------------------------------------------------------|
Db-0-1-1-1-1-0-----------0-0-1-1-0-0-0----0-1-1-1-1-0-----------0-0-1-1-0-0-0--|
Ab-0-1-1-1-1-0----4b-----0-0-1-1-0-0-0----0-1-1-1-1-0----1b-----0-0-1-1-0-0-0--|
Db-0-1-1-1-1-0-----------0-0-1-1-0-0-0----0-1-1-1-1-0-----------0-0-1-1-0-0-0--|

Eb-----------------------------------------------------------------------------|
Bb-----------------------------------------------------------------------------|
Gb-----------------------------------------------------------------------------|
Db-0-1-1-1-1-0----5b-----0-0-1-1-0-0-0--0-1-1-1-1-0-----------0-0-1-1-0-0-0----|
Ab-0-1-1-1-1-0-----------0-0-1-1-0-0-0--0-1-1-1-1-0----4b-----0-0-1-1-0-0-0----|
Db-0-1-1-1-1-0-----------0-0-1-1-0-0-0--0-1-1-1-1-0-----------0-0-1-1-0-0-0----|

Lead during the main riff
Eb-----------------------------------------------------------------------------5---|
Bb---------------------------------------------------------------------------5-----|
Gb--7b9-7b9b7-6~---4b6-4b6b4-2~-2h3p2--7b9-7b9b7-6~--4b6-4b6b4-2~-2h3p2----7-------|
Db---------------------------------------------------------------------------------|
Ab---------------------------------------------------------------------------------|
Db---------------------------------------------------------------------------------|

Verse(palm muted)
Eb-----------------------------|
Bb-----------------------------|
Gb-----------------------------|
Db-0-1-1-1-1--0-0-1-1-0-0-0----|
Ab-0-1-1-1-1--0-0-1-1-0-0-0----| 4x
Db-0-1-1-1-1--0-0-1-1-0-0-0----|


main riff
Eb-----------------------------------------------------------------------------|
Bb-----------------------------------------------------------------------------|
Gb-----------------------------------------------------------------------------|
Db-0-1-1-1-1-0-----------0-0-1-1-0-0-0----0-1-1-1-1-0-----------0-0-1-1-0-0-0--|
Ab-0-1-1-1-1-0----4b-----0-0-1-1-0-0-0----0-1-1-1-1-0----1b-----0-0-1-1-0-0-0--|
Db-0-1-1-1-1-0-----------0-0-1-1-0-0-0----0-1-1-1-1-0-----------0-0-1-1-0-0-0--|

Eb-----------------------------------------------------------------------------|
Bb-----------------------------------------------------------------------------|
Gb-----------------------------------------------------------------------------|
Db-0-1-1-1-1-0----5b-----0-0-1-1-0-0-0--0-1-1-1-1-0-----------0-0-1-1-0-0-0----|
Ab-0-1-1-1-1-0-----------0-0-1-1-0-0-0--0-1-1-1-1-0----4b-----0-0-1-1-0-0-0----|
Db-0-1-1-1-1-0-----------0-0-1-1-0-0-0--0-1-1-1-1-0-----------0-0-1-1-0-0-0----|

Verse(palm muted)
Eb-----------------------------|
Bb-----------------------------|
Gb-----------------------------|
Db-0-1-1-1-1--0-0-1-1-0-0-0----|
Ab-0-1-1-1-1--0-0-1-1-0-0-0----| 4x
Db-0-1-1-1-1--0-0-1-1-0-0-0----|

Main riff(2x)
Eb-----------------------------------------------------------------------------|
Bb-----------------------------------------------------------------------------|
Gb-----------------------------------------------------------------------------|
Db-0-1-1-1-1-0-----------0-0-1-1-0-0-0----0-1-1-1-1-0-----------0-0-1-1-0-0-0--|
Ab-0-1-1-1-1-0----4b-----0-0-1-1-0-0-0----0-1-1-1-1-0----1b-----0-0-1-1-0-0-0--|
Db-0-1-1-1-1-0-----------0-0-1-1-0-0-0----0-1-1-1-1-0-----------0-0-1-1-0-0-0--|

Eb-----------------------------------------------------------------------------|
Bb-----------------------------------------------------------------------------|
Gb-----------------------------------------------------------------------------|
Db-0-1-1-1-1-0----5b-----0-0-1-1-0-0-0--0-1-1-1-1-0-----------0-0-1-1-0-0-0----|
Ab-0-1-1-1-1-0-----------0-0-1-1-0-0-0--0-1-1-1-1-0----4b-----0-0-1-1-0-0-0----|
Db-0-1-1-1-1-0-----------0-0-1-1-0-0-0--0-1-1-1-1-0-----------0-0-1-1-0-0-0----|


Pre-chorus(2x)
Eb------------------------------------------------------------------------|
Bb------------------------------------------------------------------------|
Gb------------------------------------------------------------------------|
Db-0-1-3-0-3-5-0-5-7-0-7-8-0-8-7------1-3-0-3-5-0-5-7-0-7-8-0-0-8-7-------|
Ab-0-1-3-0-3-5-0-5-7-0-7-8-0-8-7-6-5--1-3-0-3-5-0-5-7-0-7-8-0-0-8-7-------|
Db-0-1-3-0-3-5-0-5-7-0-7-8-0-8-7------1-3-0-3-5-0-5-7-0-7-8-0-0-8-7-------|

Chorus(2x)
Eb----------------------------------------------------------------------------|
Bb----------------------------------------------------------------------------|
Gb----------------------------------------------------------------------------|
Db-7s5-777777777s7-7s3-55555555s8-8-7-0--0-3-0---0-3-5--5-3-0--0-3-0----0-3-5-|
Ab-7s5-555555555s7-7s3-33333333s8-8-7-0--0-3-0---0-3-5--5-3-0--0-3-0----0-3-5-|
Db-7s5-555555555s7-7s3-33333333s8-8-7-0--0-3-0---0-3-5--5-3-0--0-3-0----0-3-5-|


Intro 4x
Eb-----------------------------|
Bb-----------------------------|
Gb-----------------------------|
Db-0-1-1-1-1--0-0-1-1-0-0-0----|
Ab-0-1-1-1-1--0-0-1-1-0-0-0----|
Db-0-1-1-1-1--0-0-1-1-0-0-0----|

Verse 4x
Eb-----------------------------|
Bb-----------------------------|
Gb-----------------------------|
Db-0-1-1-1-1--0-0-1-1-0-0-0----|
Ab-0-1-1-1-1--0-0-1-1-0-0-0----|
Db-0-1-1-1-1--0-0-1-1-0-0-0----|

Main riff
Eb-----------------------------------------------------------------------------|
Bb-----------------------------------------------------------------------------|
Gb-----------------------------------------------------------------------------|
Db-0-1-1-1-1-0-----------0-0-1-1-0-0-0----0-1-1-1-1-0-----------0-0-1-1-0-0-0--|
Ab-0-1-1-1-1-0----4b-----0-0-1-1-0-0-0----0-1-1-1-1-0----1b-----0-0-1-1-0-0-0--|
Db-0-1-1-1-1-0-----------0-0-1-1-0-0-0----0-1-1-1-1-0-----------0-0-1-1-0-0-0--|

Eb-----------------------------------------------------------------------------|
Bb-----------------------------------------------------------------------------|
Gb-----------------------------------------------------------------------------|
Db-0-1-1-1-1-0----5b-----0-0-1-1-0-0-0--0-1-1-1-1-0-----------0-0-1-1-0-0-0----|
Ab-0-1-1-1-1-0-----------0-0-1-1-0-0-0--0-1-1-1-1-0----4b-----0-0-1-1-0-0-0----|
Db-0-1-1-1-1-0-----------0-0-1-1-0-0-0--0-1-1-1-1-0-----------0-0-1-1-0-0-0----|


Pre-Chorus(2x)
Eb------------------------------------------------------------------------|
Bb------------------------------------------------------------------------|
Gb------------------------------------------------------------------------|
Db-0-1-3-0-3-5-0-5-7-0-7-8-0-8-7------1-3-0-3-5-0-5-7-0-7-8-0-0-8-7-------|
Ab-0-1-3-0-3-5-0-5-7-0-7-8-0-8-7-6-5--1-3-0-3-5-0-5-7-0-7-8-0-0-8-7-------|
Db-0-1-3-0-3-5-0-5-7-0-7-8-0-8-7------1-3-0-3-5-0-5-7-0-7-8-0-0-8-7-------|

Chorus
Eb----------------------------------------------------------------------------|
Bb----------------------------------------------------------------------------|
Gb----------------------------------------------------------------------------|
Db-7s5-777777777s7-7s3-55555555s8-8-7-0--0-3-0---0-3-5--5-3-0--0-3-0----0-3-5-|
Ab-7s5-555555555s7-7s3-33333333s8-8-7-0--0-3-0---0-3-5--5-3-0--0-3-0----0-3-5-|
Db-7s5-555555555s7-7s3-33333333s8-8-7-0--0-3-0---0-3-5--5-3-0--0-3-0----0-3-5-|

Eb----------------------------------------------------------------------|
Bb----------------------------------------------------------------------|
Gb----------------------------------------------------------------------|
Db-7s5-777777777s7-7s3-55555555s8-8-7-0--0-3-0---0-3-5--5-3-0--0-3-0----|
Ab-7s5-555555555s7-7s3-33333333s8-8-7-0--0-3-0---0-3-5--5-3-0--0-3-0----|
Db-7s5-555555555s7-7s3-33333333s8-8-7-0--0-3-0---0-3-5--5-3-0--0-3-0----|

Eb------------------------------------------------------------|
Bb------------------------------------------------------------|
Gb------------------------------------------------------------|
Db-0-3-5--5-3-0--0-3-0--0-3-5--5-3-0--0-3-0---8888-0--0-3-0---|
Ab-0-3-5--5-3-0--0-3-0--0-3-5--5-3-0--0-3-0---8888-0--0-3-0---|
Db-0-3-5--5-3-0--0-3-0--0-3-5--5-3-0--0-3-0---8888-0--0-3-0---|

Eb--------------------------------------------------------------------------------|
Bb--------------------------------------------------------------------------------|
Gb--------------------------------------------------------------------------------|
Db-0-3-5--5-3-0--0-3-0---0-3-5--5-3-0--0-3-0---0-3-5--5-3-0--0-3-0---8x77---0-----|
Ab-0-3-5--5-3-0--0-3-0---0-3-5--5-3-0--0-3-0---0-3-5--5-3-0--0-3-0---8x77---0-----|
Db-0-3-5--5-3-0--0-3-0---0-3-5--5-3-0--0-3-0---0-3-5--5-3-0--0-3-0---8x77---0-----|

Eb--------------------------------------------------------------------------------------|
Bb--------------------------------------------------------------------------------------|
Gb--------------------------------------------------------------------------------------|
Db--------------------------------------------------------------------------------------|
Ab--------------------------------------------------------------------------------------|
Db-0-3-0--0-3-5--5-3-0--0-3-0--0-3-5--5-3-0--0-3-0--0-3-5--3-5-0--0-3-0-----------------|

Eb---------------------------------------------------------------------------------------------|
Bb---------------------------------------------------------------------------------------------|
Gb---------------------------------------------------------------------------------------------|
Db-8x77-------------------------------------------------------------------------------000000---|
Ab-8x77-------------------------------------------------------------------------------000000---|
Db-8x77--0--0-3-0---0-3-5--5-3-0--0-3-0---0-3-5--5-3-0--0-3-0---0-3-5--5-3-0--0-3-0---000000---|
                                                                                   [
  ]

Chorus
Eb----------------------------------------------------------------------------|
Bb----------------------------------------------------------------------------|
Gb----------------------------------------------------------------------------|
Db-7s5-777777777s7-7s3-55555555s8-8-7-0--0-3-0---0-3-5--5-3-0--0-3-0----0-3-5-|
Ab-7s5-555555555s7-7s3-33333333s8-8-7-0--0-3-0---0-3-5--5-3-0--0-3-0----0-3-5-|
Db-7s5-555555555s7-7s3-33333333s8-8-7-0--0-3-0---0-3-5--5-3-0--0-3-0----0-3-5-|

Eb----------------------------------------------------------------------|
Bb----------------------------------------------------------------------|
Gb----------------------------------------------------------------------|
Db-7s5-777777777s7-7s3-55555555s8-8-7-0--0-3-0---0-3-5--5-3-0--0-3-0----|
Ab-7s5-555555555s7-7s3-33333333s8-8-7-0--0-3-0---0-3-5--5-3-0--0-3-0----|
Db-7s5-555555555s7-7s3-33333333s8-8-7-0--0-3-0---0-3-5--5-3-0--0-3-0----|

Eb------------------------------------------------------------|
Bb------------------------------------------------------------|
Gb------------------------------------------------------------|
Db-0-3-5--5-3-0--0-3-0--0-3-5--5-3-0--0-3-0---8888-0--0-3-0---|
Ab-0-3-5--5-3-0--0-3-0--0-3-5--5-3-0--0-3-0---8888-0--0-3-0---|
Db-0-3-5--5-3-0--0-3-0--0-3-5--5-3-0--0-3-0---8888-0--0-3-0---|


outro
Eb------------------------------------------------------------------------------------|
Bb------------------------------------------------------------------------------------|
Gb------------------------------------------------------------------------------------|
Db----------------------------------------------------------------8888-0--------------|
Ab----------------------------------------------------------------8888-0--------------|
Db-0-3-5--5-3-0--0-3-0--0-3-5--5-3-0--0-3-0--0-3-5--5-3-0--0-3-0--8888-0---0-3-0------|

When the Sun Rose Again

Artist: Alice in Chains
Title: When the Sun Rose Again
Album: Black Gives Way to Blue

Tuning: (low to high) Eb Ab Db Gb Ab Eb

Tabbed by: FireReaverX


Intro/Verse
Eb|-4-4-4-4-4-------4-4-4-4-4-4-------4-4-4-4-4-------4-4-4-4-4-4-------|
Bb|-4-4-4-4-4-------4-4-4-4-4-4-------4-4-4-4-4-------4-4-4-4-4-4-------|
Gb|-4-4-4-4-4-------4-4-4-4-4-4-------4-4-4-4-4-------4-4-4-4-4-4-------|
Db|-6-6-6-6-6-------6-6-6-6-6-6-------6-6-6-6-6-------6-6-6-6-6-6-------|
Ab|-6-6-6-6-6-------6-6-6-6-6-6-------6-6-6-6-6-------6-6-6-6-6-6-------|
Eb|-4-4-4-4-4-0-4h5-4-4-4-4-4-4-0-0-0-4-4-4-4-4-0-4h5-4-4-4-4-4-4-0-0-0-|


Pre-Chorus
Eb|-----------------------------------------------------|
Bb|-----------------------------------------------------|
Gb|-----------------------------------------------------|
Db|-11-11---9---9---7---7---6---6-6---4-4---2---4-2-----|
Ab|-9--9----7---7---5---5---4---4-4---2-2---0---2-0-----|
Eb|-----------------------------------------------------|
                                                        |
Eb|-------9-------7-------5-------4-------0-------4--)4-|
Bb|----11-------9-------7-------5-------4-------4----)4-|
Gb|-11------9-------7-------6---------4-----2--------)4-|
Db|--------------------------------------------------)x-|
Ab|--------------------------------------------------)x-|
Eb|--------------------------------------------------)x-|


Verse
Pre-Chorus


Chorus
Eb|-7-----7-----7---2-----2-----2---0-----0-----0---4-----4-----4---|
Bb|-7-----7-----7---2-----2-----2---0-----0-----0---4-----4-----4---|
Gb|-8-----8-----8---3-----3-----3---1-----1-----1---4-----4-----4---|
Db|-9-----9-----9---4-----4-----4---2-----2-----2---6-----6-----6---|
Ab|-9-----9-----9---4-----4-----4---2-----2-----2---6-----6-----6---|
Eb|-7-----7-----7---2-----2-----2---0-----0-----0---4-----4-----4---|
                                                                    |
Eb|---2---0---2---0-------0-----------4---7---4---7---4---7---4---7-|
Bb|-----4-------4-----0-------0---0-5---5-------5-------4-------4---|
Gb|-4-------------------3-------3-----------------------------------|
Db|-----------------------------------------------------------------|
Ab|-----------------------------------------------------------------|
Eb|-----------------------------------------------------------------|

Eb|-4-4-4-4-4-------4-4-4-4-4-4-------4-4-4-4-4-------4-4-4-4-4-4-------|
Bb|-4-4-4-4-4-------4-4-4-4-4-4-------4-4-4-4-4-------4-4-4-4-4-4-------|
Gb|-4-4-4-4-4-------4-4-4-4-4-4-------4-4-4-4-4-------4-4-4-4-4-4-------|
Db|-6-6-6-6-6-------6-6-6-6-6-6-------6-6-6-6-6-------6-6-6-6-6-6-------|
Ab|-6-6-6-6-6-------6-6-6-6-6-6-------6-6-6-6-6-------6-6-6-6-6-6-------|
Eb|-4-4-4-4-4-0-4h5-4-4-4-4-4-4-0-0-0-4-4-4-4-4-0-4h5-4-4-4-4-4-4-0-0-0-|


Guitar Solo (w/ Chorus Rhythm Guitar)
Eb|---------------------------------------------------------------------------------|
Bb|-------------------------------------------------------------------------7-------|
Gb|-11-b13---11-9-8-9-8-6---4-6-6b8r6p4---4-6---------4-6-6b7r6-b8-----6-b8---6b8r6-|
Db|-------------------------------------6-----6---4h6-------------------------------|
Ab|---------------------------------------------------------------------------------|
Eb|---------------------------------------------------------------------------------|

Eb|---------------------------------------------------------------------------|
Bb|---------------------------------------------------------------------------|
Gb|-4~---------------------------6-\4-------3-b4r3----------------------------|
Db|------------4-4---4-4h6-4---4-4-\2-----2--------1h2p1~---------------------|
Ab|-------2-/4----------------------------------------------------------------|
Eb|---------------------------------------------------------------------------|


Verse
Pre-Chorus
Chorus

Acid Bubble

Artist: Alice in Chains
Title: Acid Bubble
Album: Black Gives Way To Blue

Tuning: (low to high) Db Ab Db Gb Bb Eb

Tabbed by: FireReaverX


Intro
Eb|-----------------------------------------------------------------|
Bb|-----------------------------------------------------------------|
Gb|-----------------------------------------------------------------|
Db|--------2-------2---------------0-------2-------2-----------0----|
Ab|------2-------2-----------0-2-3-------2-------2---------0-2---3--|
Db|--2---------2-------1-2-3---------2---------2-----1-2-3----------|
                                                                       2x
Eb|-----------------------------------------------------------------|
Bb|-----------------------------------------------------------------|
Gb|-----------------------------------------------------------------|
Db|--------2-------2---------------0-------2-------2-----------0-2--|
Ab|------2-------2-----------0-2-3-------2-------2---------0-2------|
Db|--2---------2-------1-2-3---------2---------2-----1-2-3----------|


Verse
Eb|-----------------------------------------------------------------|
Bb|-----------------------------------------------------------------|
Gb|-----------------------------------------------------------------|
Db|--------2-------2---------------0-------2-------2-----------0----|
Ab|------2-------2-----------0-2-3-------2-------2---------0-2---3--|
Db|--2---------2-------1-2-3---------2---------2-----1-2-3----------|

Eb|-----------------------------------------------------------------|
Bb|-----------------------------------------------------------------|
Gb|-----------------------------------------------------------------|
Db|--------2-------2---------------0-------2-------2-----------0-2--|
Ab|------2-------2-----------0-2-3-------2-------2---------0-2------|
Db|--2---------2-------1-2-3---------2---------2-----1-2-3----------|

Eb|-----------------------------------------------------------------|
Bb|-----------------------------------------------------------------|
Gb|-----------------------------------------------------------------|
Db|--------2-------2---------------0-------2-------2-----------0----|
Ab|------2-------2-----------0-2-3-------2-------2---------0-2---3--|
Db|--2---------2-------1-2-3---------2---------2-----1-2-3----------|

Eb|-----------------------------------------------------------------|
Bb|-----------------------------------------------------------------|
Gb|-----------------------------------------------------------------|
Db|--------2-------2---------------0-------2-------2-------3-2-0----|
Ab|------2-------2-----------0-2-3-------2-------2---------------3--|
Db|--2---------2-------1-2-3---------2---------2-----1-2-3----------|


Pre-Chorus
Eb|-------------------------------------|
Bb|--------3---3-----------0---0--------|
Gb|------0-------0-------0-------0------|
Db|----4-----------4---4-----------4----|  4x
Ab|--2---------------2---------------2--|
Db|-------------------------------------|

Eb|-----------------------------------|
Bb|-----------------------------------|
Gb|--------6b7---6-0-------3b4---3-0--|
Db|------5---------------2------------|
Ab|----5---------------2--------------|
Db|--5---------------2----------------|

Eb|-------------------------------------|
Bb|--------3---3-----------0---0--------|
Gb|------0-------0-------0-------0------|
Db|----4-----------4---4-----------4----|
Ab|--2---------------2---------------2--|
Db|-------------------------------------|

Eb|-----------------------------------|
Bb|-----------------------------------|
Gb|--------6b7---6-0-------3b4---3-0--|
Db|------5---------------2------------|
Ab|----5---------------2--------------|
Db|--5---------------2----------------|


Chorus
Eb|------2-----0----------------------|
Bb|------------------3----------------|
Gb|------------------------4---4------|
Db|----4-----4-----4-----4---------0--|  3x
Ab|--2-----0--------------------------|
Db|--------------2-----2-----2---0----|

Eb|-----------------------------------|
Bb|-----------------------------------|
Gb|--------6b7---6-0-------3b4---3-0--|
Db|------5---------------2------------|
Ab|----5---------------2--------------|
Db|--5---------------2----------------|


Post-Chorus
Eb|--------------------------|
Bb|------0------0------------|
Gb|------------------7*------|
Db|----4------4--------------|  8x
Ab|--2-----/5-----/8---------|
Db|--------------------------|


Bridge
Eb|----------------------------------------------|
Bb|----------------------------------------------|
Gb|----------------------------------------------|
Db|----------------------------------------------|  8x
Ab|----------------------------------------0-1---|
Db|--2--2--0-2-2--2--0-2-3--2--0-2-3-2-0-2-------|


Intro
Verse
Pre-Chorus
Chorus 2x


Guitar Solo
Eb|--17b19---14h17p14----14------------------------------------------------------------|
Bb|-------------------15----14---------------------------------------------------------|
Gb|-----------------------------16--14-------------------------------------------------|
Db|-------------------------------------16--14--12------12--14--14b15-12----12---------|
Ab|-------------------------------------------------14-------------------14----14-12~--|
Db|------------------------------------------------------------------------------------|

Eb|--------------------------------------------------------|
Bb|--------------------------------------------------------|
Gb|------------------------------------------------14~-----|
Db|-------12h14p12-14b15-14b15---14b15r14p12-14/16---------|
Ab|--12h14-------------------------------------------------|
Db|--------------------------------------------------------|

Eb|--------------------------------------------------------------|
Bb|------------14----15----17----19----17----15----14b15r14~-----|
Gb|--14-/16-16----16----16----16----16----16----16---------------|
Db|--------------------------------------------------------------|
Ab|--------------------------------------------------------------|
Db|--------------------------------------------------------------|


Outro
Eb|----------------------------------------------|
Bb|----------------------------------------------|
Gb|----------------------------------------------|
Db|----------------------------------------------|  8x
Ab|----------------------------------------0-1---|
Db|--2--2--0-2-2--2--0-2-3--2--0-2-3-2-0-2-------|


Note: The second guitar plays a slight bend on the 2nd fret of the sixth string
the verses.

Lesson Learned

Artist: Alice in Chains
Title: Lesson Learned
Album: Black Gives Way to Blue

Tuning: (low to high) Eb Ab Db Gb Bb Eb

Tabbed by: FireReaverX


Intro
Eb|-----------------------------------------|
Bb|-----------------------------------------|
Gb|-7-7-9-9-b10=10=r9-9---9-9-9-b10===r9-9--|
Db|-----------------------------------------|
Ab|-----------------------------------------|
Eb|-----------------------------------------|
                                            |  4x
Eb|-----------------------------------------|
Bb|-----------------------------------------|
Gb|-----2-2-3---3---------------------------|
Db|-5-5-2-2-3---3-----2---2---2-2-----2--2--|
Ab|-5-5-0-0-1---1-----2---2---2-2-----2--2--|
Eb|-3-3------------0--0---0---0-0-----0--0--|


Verse
Eb|---------------------------------|
Bb|---------------------------------|
Gb|-----2-2-3-3---------------------|
Db|-5-5-2-2-3-3---2---2---2-2---2-2-|  4x
Ab|-5-5-0-0-1-1---2---2---2-2---2-2-|
Eb|-3-3---------0-0---0---0-0---0-0-|

Eb|-----------------------------------------|
Bb|-----------------------------------------|
Gb|-7-7-9-9-b10=10=r9-9---9-9-9-b10===r9-9--|
Db|-----------------------------------------|
Ab|-----------------------------------------|
Eb|-----------------------------------------|
                                            |  4x
Eb|-----------------------------------------|
Bb|-----------------------------------------|
Gb|-----2-2-3---3---------------------------|
Db|-5-5-2-2-3---3-----2---2---2-2-----2--2--|
Ab|-5-5-0-0-1---1-----2---2---2-2-----2--2--|
Eb|-3-3------------0--0---0---0-0-----0--0--|


Pre-Chorus
Eb|-----------------------------------------------|
Bb|-----------------------------------------------|
Gb|-7-7-9-9-b10=10=r9-7---7-b9-r7-7---6-----------|
Db|-----------------------------------------------|
Ab|-----------------------------------------------|
Eb|-----------------------------------------------|
                                                  |
Eb|-----------------------------------------------|
Bb|-----------------------------------------------|
Gb|-----2-2-3---3-----------------7---2-2-----2-2-|
Db|-5-5-2-2-3---3-----5---5-5---5-7---2-2-----2-2-|
Ab|-5-5-0-0-1---1-----5---5-5---5-5---0-0-----0-0-|
Eb|-3-3------------0--3---3-3---3-----------------|

Eb|--------------------------------------|
Bb|--------------------------------------|
Gb|-9-b10=r9-7---7-b9-r7-7---6-----------|
Db|--------------------------------------|
Ab|--------------------------------------|
Eb|--------------------------------------|
                                         |  2x
Eb|--------------------------------------|
Bb|--------------------------------------|
Gb|-3-3------------------7---2-2-----2-2-|
Db|-3-3------5---5-5---5-7---2-2-----2-2-|
Ab|-1-1------5---5-5---5-5---0-0-----0-0-|
Eb|-------0--3---3-3---3-----------------|


Intro riff 2x
Verse
Pre-Chorus


Chorus
Eb|-----------------------------------------------------------------------------------|
Bb|--------------------12---12-12-12---12-12-13-13---13---13-12-----------------------|
Gb|-9-9---9-9-9-b10-r9--------------------------------------------14---12---11---12---|
Db|-----------------------------------------------------------------------------------|
Ab|-----------------------------------------------------------------------------------|
Eb|-----------------------------------------------------------------------------------|
                                                                                      |  4x
Eb|-----------------------------------------------------------------------------------|
Bb|-----------------------------------------------------------------------------------|
Gb|-9-9-9-9-9-9-9---9---4-4--4--4--4-4--4--4--5--5-5--5-5--5--5-5--2-2--2-2--2-2--2-2-|
Db|-9-9-9-9-9-9-9---9---4-4--4--4--4-4--4--4--5--5-5--5-5--5--5-5--2-2--2-2--2-2--2-2-|
Ab|-7-7-7-7-7-7-7---7---2-2--2--2--2-2--2--2--3--3-3--3-3--3--3-3--0-0--0-0--0-0--0-0-|
Eb|-----------------------------------------------------------------------------------|


Guitar Solo (w/ Rhythm Guitar Verse)
Eb|-----------------------------------------------------------------------------|
Bb|--------------5--------------------------------------------------------------|
Gb|-4-b5===================r4---------------------------------------------------|
Db|-----------------------------------------------------------------------------|
Ab|------------------------------------/10---9-7-5-4-2-2*-b3=r2~----------------|
Eb|-----------------------------------------------------------------------------|
PM                                             . . . .

Eb|-----------------------------------------------------------------------------|
Bb|-/17---17---17---17-17---17-17---15-17-17-b18=====18===18=r17p15-12-h15p12~--|
Gb|-----------------------------------------------------------------------------|
Db|-----------------------------------------------------------------------------|
Ab|-----------------------------------------------------------------------------|
Eb|-----------------------------------------------------------------------------|

(w/ Rhythm Guitar Pre-Chorus)
Eb|-----------------------------------------------------------------------------|
Bb|-----------------------------------------------------------------------------|
Gb|-----------------------------------------------------------------------------|
Db|-/9---7-5-4-5-4---------------------/9---7h9p7-5-4-5-4-----------------------|
Ab|----------------7-4-b5=r4------------------------------7-4-b5=r4-2-0---------|
Eb|-----------------------------------------------------------------------------|

Eb|-----------------------------------------------------------------------------|
Bb|-0-0---------------0---------------------------------------------------------|
Gb|-4-4-/7-4-/9---4---4-/7-4-/9---4---/11/12\11~--------------------------------|
Db|-----------------------------------------------------------------------------|
Ab|-----------------------------------------------------------------------------|
Eb|-----------------------------------------------------------------------------|


Chorus
Outro (Intro)


Take her out

Artist: Alice in Chains
Title: Take Her Out
Album: Black Gives Way to Blue

Tuning: (low to high) Eb Ab Db Gb Bb Eb

Tabbed by: FireReaverX


Lead Guitar Intro (w/ Rhythm Guitar Verse)
Eb|--------------------------------------------------------------------------|
Bb|--------------------------------------------------------------------------|
Gb|--------------------------------------------------------------------------|
Db|-----6-7---9---10---12-14-12---10---9---6---7---9---9h10------------------|
Ab|-7-9-------------------------------------------------------10~------------|
Eb|--------------------------------------------------------------------------|

Eb|---------------------------------------------------------------------------------|
Bb|---------------------------------------------------------------------------------|
Gb|---------------------------------------------------------------------------------|
Db|-----6-7---9---10---12-14-12---10---9---6---7---9---9h10-------------------------|
Ab|-7-9-------------------------------------------------------10~--------9b10r9-7~--|
Eb|---------------------------------------------------------------------------------|


Verse
Eb|-----------------------------------------------------------------|
Bb|-----------------------------------------------------------------|
Gb|-----------------------------------------------------------------|
Db|-2---------2-2-2-2-2-2-2-2-2-2-4-2---------2-2-2-2-2-2-2-2-2-2-4-|
Ab|-2-2-2-2-2-0-0-2-2-3-3-3-3-3-3-3-2-2-2-2-2-0-0-2-2-3-3-3-3-3-3-3-|
Eb|---0-0-4-4-------------------------0-0-4-4-----------------------|
PM  . . . . . . . . . . . . . . . . . . . . . . . . . . . . . . . .

Eb|-----------------------------------------------------------------|
Bb|-----------------------------------------------------------------|
Gb|-----------------------------------------------------------------|
Db|-2---------2-2-2-2-2-2-2-2-2-2-4-2---------2-2-2-2-2-2-2-2-2-2-2-|
Ab|-2-2-2-2-2-0-0-2-2-3-3-3-3-3-3-3-2-2-2-2-2-0-0-2-2-3-3-3-3-3-3-3-|
Eb|---0-0-4-4-------------------------0-0-4-4-----------------------|
PM  . . . . . . . . . . . . . . . . . . . . . . . . . . .


Chorus
Eb|-----------------------------------------------------------------|
Bb|-----------------------------------------------------------------|
Gb|-4-4-4-----------------------------------------------------------|
Db|-2-2-2-5-5-5-5-2-2-2-2-2-2-2-2-2-------5-5-5-5-2-2-2-2-2-2-2-2-2-|
Ab|-------3-3-3-3-0-0-0-0-0-0-0-0-0-5-5-5-3-3-3-3-0-0-0-0-0-0-0-0-0-|
Eb|---------------------------------3-3-3---------------------------|

Eb|-----------------------------------------------------------------|
Bb|-----------------------------------------------------------------|
Gb|-4-4-4-----------------------------------------------------------|
Db|-2-2-2-5-5-5-5-2-2-2-2-2-2-2-2-2-------5-5---------2-2-2-2-2-2-2-|
Ab|-------3-3-3-3-0-0-0-0-0-0-0-0-0-5-5-5-3-3-5-5-5-5-0-0-0-0-0-0-0-|
Eb|---------------------------------3-3-3-----3-3-3-3---------------|


Lead Guitar (w/ Rhythm Guitar Verse)
Eb|--------------------------------------------------------------------------------|
Bb|--------------------------------------------------------------------------------|
Gb|--------------------------------------------------------------------------------|
Db|-----6-7---9---10---12-14-12---10---9---6---7---9---9h10------------------------|
Ab|-7-9-------------------------------------------------------10~--------10-10-/12-|
Eb|--------------------------------------------------------------------------------|

Eb|-------------------------------------------------------------12---------------15-\-12-|
Bb|------------------------------------12b-------------------12----13-12------13----\-12-|
Gb|------------------------------------12b----------------13-------------14---------\----|
Db|-----6-7---9---10---12-14-12---10---------14--------14--------------------------------|
Ab|-7-9----------------------------------------------------------------------------------|
Eb|--------------------------------------------------------------------------------------|


Verse
Chorus


Guitar Solo (w/ Rhythm Guitar Chorus)
Eb|-------------------------------------------------------------------7-------|
Bb|-----------------------------------------------------------2---3-------8---|
Gb|-7b9r7-5-5-b7r5-4-4-b5r4-2h4p2---2-2p0-0-0-2-2--p0h2--2------2-----------x-|
Db|-------------------------------------------------------------------------x-|
Ab|---------------------------------------------------------0-------0---0-----|
Eb|---------------------------------------------------------------------------|

Eb|-----------12----------------------------------------------------------------|
Bb|-12-13-15------15b17---15-13-12b13r12-\10-10~--------------------------------|
Gb|-----------------------------------------------------------------------------|
Db|-----------------------------------------------------------------------------|
Ab|---------------------------------------------------------------/3---2-0-0~---|
Eb|---------------------------------------------------------3-2-0---------------|


Lead Guitar (w/ Rhythm Guitar Verse)
Eb|---------------------------------------------------------------------------|
Bb|---------------------------------------------------------------------------|
Gb|---------------------------------------------------------------------------|
Db|-2----------------(2)----------------(2)----------------(2)----------------|
Ab|-2----------------(2)----------------(2)----------------(2)----------------|
Eb|-0----------------(0)----------------(0)----------------(0)----------------|

Eb|------------------------------------------------------14h15p14----15-14----------------------|
Bb|---------------------------------------------------------------17-------17-15----15------/17-|
Gb|------------------------------------------------------------------------------16------16-----|
Db|-/9~----6-------/10~------7-------/14~-------------------------------------------------------|
Ab|---------------------------------------------------------------------------------------------|
Eb|---------------------------------------------------------------------------------------------|


Verse
Chorus 2x


Lead Guitar Outro (w/ Rhythm Guitar Verse)
Eb|------------------------------------------------------------------------------------------|
Bb|------------------------------------------------------------------------------------------|
Gb|------------------------------------------------------------------------------------------|
Db|-/9~----6-------/10~------7-------/14~----------------------------------------------------|
Ab|------------------------------------------------------------------------------------------|
Eb|------------------------------------------------------------------------------------------|

Eb|-----------------------------------------------------------------------------------------|
Bb|------------------------------------------------------12-----12---------13---------13----|
Gb|----------9---------------------11---------11b12r11-9------9----9----12----12---12----11-|
Db|-9b10r9-9-----------10b11r10-10----------------------------------------------------------|
Ab|-----------------------------------------------------------------------------------------|
Eb|-----------------------------------------------------------------------------------------|


Private Hell

Artist: Alice in Chains
Title: Private Hell
Album: Black Gives Way to Blue

Tuning: (low to high) Eb Ab Db Gb Ab Eb

Tabbed by: FireReaverX


Intro
Eb|-----------------------------------------------------------------|
Bb|-----------------------------------------------------------------|
Gb|-------2-------2-------2-------2-------2-------2-------2-------2-|
Db|---0-------0-------2-------2-------0-------0-------2-------2-----|  2x
Ab|-2---2---2---2---0---0---0---0---2---2---2---2---0---0---0---0---|
Eb|-----------------------------------------------------------------|


Verse
Eb|-----------------------------------------------------------------|
Bb|-----------------------------------------------------------------|
Gb|-------2-------2-------2-------2-------2-------2-------2-------2-|
Db|---0-------0-------2-------2-------0-------0-------2-------2-----|  6x
Ab|-2---2---2---2---0---0---0---0---2---2---2---2---0---0---0---0---|
Eb|-----------------------------------------------------------------|


Pre-Chorus (Lead Guitar)
Eb|----------------------------------------------------------------------------------|
Bb|----------------------------------------------------------------------------------|
Gb|----------------------------------------11b12-----r11-----------------------------|
Db|-9b10-----r9-----------------------------9b10-----r9--------11b12-----r10---------|
Ab|---------------------9b10-----r9-----------------------------9b10-----r9----------|
Eb|----------------------------------------------------------------------------------|

(Rhythm Guitar)
Eb|-------------------3-------------------------------3-------------|
Bb|-----3-----3---------3-----3---------3-----3---------3-----3-----|
Gb|---0-----0---0-----------0---0-----0-----0---0-----------0---0---|
Db|-----------------------------------------------------------------|
Ab|-3-----2-------------------------3-----2-------------------------|
Eb|-----------------3-----2-------------------------3-----2---------|

(Lead Guitar)
Eb|----------------------------------------------------------------------------------|
Bb|----------------------------------------------------------------------------------|
Gb|-11b12-----r11---------------------------9-/11~--------------9-10-/12~------------|
Db|--9b10-----r9--------11b12-----r11---------------------------7--9-/10~------------|
Ab|----------------------9b10-----r9-------------------------------------------------|
Eb|----------------------------------------------------------------------------------|

(Rhythm Guitar)
Eb|-------------------3---------------------------------------------|
Bb|-----3-----3---------3-----3-------------------------------------|
Gb|---0-----0---0-----------0---0---------4-4-4-4-4-4-2-4-5-5-5-5-5-|
Db|---------------------------------4-4-4-4-4-4-4-4-4-2-4-5-5-5-5-5-|
Ab|-3-----2-------------------------2-2-2-2-2-2-2-2-2-0-2-3-3-3-3-3-|
Eb|-----------------3-----2-----------------------------------------|
PM                                  . . . .


Chorus
Eb|-----------------------------------------------------------------|
Bb|-----------------------------------------------------------------|
Gb|-------------------7-7-7-7-7-----4-4-4-4-4-4-4-4-4-2-4-5-5-5-5-5-|
Db|---5-5---5---5-5---7-7-7-7-7---7-4-4-4-4-4-4-4-4-4-2-4-5-5-5-5-5-|  3x
Ab|---5-5---5---5-5---5-5-5-5-5-0-5-2-2-2-2-2-2-2-2-2-0-2-3-3-3-3-3-|
Eb|-0-3-3---3---3-3-------------------------------------------------|


Chorus Fill
Eb|---------------------------------|
Bb|---------------------------------|
Gb|-------------------7-7-7-7-7-----|
Db|---5-5---5---5-5---7-7-7-7-7---7-|
Ab|---5-5---5---5-5---5-5-5-5-5-0-5-|
Eb|-0-3-3---3---3-3-----------------|


Guitar Solo (w/ Rhythm Guitar Verse)
Eb|------------------------------------------------------------------------------------|
Bb|-7-7--------7------7----------7----10--------------7--------------------------------|
Gb|---9b11-----9b11---9b11-b11---9b11----9b11-b11-------/9-----9---7-6-b7-r6-----------|
Db|--------------------------------------------------------------------------7---7/9---|
Ab|----------------------------------------------------------------------------7-------|
Eb|------------------------------------------------------------------------------------|

Eb|------------------------------------------------------------------------------------|
Bb|------------------------------------------------------------------------------------|
Gb|-----------6-7-6-7-9b11r9p7--------7-9-9b11-b11-------9b11r9p7-9-7---6-b7-r6--------|
Db|-7-9-9---9------------------7-/9---------------------------------------------7------|
Ab|------------------------------------------------------------------------------------|
Eb|------------------------------------------------------------------------------------|

Eb|------------------------------------------------9-b10-r9-10-12b14-12---10-9---------|
Bb|-------------------------------------10-12---12-----------------------------12------|
Gb|------6-7-6---------6-7-9-9-----9/11------------------------------------------------|
Db|-/7-9-------------------------------------------------------------------------------|
Ab|------------------------------------------------------------------------------------|
Eb|------------------------------------------------------------------------------------|

Eb|------------------------------------------------------------------------------------|
Bb|----10-----10----------5-----5----------3---2-----3---2-----------------------------|
Gb|------------------------------------------------------2-----2h4-2-------------------|
Db|-/9----9-9----------/7---7-7---------/4---4-------------------------4-3-2-0-2b3p0---|
Ab|----------------------------------------------------0-----0-----------------------2-|
Eb|------------------------------------------------------------------------------------|


Verse 6x
Pre-Chorus
Chorus 4x


Chorus Fill (Lead Guitar)
Eb|-----------------------------------------------------------------|
Bb|-----------------------------------------------------------------|
Gb|-/8~--------------8---8-9~-------/11~-----------11-9-11-b11------|
Db|--------------------9--------------------------------------------|
Ab|-----------------------------------------------------------------|
Eb|-----------------------------------------------------------------|

(Rhythm Guitar)
Eb|-----------------------------------------------------------------|
Bb|-----------------------------------------------------------------|
Gb|-4-4-4-4-4-4-4-4-4-2-4-5-5-5-5-5-4-4-4-4-4-4-4-4-4-2-4-5-5-5-5-5-|
Db|-4-4-4-4-4-4-4-4-4-2-4-5-5-5-5-5-4-4-4-4-4-4-4-4-4-2-4-5-5-5-5-5-|
Ab|-2-2-2-2-2-2-2-2-2-0-2-3-3-3-3-3-2-2-2-2-2-2-2-2-2-0-2-3-3-3-3-3-|
Eb|-----------------------------------------------------------------|

(Lead Guitar)
Eb|-------------------------------------|
Bb|-----------10------------------------|
Gb|-9p7---7----------9-/11-/12-\11-9-\7-|
Db|-----9---9---------------------------|
Ab|------------------7-/9--/10-\9--7-\5-|
Eb|-------------------------------------|

(Rhythm Guitar)
Eb|---------------------------------|
Bb|---------------------------------|
Gb|-------------------7-7-7-7-7-----|
Db|---5-5---5---5-5---7-7-7-7-7---7-|
Ab|---5-5---5---5-5---5-5-5-5-5-0-5-|
Eb|-0-3-3---3---3-3-----------------|


Lead Guitar Outro (w/ Rhythm Guitar Verse)
Eb|---------------------------------------------------------------------------|
Bb|---------------------------------------------------------------------------|
Gb|-4~--------------4-/6~------------7~-----------/9-\6~----------------------|
Db|---------------------------------------------------------------------------|  4x
Ab|-2~--------------2-/4~------------5~-----------/7-\4~----------------------|
Eb|---------------------------------------------------------------------------|


Ending
Eb|---------------------------------------------------------------------------|
Bb|---------------------------------------------------------------------------|
Gb|-4~--------------(4)----------------(4)----------------(4)-----------------|
Db|---------------------------------------------------------------------------|
Ab|-2~--------------(2)----------------(2)----------------(2)-----------------|
Eb|---------------------------------------------------------------------------|

Black Gives Way to Blue

Song: Black Gives Way To Blue
Band: Alice In Chains
Album: Black Gives Way To Blue
Tuning: Half-Step Down
Tabbed by: J.Griff (artificial_inside@hotmail.com)
Comments: When I first heard that these guys were making a CD,
I was pretty shocked. I thought this CD wouldn't sound the same
without Layne Staley, which is true, but this CD still has the
same Alice In Chains feel to it. This song really blew me away
and I have been listening to it ever since. From what I have
seen in a live video, this it what William DuVall plays in
the song.

If there's any corrections that need to be made, let me know.

Thank you and please rate or comment.


Chords:

D sus2     B sus4     A sus2        E        C# m7
e|-0-|     e|-0-|     e|-0-|     e|-0-|     e|-0-|
B|-2-|     B|-0-|     B|-0-|     B|-0-|     B|-0-|
G|-3-|     G|-4-|     G|-2-|     G|-1-|     G|-6-|
D|-0-|     D|-4-|     D|-2-|     D|-2-|     D|-6-|
A|-0-|     A|-2-|     A|-0-|     A|-2-|     A|-4-|
E|---|     E|---|     E|---|     E|---|     E|---|

Intro:

D sus2    B sus4    A sus2     E

D sus2    B sus4    A sus2     E

D sus2        B sus4        A sus2     E
      I don't wanna feel no more

D sus2        B sus4      A sus2     E
      It's easier to keep falling
D sus2   B sus4      A sus2     E
      Imitations are pale
D sus2         B sus4    A sus2
      The emptiness of tomorrows
      C# m7           D sus2     B sus4
      haunted by your ghost


A sus2   E                  D sus2     B sus4
Lay down black gives way to blue
A sus2   E          D sus2     B sus4
Lay down I remember you


A sus2     E      D sus2     B sus4

A sus2     C# m7


D sus2       B sus4      A sus2     E
      Fading out by design
D sus2        B sus4       A sus2     E
      Consciously avoiding changes
D sus2         B sus4         A sus2     E
      Curtains drawn now it's done
D sus2     B sus4     A sus2
      Silencing all tomorrows,
      C# m7          D sus2     B sus4
      forcing a good-bye


A sus2   E                  D sus2     B sus4
Lay down black gives way to blue
A sus2   C# m7         D sus2
Lay down I'll remember you


Special Thanks to FireReaverX for tabbing most of these songs, keep on rocking and 
remember to rate!
comments
print report bad tab
5 comments total. Showing first comments.
0 reply
Kill'emall 83 wrote on October 8 2009, 07:55 pm

dude it's just down a half step and intro is on the 1st fret and 2nd fret of the Low E String

0 reply
Kill'emall 83 wrote on October 8 2009, 07:57 pm

Oh shit never mind bout what I said I wasnt looking in the right spot sorry...

0 reply
rocker222 wrote on October 8 2009, 09:30 pm

thanks for doing all of this man

I want to post or [tab]
guest
You may want to rate the tab now too:
select rating
Please do not post tabs as comments. Select "correction" instead!