Oops, an error
Loading. Please wait.

Dirt Tab

ver1
ver1

Album

Whole song

Interactive

More versions @911Tabs.com
44,463 views 60 this week
7 commentsread comments
1 2 3 4 5
accurate
x 9
Autoscroll
+/-
esc
set tempo
stop
Contributor
Hey! There's an official Ultimate Guitar app which is ideal
for learning songs when you're away from computer. Get the app
WARNING: You are trying to view
                                    content from Ultimate-Guitar.com
                                    in an unauthorized application,
                                    which is prohibited.

                                    Please use an official Ultimate
                                    Guitar Tabs application for iPhone,
                                    iPad or Android to access legitimate
                                    chords, guitar, bass, and drum tabs
                                    from Ultimate-Guitar.com database.

                                    Type "ultimate guitar tabs" in Apple
                                    App Store's or Android Market's
                                    search to find the application.
Band- Alice In Chains
Album- Dirt

1.THEM BONES

Tuning Db Ab Db Gb Bb Eb  aka C# G# C# F# A# D#

Intro:
eb|-----------------------------------------||
Bb|10---------------------------------------||
Gb|10---------------------------------------||o
Db|10---------------------------------------||o
Ab|-0--0--0--1--1--1--1--2--2--2--3--0--0---||
Db|-0--0--0--1--1--1--1--2--2--2--3--0--0---||
pm     ......................................

eb|----------------------------------------|
Bb|-10-------------------------------------|
Gb|-10-------------------------------------|
Db|-10-------------------------------------|
Ab|--0----0--0--1--1--1--1--2--2--2--3-----|
Db|--0----0--0--1--1--1--1--2--2--2--3-----|
pm        ................................

Verses:
eb|---------------------------------||
Bb|---3-----------------------------||
Gb|---2-----------------------------||o
Db|---0------1-------2.------3------||o repeat
Ab|---0------1-------2.------3------||
Db|---0------1-------2.------3------||

eb|---------------------------------|
Bb|---3-----------------------------|
Gb|---2-----------------------------|
Db|---0------1-------2.------3---0--|
Ab|---0------1-------2.------3---0--|
Db|---0------1-------2.------3---0--|

Chorus:
eb|-----------------------------------------------|
Bb|-------------------------------------------10--|
Gb|--------------------------------------------9--|
Db|--------------------------------------9/11-----|
Ab|--/8-----8-----8--8--8--7---7--7--7------------|
Db|--/8-----8-----8--8--8--7---7--7--7------------|

eb|---------------------------------------------|-------|
Bb|---------------------------------------------|-------|
Gb|---------------------------------------------|-------|
Db|---------------------------------------------|-------|
Ab|--10---10-----10--10--10--9----9--9--9--9--8-|--8--0-|
Db|--10---10-----10--10--10--9----9--9--9--9--8-|--8--0-|
                                                   ^  ^ dont play
							these 1st time

Guitar Solo: w/heavy distortion (guitar 2)
eb|------------------------------------------------------------|
Bb|------------------------------N.H---------------------------|
Gb|-------------------------------4*------------------5---12^--|
Db|-3-------3-------5-----6-----5---3^-----------5/7-----------|
Ab|---5-5-5---5-5-5---5-5---5-5--------5-3-5---3---------------|
Db|------------------------------------------------------------|
pm    .....   .....   ...   ...

eb|----------------------------------------------------------|
Bb|----------------------------------------------------------|
Gb|-12^--(12)---12^p10---------------------------------------|
Db|----------------------12----10h12p10----------------------|
Ab|-------------------------------------12p10-10\8--10^---8--|
Db|----------------------------------------------------------|

eb|----------------------------------------------------------------|
Bb|-----------13--13--13--11---10h11p10----------------------------|
Gb|--9-----9-----------------------------10------------------------|
Db|------------------------------------------12--------------10-12-|
Ab|--------------------------------------------------8-10-12-------|
Db|----------------------------------------------------------------|
pm                                                   ..............

eb|----------------------------------------------------------------|
Bb|------10h11-p10--------10-11-13^--11-13-11--10-------8-10-10^---|
Gb|-9-10-----------------------------------------------------------|
Db|----------------------------------------------------------------|
Ab|----------------------------------------------------------------|
Db|----------------------------------------------------------------|
pm......

eb|-15^-----15--13-----13--------------------20^----20--18--17-----|
Bb|-----------------15----15--15^----15------------------------20--|
Gb|----------------------------------------------------------------|
Db|----------------------------------------------------------------|
Ab|----------------------------------------------------------------|
Db|----------------------------------------------------------------|

eb|-17--------------------------------------------------------------|
Bb|-----20^--20--18-----18------18h20p18----18h20p18----18h20p18----|
Gb|-----------------19------19-----------19----------19----------19-|
Db|-----------------------------------------------------------------|
Ab|-----------------------------------------------------------------|
Db|-----------------------------------------------------------------|

eb|-----------------------------------------------------------------|
Bb|-18h20p18----18h20p18----18h20p18----18h20p18----18--20^--20--18-|
Gb|----------19----------19----------19----------19-----------------|
Db|-----------------------------------------------------------------|
Ab|-----------------------------------------------------------------|
Db|-----------------------------------------------------------------|

gradual bend         ************************************
eb|-----------------------------------------------------------------|
Bb|-----18----------------------------------------------------------|
Gb|--19----19--19--/12^--^--12^--12^--12^--12^--12^--12^--12^p10----|
Db|--------------------------------------------------------------12-|
Ab|-----------------------------------------------------------------|
Db|-----------------------------------------------------------------|
w/wah        .......................................................

continued: w/wah
eb|----------------------------------------------------------------|
Bb|----------------------------------------------------------------|
Gb|-10---------10--------------------------------------------------|
Db|-------12---------12----10p12--12--12--12--10--10---------------|
Ab|---------------------------------------------------12\----------|
Db|----------------------------------------------------------------|

During the end of the solo guitar 1 uses his drive bar and hits
the B string 10th fret first, then A string open and  has
it so his strings are very slacky towards the end.

Coda/outro:
eb|-----------------------------------------------|
Bb|-------------------------------------------10--|
Gb|--------------------------------------------9--|
Db|--------------------------------------9/11-----|
Ab|--/8-----8-----8--8--8--7---7--7--7------------|
Db|--/8-----8-----8--8--8--7---7--7--7------------|

eb|---------------------------------------------------|
Bb|---------------------------------------------------|
Gb|---------------------------------------------------|
Db|---------------------------------------------------|
Ab|--10---10-----10--10--10--9----9--9--9--9--8--8--0-|
Db|--10---10-----10--10--10--9----9--9--9--9--8--8--0-|

eb|-----------------------------------------------|
Bb|-------------------------------------------10--|
Gb|--------------------------------------------9--|
Db|--------------------------------------9/11-----|
Ab|--/8-----8-----8--8--8--7---7--7--7------------|
Db|--/8-----8-----8--8--8--7---7--7--7------------|


eb|------------------------------------------------|
Bb|------------------------------------------------|
Gb|------------------------------------------------|
Db|------------------------------------------------|
Ab|--10---10-----10--10--10--9----9--9--9--9--8-\--|
Db|--10---10-----10--10--10--9----9--9--9--9--8-\--|

2.DAM THAT RIVER

Tuning Db Ab Db Gb Bb eb

Intro:
eb|-------------------------------------------------------------------------|
Bb|-------------------------------------------------------------------------|
Gb|-------------------------------------------------------------------------|
Db|-------------------------------------------------------------------------|
Ab|-3---4---5---0-----5---6--7--6--5--3--0----3--4--5--0---5--6--7--6--5--3-|
Db|-3---4---5---0-----5---6--7--6--5--3--0----3--4--5--0---5--6--7--6--5--3-|

eb|-----------------------------------------------------------------|
Bb|-----------------------------------------------------------------|
Gb|---------5-------2-----------------------5------2----------------|
Db|--3^----------3--------3---5------3^---------3-------5---3^------|
Ab|-------------------------------5------------------------------5--|
Db|-----------------------------------------------------------------|

Verse:
eb|--------------------------------------------------------|
Bb|--------------------------------------------------------|
Gb|--------------------------------------------------------|
Db|--------------------------------------------------------|
Ab|--------------------------------------------------------|
Db|--------------------------------------------------------|

eb|----------------------------------------------------------------|
Bb|----------------------------------------------------------------|
Gb|--5/6\5--------------------------------------5/6\5--------------|
Db|--3/4\3-------------3--------5^-----3--------3/4\3--------------|
Ab|--------------3h5---------5-------------5------------5---5---3--|
Db|----------------------------------------------------------------|
pm                                                      ..........

Chorus:
eb|-------------------------------------------------------------------------|
Bb|-------------------------------------------------------------------------|
Gb|-------------------------------------------------------------------------|
Db|-------------------------------------------------------------------------|
Ab|-3---4---5---0-----5---6--7--6--5--3--0----3--4--5--0---5--6--7--6--5--3-|
Db|-3---4---5---0-----5---6--7--6--5--3--0----3--4--5--0---5--6--7--6--5--3-|

eb|-----------------------------------------------------------------|
Bb|-----------------------------------------------------------------|
Gb|---------5-------2-----------------------5------2----------------|
Db|--3^----------3--------3---5------3^---------3-------5---3^------|
Ab|-------------------------------5------------------------------5--|
Db|-----------------------------------------------------------------|

Guitar Solo:  Guitar 1
eb|---------------------------------------------------------|
Bb|-----------------5------------------5---------5-------5--|
Gb|-----------------5-------5----5h7---5-----------------7^-|
Db|---5---6----7-------------------------------------0------|
Ab|---------------------------------------------------------|
Db|---------------------------------------------------------|
              Guitar 2
eb|----------------------------------------------------------|
Bb|----------------------------------------------------------|
Gb|----------------------------------------------------------|
Db|----------------------------------------------------------|
Ab|---7----6----5----3------3-----3----3----3----3----3----3-|
Db|---7----6----5----3------3-----3----3----3----3----3----3-|
pm                          .................................

             Guitar 1: continued...
eb|---------------------------------10--~~~~---------------|
Bb|----6--------8---------10--------13^-~~~~---------------|
Gb|----8^------10^--------12^------------------------------|
Db|--------------------------------------------------------|
Ab|--------------------------------------------------------|
Db|--------------------------------------------------------|
             Guitar 2: continued...
eb|-----------------------------------------------------------------------|
Bb|-------------------------------------3---------3-----------------------|
Gb|-------------------------------------2---------2-----------------------|
Db|--7----------------------------------0---------0-----------------------|
Ab|--5---6----3----6----3----0----0-----0---------0--------7---6---5---3--|
Db|------6----3----6----3----0----0-----0---------0--------7---6---5---3--|

             Guitar 1: continued....
eb|--------------------------------------------------------------------------|
Bb|---13----13------------10---0---10----------------------------------------|
Gb|---12^---12^--12h10----10---0---10--10------------------gradual--------12-|
Db|--------------------12------0----------12--10-------------1/2-----------x-|
Ab|-----------------------------------------------11--10--8--10^----10^---10-|
Db|-----------------------------------------------------------------full-----|
             Guitar 2: continued....
eb|---------------------------------------------------------------------------|
Bb|------------------------------------------------------------------3----3---|
Gb|------------------------------------------------------------------2----2---|
Db|--------------------------------------7---------------------------0----0---|
Ab|--3----3----3----3----3----3-----3----5---6---3---6---3---0---0---0----0---|
Db|--3----3----3----3----3----3-----3--------6---3---6---3---0---0---0----0---|
pm ...................................

             Guitar 1: continued
eb|------------------------------------------------------------------------|
Bb|------------------------------------------------------------------------|
Gb|-12/14---12\10--10--10/12---12/14---12---7-----5--7--7--5--7--7--5--4---|
Db|--x--x----x--x---x---x--x----x--x----x---x-----x--x--x--x--x--x--x--x---|
Ab|-10/12---10\-8---8---8/10---10/12---10---5-----3--5--5--3--5--5--3--2---|
Db|------------------------------------------------------------------------|
             Guitar 2: continued
eb|------------------------------------------------------------------------|
Bb|-3--3-------------------------------------------------------------------|
Gb|-2--2-------------------------------------------------------------------|
Db|-0--0----------------------------------------------------7--------------|
Ab|-0--0------7----6---5---3-----3--3--3--3--3--3--3--3--3--5--6--3----0---|
Db|-0--0------7----6---5---3-----3--3--3--3--3--3--3--3--3-----6--3----0---|
pm                               ..........................

             Guitar 1: continued....
eb|--------------------------------------------------------------------|
Bb|--------------------------------------------------------------------|
Gb|--5/7----7---7---7---5------7^-------7^------7---5h7-5--------------|
Db|--x-x----x---x---x---x----------------------------------6---5-------|
Ab|--3/5----5---5---5---3-------------------------------------------8--|
Db|--------------------------------------------------------------------|

3.RAIN WHEN I DIE

Tuning: Down a half step/ "Dropped D" (Db Ab Db Gb Bb Eb)
(Chords given for regular tuning)


Verse
-----
  D5
|-------------------------------------------------|
|-------------------------------------------------|
|-------------------------------------------------|
|-----------------3-------------------------------|
|-3h5-3---0-------------------3-h-5---------------|
|-------------3-----------0-----------0---3---0---|

  1 e + a 2 e + a 3 e + a 4 e + a 5 e + a 6 e + a

                                          C5
|-------------------------------------------------|
|-------------------------------------------------|
|-------------------------------------------------|
|-----------------3-------------------------------|
|-3h5-3---0-------------------3-h-5-------3-------|
|-------------3-----------0-----------0-------0---|
  1 e + a 2 e + a 3 e + a 4 e + a 5 e + a 6 e + a


Chorus
------

  Dm                Bbsus4                      F5
|-----------------|-----------------1---------------|
|-----------------|-------------1-------------------|
|-----------------|-3-------------------------------|
|-----------------|-3---------------------------3--s|
|---------0-h-5---|-1---------------------------3--s|
|-0-h-3-----------|-----------------------------3--s|
  1 e + a 2 e + a   1 e + a 2 e + a 3 e + a 4 e + a

      G5
|---------------------------------|
|---------------------------------|
|---------------------------------|
|-----5---5-------5---------------|
|-----5---5-------5---------------|
|-----5---5-------5---------------|
  1 e + a 2 e + a 3 e + a 4 e + a

  Bbsus4                      F5        G5          Dm
|-----------------1---------------|---------------------------------|
|-------------1-------------------|---------------------------------|
|-3-------------------------------|---------------------------------|
|-3---------------------------3--s|-----5---5-----------------------|
|-1---------------------------3--s|-----5---5---------------0-h-5---|
|-----------------------------3--s|-----5---5-------0-h-3-----------|
  1 e + a 2 e + a 3 e + a 4 e + a   1 e + a 2 e + a 3 e + a 4 e + a

  Bbsus4                      F5        G5
|-----------------1---------------|---------------------------------|
|-------------1-------------------|---------------------------------|
|-3-------------------------------|---------------------------------|
|-3---------------------------3--s|-----5---5-------5---------------|
|-1---------------------------3--s|-----5---5-------5---------------|
|-----------------------------3--s|-----5---5-------5---------------|
  1 e + a 2 e + a 3 e + a 4 e + a   1 e + a 2 e + a 3 e + a 4 e + a

  Bbsus4                                C5
|-----------------1---------------|---------------------------------|
|-------------1-------------------|---------------------------------|
|-3---------------------------3--s|-----5---5-----------------------|
|-3---------------------------3--s|-----5---5-----------------------|
|-1---------------------------1--s|-----3---3-----------------------|
|---------------------------------|---------------------------------|
  1 e + a 2 e + a 3 e + a 4 e + a   1 e + a 2 e + a 3 e + a 4 e + a

4.SICKMAN

Tune all strings down 1/2 step

(drums) 3  Gtr 1            Rhy. Fig. 1
|---------|----------------|----------------------------------|
|---------|----------------|----------------------------------|
|---------|--11\-----------|----------------------------------|
|---------|--11\-------11p7|----------------------------------|
|---------|----------------|----------3-3-3-------3-------3---|
|---------|----------------|--2-2-2-2-------2-2-2---2-2-2---2-|
|Gtr. 2                     P.M...........................
|---------|----------------|------------------------------|
|---------|----------------|------------------------------|
|---------|----------------|------------------------------|
|---------|----------------|--7--------------------7------|
|---------|----------------|------------------------------|
|---------|----------------|------------------------------|
                             w/delay
Gtr.1
(end Rhy. Fig1)
|----------------------------------|----------------------------------|----------------------------------|
|----------------------------------|----------------------------------|----------------------------------|
|----------------------------------|----------------------------------|----------------------------------|
|----------------------------------|----------------------------------|----------------------------------|
|---------3-3-3-------3-------3----|---------3-3-3-------3-------3----|---------3-3-3-------3-------3----|
|-2-2-2-2-------2-2-2---2-2-2---2--|-2-2-2-2-------2-2-2---2-2-2---2--|-2-2-2-2-------2-2-2---2-2-2---2--|
|P.M.....................................................................................................
|Gtr. 2
|----------------------------------|----------------------------------|----------------------------------|
|----------------------------------|----------------------------------|----------------------------------|
|----------------------------------|----------------------------------|----------------------------------|
|--7------------------7------------|--7------------------7------------|--7------------------7------------|
|----------------------------------|----------------------------------|----------------------------------|
|----------------------------------|----------------------------------|----------------------------------|

Verse w/Rhy. fig. 1
1. What the hell am I? Thousand  eyes a fly. Lucky then I'd be in one day deceased.
2. What the hell am I? Leper from inside. Inside wall of peace dirty and deceased.
3. What the hell am I? Worn eroded pride. Saddened ten miles wide. I'm gonna let it slide

chorus w/ Rhy. Fig. 2
1.,2.,3.  Sickman  sickman, sickman, sickman
Rhy fig. 2 Gtr. 1
|-------------------------------|--------------------------------|
|-------------------------------|--------------------------------|
|-------------------------------|---------8-8-8--------7-7-----5-|
|---------3-3---------3-3-----3-|-7-7-7-7-7-7----5-5-5-5-5-3-3-5-|
|---------1-1---------1-1-----1-|--------------------------------|
|-0-0-0-0-----0-0-0-0-----0-0---|--------------------------------|

Rhy. fig. 1 (first 2 meas.)

Bridge Gtr. 1
|-------------------------------|-------------------------------|
|--------/10----------/10-------|--------/10----------/10-------|
|---------/8-----------/8-------|---------/8-----------/8-------|
|-------------------------------|-------------------------------|
|-------------------------------|-------------------------------|
|-------------------------------|-------------------------------|
         ah            ah                 ah            ah
         ah            ah                 ah            ah

The slow part(?) Gtr. 1
let ring
|-------------------------|-------------------------|-------------------------|-------------------------|
|---------4-----------4---|---------4-----------4---|---------4-----------4---|--------4-----------3----|
|------2----------2-------|------2----------2-------|------2----------2-------|-----2--------------2----|
|--------------1----------|--------------0----------|--------------1----------|------------5---5---0----|
|--0----------------------|--0----------------------|--0----------------------|--0---------3---3---0----|
|-------------------------|-------------------------|-------------------------|-------------------------|
 I       can               feel   the wheel    but    I        can't            steer,
 I       can               see    the end       is    get -    ting             near

|-------------------------|-------------------------|-------------------------|---------------------------0-|
|------------4--------4---|---------4-----------4---|---------4-----------4---|--------4--------3---------0-|
|---------2--------2------|------2----------2-------|------2----------2-------|-----2-----------2-----------|
|---------------1---------|--------------0----------|--------------1----------|-----------5--5--0-----------|
|--3b--0------------------|--0----------------------|--0----------------------|--0--------3--3--0-----------|
|-------------------------|-------------------------|-------------------------|--------------------3b-0-----|
 when    my                thoughts   become   my    big  -   gest          fear
  I      won't             rest  un - til    my      head    is             clear

Rhy fig. 3 Gtr.1                    (end Rhy. fig. 3)
|-------------------------|-----------------------0--|
|-------------------------|-----------------------0--|
|-------------------------|--------------------------|
|------------3---------2--|--------------------------|
|------5-----------4------|--5---5---7---5b----------|
|--6------------5---------|--3---3---5---3b---0------|
 Ah                         what's the difference I'll die

w/Rhy. Fig. 3 (twice)
In this sick world of mine

2nd time through
Interlude
Rhy. Fig. 4 Gtr. 1
(end Rhy. fig. 4)
|---------------------|-----------------------|-----------------------|-----------------------|
|---------------------|-----------------------|-----------------------|-----------------------|
|--------4------------|-------------------3---|--------4--------------|-----------------3-----|
|-----4-----------4---|--------4--------------|-----4--------------4--|--------4--------------|
|--2-----------2------|-----2---------3-------|--2------------2-------|-----2--------4--------|
|-----------0---------|--3---------2----------|------------3----------|--3--------2-----------|

w/Rhy. Fig. 4 (3 1/2 times)
Can you see the end?
Choke on me my friend
Must to drown these thoughts
Purity over rot

Rhy. Fig. 5 Gtr. 1
(end Rhy. fig. 5)
|-----------------------|-----------------------|-----------------------|-----------------------|
|-----------------------|-----------------------|-----------------------|-----------------------|
|--------6--------------|--------5---------4----|--------6--------------|--------5--------------|
|-----6------------6----|-----------------------|-----4-------------6---|-----------4---2---2---|
|--4-----------4--------|-----6---------5-------|--4------------4-------|-----6-----4---2---2---|
|-----------5-----------|--4--------3-----------|-----------5-----------|--4--------2---0---0---|

(Rhy. fig. 5 is played twice under the guitar solo)

5.ROOSTER

intro, verse:

        F#5     A5~Asus2
Eb- E  02-0----5--0--0-|
Bb- B  02-0----5--0--0-|
F-- F# 00-0----7--3--3-|   repeat for duration of intro, 2 verses
Db- D  44-4----7--2--2-|   (Ain't found a way....leads me to nowhere)
Ab- A  44-4----0--0--0-|
Eb- E  02-0----|-------|

pre-chorus:

B       Asus2   F#5             B      Asus2
|-------0-------02-0----|-------|-------0-------|
0-------0-------02-0----|-------0-------0-------|
0-------3-------00-0----|-------0-------3-------|
4-------2-------44-4----|-------4-------2-------|
2-------0-------44-4----|-------2-------0-------|
|-------|-------02-0----|-------|-------|-------|
Here they come...               Yeah, here comes the Rooster...


chorus:

F#5     Asus2   F#5
02-0----0-------|--0----|
02-0----0-------|--0----|
00-0----3-------|--0----| repeated several times
44-4----2-------|--4----|
44-4----0---4320|--4----|
02-0----|-------0--0----|
   ^    ^          ^
   |    |          |
   |    CRUNCH!    OBCRUNCH!
   CRUNCH!
        You know he ain't gonna die...


"interlude riff":

F#5     E       F#5     Asus2
|-------|-------|-------|-------|
|-------|-------|-------|-------|
|-------|-------|-------|-------| repeat 2 more times
|-------|-------|-------|-------|
2124----4--2--4-1-------|-------|
2--2----0-------|20-----|-------|
                        ^
                        |
                       ********************************************
                       *This is the hardest part of the song...   *
                       *the guitar plays nothing here, even though*
                       *you ache to crunch out an Asus2!          *
                       ********************************************

Come out into another pre-chorus, chorus, verse, pre-chorus, chorus,
and then outro. Don't step on any mines while playing (even though
it'd be COOL!).


enjoy


             Rob Goggins  rob@praline.nrlssc.navy.mil
From: WLarmore@aol.com
Date: Sun, 11 Aug 1996 12:13:25 -0400


Here is the correct way to play this excellent song.  The other version is
terribly wrong.  You don't need any crazy alternate tunings besides the usual
1/2 step down.

Okay, here is the CORRECT way to play Rooster by Alice in Chains:


(As always, tune down 1/2 step!)

Intro:
     =

Guitar 1 (clean w/ chorus)     =


     F#  F#7add4         A   Aadd2

e----2-2-0---0-0-0-0--|--5-5-0---0-0-0-0-----|
B----2-2-0---0-0-0-0--|--5-5-0---0-0-0-0-----|
G----3-3-3---3-3-3-3--|--6-6-6---6-6-6-6-----|
D----4-4-4---4-4-4-4--|--7-7-7---7-7-7-7-----|   (Repeat a couple of times)
A----4-4-4---4-4-4-4--|--7-7-7---7-7-7-7-----|
E----2-2-2---2-2-2-2--|--5-5-5---5-5-5-5-----|


1st verse:

Guitar 1 repeats intro

Guitar 2 (w/ dist. & envelope filter) plays:

                           (fdbk)
e--------|-----|-----|-----|-----|-----|-----|-----|-----|-----------|
B--------|-----|-----|-----|-----|-----|-----|-----|-----|-----------|
G---6~~~~|~~~~~|~~~~~|~~~~~|~(6)~|~~~~~|~(6)~|~~~~~|~~~~~|~~~--------|
D--------|-----|-----|-----|-----|-----|-----|-----|-----|-----------|
A--------|-----|-----|-----|-----|-----|-----|-----|-----|---4--3--2-|
E--------|-----|-----|-----|-----|-----|-----|-----|-----|-----------|

e-------------|--------|---------|--5~~~-------|--5------|-----------------|
B-------------|--------|----7~~~~|---------5-7-|----7----|--(7)~~~---------|
G-------------|--------|---------|--2~~~-------|--2------|-----------------|
D-------4~~~~~|--------|--4------|---------2-4-|----4----|--(4)~~~---------|
A-------------|--------|---------|-------------|---------|-----------------|
E--5-2--------|---5~~~~|---------|-------------|---------|-----------------|

Chorus:

(I'm getting lazy, so you'll have to figure out the strumming by yourself=
=2E)
(It's not hard!)

   B   D                  F#7ADD4/E    F#     B/F#

e--7---10---X-X---         ---0--------2----------------------|
B--7---10---X-X---         ---0--------2-------4--------------|
G--8---11---X-X---         ---3--------3-------4--------------|
D--9---12---X-X---         ---4--------4-------4--------------|
A--9---12---X-X---         ---4--------4-------2--------------|
E--7---10---------         ---0--------2-------2--------------|


Then repeat the first B & D part, then this:

e--------0~~--|------------------|--------0~~---|-----5--(5)~~--|
B--------0~~--|------------------|--------0~~---|-----5--(5)~~--|
G--------3~~--|--2---------------|--------3~~---|--2--2--(2)~~--|
D-----4--4~~--|--2---------------|--2-----4~~---|--2--2--(2)~~--|
A--2--4--4~~--|--0--4~~-3~~-2~~--|--0--4--4~~---|--0--0--(0)~~--|
E--0--2--2~~--|------------------|-----2--2~~---|---------------|


Interlude:

e---------------|-------------|--------------|------------------------|
B---------------|-------------|--------------|------------------------|
G--4--3--4--4/6-|--6--4--4/6--|--3-----------|--4--3--4--4/6--6--6/9--|
D---------------|-------------|-----4--2--2--|------------------------|
A--2--1--2--2/4-|--4--2--2/4--|--1-----------|--2--1--2--2/6--4--4/7--|
E---------------|-------------|-----2--0--0--|------------------------|

e-----------------|-------------|
B-----------------|-------------|
G--9--9/11--9--11-|--14--11--9--|
D-----------------|-------------|
A--7--7/9---7--9--|--12--9---7--|
E-----------------|-------------|

2nd verse:
       fdbk

e----|-------|----|----------|------|--------|--14---------|----------------|
B----|-------|----|--17--14--|--17--|--(17)--|--------17~~-|-14---14~~------|
G----|-------|----|----------|------|--------|-----14------|-14-------------|
D--4-|--(4)--|----|----------|------|--------|-------------|----17----------|
A--4-|--(4)--|----|----------|------|--------|-------------|----------------|
E--2-|--(2)--|----|----------|------|--------|-------------|----------------|

e------------|-------------------------|----------------------------|---------|
B--14'-------|-------------------------|----------------------------|----17~~-|
G--14'-------|-------14----------14----|-------14----16----14-16/18-|-18------|
D------16~~~-|-14-16----16-14-16----16-|-14-16----16----16----------|---------|
A------------|-------------------------|----------------------------|---------|
E------------|-------------------------|----------------------------|---------|

Outro:
                           1/2             ALL BENDS 1/2
e--X--------|----|-16-17-16'`16--|-14------------------------------|----|------|
B----X------|----|---------------|-----16'`(16)-16'-16'-16'`(16)'--|-14-|-(14--|
G------X----|----|---------------|---------------------------------|----|------|
D--------4--|----|---------------|---------------------------------|----|------|
A--------4--|----|---------------|---------------------------------|----|------|
E--------2--|----|---------------|---------------------------------|----|------|
and that's it...


        -Will


From: WLarmore@aol.com
Date: Fri, 16 Aug 1996 19:02:33 -0400

Okay, here is the CORRECT way to play Rooster by Alice in Chains:
=0D

(As always, tune down 1/2 step!)
=0D
Intro:
     =

Guitar 1 (clean w/ chorus)     =

=0D
     F#  F#7add4         A   Aadd2
=0D
e----2-2-0---0-0-0-0--|--5-5-0---0-0-0-0-----|
B----2-2-0---0-0-0-0--|--5-5-0---0-0-0-0-----|
G----3-3-3---3-3-3-3--|--6-6-6---6-6-6-6-----|
D----4-4-4---4-4-4-4--|--7-7-7---7-7-7-7-----|   (Repeat a couple of times=
)
A----4-4-4---4-4-4-4--|--7-7-7---7-7-7-7-----|
E----2-2-2---2-2-2-2--|--5-5-5---5-5-5-5-----|
=0D

1st verse:
=0D
Guitar 1 repeats intro
=0D
Guitar 2 (w/ dist. & envelope filter) plays:
=0D
                           (fdbk)
e--------|-----|-----|-----|-----|-----|-----|-----|-----|-----------|
B--------|-----|-----|-----|-----|-----|-----|-----|-----|-----------|
G---6~~~~|~~~~~|~~~~~|~~~~~|~(6)~|~~~~~|~(6)~|~~~~~|~~~~~|~~~--------|
D--------|-----|-----|-----|-----|-----|-----|-----|-----|-----------|
A--------|-----|-----|-----|-----|-----|-----|-----|-----|---4--3--2-|
E--------|-----|-----|-----|-----|-----|-----|-----|-----|-----------|
=0D
e-------------|--------|---------|--5~~~-------|--5------|----------|
B-------------|--------|----7~~~~|---------5-7-|----7----|--(7)~~~--|
G-------------|--------|---------|--2~~~-------|--2------|----------|
D-------4~~~~~|--------|--4------|---------2-4-|----4----|--(4)~~~--|
A-------------|--------|---------|-------------|---------|----------|
E--5-2--------|---5~~~~|---------|-------------|---------|----------|
=0D


Chorus:
=0D
(I'm getting lazy, so you'll have to figure out the strumming by yourself=
=2E)
(It's not hard!)
=0D
   B   D                  F#7ADD4/E    F#     B/F#
=0D
e--7---10---X-X---         ---0--------2----------------------|
B--7---10---X-X---         ---0--------2-------4--------------|
G--8---11---X-X---         ---3--------3-------4--------------|
D--9---12---X-X---         ---4--------4-------4--------------|
A--9---12---X-X---         ---4--------4-------2--------------|
E--7---10---------         ---0--------2-------2--------------|
=0D

Then repeat the first B & D part, then this:
=0D
e--------0~~--|------------------|--------0~~---|-----5--(5)~~----------------|
B--------0~~--|------------------|--------0~~---|-----5--(5)~~----------------|
G--------3~~--|--2---------------|--------3~~---|--2--2--(2)~~----------------|
D-----4--4~~--|--2---------------|--2-----4~~---|--2--2--(2)~~----------------|
A--2--4--4~~--|--0--4~~-3~~-2~~--|--0--4--4~~---|--0--0--(0)~~----------------|
E--0--2--2~~--|------------------|-----2--2~~---|---------------------------0-|

Interlude:
=0D
e---------------|-------------|--------------|------------------------|
B---------------|-------------|--------------|------------------------|
G--4--3--4--4/6-|--6--4--4/6--|--3-----------|--4--3--4--4/6--6--6/9--|
D---------------|-------------|-----4--2--2--|------------------------|
A--2--1--2--2/4-|--4--2--2/4--|--1-----------|--2--1--2--2/6--4--4/7--|
E---------------|-------------|-----2--0--0--|------------------------|
=0D
e-----------------|-------------|
B-----------------|-------------|
G--9--9/11--9--11-|--14--11--9--|
D-----------------|-------------|
A--7--7/9---7--9--|--12--9---7--|
E-----------------|-------------|
=0D


2nd verse:
       fdbk                                                           =

e----|-------|----|----------|------|--------|--14---------|----------------|
B----|-------|----|--17--14--|--17--|--(17)--|--------17~~-|-14---14~~------|
G----|-------|----|----------|------|--------|-----14------|-14-------------|
D--4-|--(4)--|----|----------|------|--------|-------------|----17----------|
A--4-|--(4)--|----|----------|------|--------|-------------|----------------|
E--2-|--(2)--|----|----------|------|--------|-------------|----------------|
=0D
e------------|-------------------------|----------------------------|---------|
B--14'-------|-------------------------|----------------------------|----17~~-|
G--14'-------|-------14----------14----|-------14----16----14-16/18-|-18------|
D------16~~~-|-14-16----16-14-16----16-|-14-16----16----16----------|---------|
A------------|-------------------------|----------------------------|---------|
E------------|-------------------------|----------------------------|---------|
=0D
Outro:
                           1/2             ALL BENDS 1/2
e--X--------|----|-16-17-16'`16--|-14------------------------------|----|------|
B----X------|----|---------------|-----16'`(16)-16'-16'-16'`(16)'--|-14-|-(14--|
G------X----|----|---------------|---------------------------------|----|------|
D--------4--|----|---------------|---------------------------------|----|------|
A--------4--|----|---------------|---------------------------------|----|------|
E--------2--|----|---------------|---------------------------------|----|------|

6.JUNKHEAD

INTRO:  RIff 1 w/ ad lib intro vocal

RIFF 1:

       B5  Bb5    Bb5 G5  F#5   F5   F5  E5
|-----------------------------------------------|
|-----------------------------------------------|
|------4---3------3-----------------------------|
|------4---3------3---5---4-----3-----3---2-----|
|------2---1------1---5---4-----3-----3---2-----|
|---------------------3---2-----1-----1---0-----|

       B5  Bb5    Bb5 G5  F#5   F5   F5  E5   E5
|-----------------------------------------------|
|-----------------------------------------------|
|------4---3------3-----------------------------|
|------4---3------3---5---4-----3-----3---2---2-|
|------2---1------1---5---4-----3-----3---2---2-|
|---------------------3---2-----1-----1---0---0-|

       B5  Bb5    Bb5 G5  F#5   F5   F5  E5
|-----------------------------------------------|
|-----------------------------------------------|
|------4---3------3-----------------------------|
|------4---3------3---5---4-----3-----3---2-----|
|------2---1------1---5---4-----3-----3---2-----|
|---------------------3---2-----1-----1---0-----|

                                       end Riff 1
       B5  Bb5    Bb5 G5  F#5   F5   F5  E5
|-----------------------------------------------|
|-----------------------------------------------|
|------4---3------3-----------------------------|
|------4---3------3---5---4-----3-----3---2-----|
|------2---1------1---5---4-----3-----3---2-----|
|---------------------3---2-----1-----1---0-----|


VERSE 1:  Riff 2 w/ lyrics


RIFF 2:

|-----------------------------------------------|
|-----------------------------------------------|
|-----------------------------------------------|
|-----------------------------------------------|
|------2---1------1-----------------------------|
|---------------------3~--2-----1-----1---0-----|
       palm mute slightly

|-----------------------------------------------|
|-----------------------------------------------|
|-----------------------------------------------|
|-----------------------------------------------|
|------2---1------1-----------------------------|
|---------------------3~--2-----1-----1---0-----|


|-----------------------------------------------|
|-----------------------------------------------|
|-----------------------------------------------|
|-----------------------------------------------|
|------2---1------1-----------------------------|
|---------------------3~--2-----1-----1---0-----|

                                       end Riff 2
|-----------------------------------------------|
|-----------------------------------------------|
|-----------------------------------------------|
|-----------------------------------------------|
|------2---1------1-----------------------------|
|---------------------3~--2-----1-----1---0-----|


CHORUS:

   A5        C5                   G5        F5
|------------------------------|------------------------------------------|
|------------------------------|------------------------------------------|
|--2--2--2---5-----------------|--0--0--0---------------------------------|
|--2--2--2---5-----------------|--0--0--0---3----------3--2--0-----0------|
|--0--0--0---3------------X-X--|--X--X--X---3-------------------3---------|
|-------------------------X-X--|--3--3--3---1-------------------------3~--|

                                             A5        C5                   G5        F5
|------------------------------|------------------------------------------|
|------------------------------|------------------------------------------|
|--2--2--2---5-----------------|--0--0--0---------------------------------|
|--2--2--2---5-----------------|--0--0--0---3----------3--2--0-----0------|
|--0--0--0---3------------X-X--|--X--X--X---3-------------------3---------|
|-------------------------X-X--|--3--3--3---1-------------------------3~--|


   A5        C5                   G5        F5
|------------------------------|------------------------------------------|
|------------------------------|------------------------------------------|
|--2--2--2---5-----------------|--0--0--0---------------------------------|
|--2--2--2---5-----------------|--0--0--0---3----------3--2--0-----0------|
|--0--0--0---3------------X-X--|--X--X--X---3-------------------3---------|
|-------------------------X-X--|--3--3--3---1-------------------------3~--|


   A5        C5                   G5        F5
|------------------------------|------------------------------------------|
|------------------------------|------------------------------------------|
|--2--2--2---5-----------------|--0--0--0---------------------------------|
|--2--2--2---5-----------------|--0--0--0---3----------3--2--0-----0------|
|--0--0--0---3------------X-X--|--X--X--X---3-------------------3---------|
|-------------------------X-X--|--3--3--3---1-------------------------3~--|


VERSE 2: Riff 1 w/ lyrics

VERSE 3: Riff 2 w/ lyrics

CHORUS


INTERLUDE: guitar plays harmonized solo while bass plays Chorus.

Solo:

|-------------------------------------|
|---------------8----------8--8--10---|
|------------9------------------------|
|--7---7--7---------------------------|
|-------------------------------------|
|-------------------------------------|
                                            repeat 4x
|---------------------------------------------------|
|---8------8--8--10---------------------------------|
|--------------------10------10--9--7------7--------|
|--------------------------------------10-----------|
|---------------------------------------------10----|
|---------------------------------------------------|


RIFF 1: w/ ad lib intro vocals


VERSE 4: w/ Riff 2 and lyrics

CHORUS


OUTRO:  Riff 1 w/ lyrics

*************************

Intro
-----------------------------------------------------------------------|e
-----------------------------------------------------------------------|B
------5--4-----4-------------------------------------------------------|G
------5--4-----4--5----4--3----3--5------------------------------------|D
------3--2-----2--5----4--3----3--5------------------------------------|A
-------------------3----2--1----1--3-----------------------------------|E
                Repeat 4x


Verse
-----------------------------------------------------------------------|e
-----------------------------------------------------------------------|B
-----------------------------------------------------------------------|G
-----------------------------------------------------------------------|D
------3--2-----2-------------------------------------------------------|A
-------------------3----2--1----1--3-----------------------------------|E
                Repeat 4x   (palm mute slightly)

Chorus
(F#,B,A,G)

F#/B/A
G                           F#/B/A
G                       F#/B/A
G               F#/B/A
G               F#/B/A


Verse
-----------------------------------------------------------------------|e
-----------------------------------------------------------------------|B
------5--4-----4-------------------------------------------------------|G
------5--4-----4--5----4--3----3--5------------------------------------|D
------3--2-----2--5----4--3----3--5------------------------------------|A
-------------------3----2--1----1--3-----------------------------------|E

The verse goes back to these chords 4x and then to the root notes for the
chords 4x.


Solo

-----------------------------------------------------------------------|e
-----------------------------------------------------------------------|B
-----------8-11---11-11-13-11----11-11-13-9----9-8-6-4-----------------|G
-6---6-6-------------------------------------------------------7-5-----|D
-----------------------------------------------------------------------|A
-----------------------------------------------------------------------|E
                Repeat 4x

7.DIRT

down a half step (Eb,Ab...)
play riff 1 four times then riff 2

riff 1                                 riff 2
------------------------------------|-----------------------------------------|
------------2h3--2------------------|--------2h3------------------------------|
-2h3p2-----------------2h3p2--------|2h3p2---------9-9/10-107-7---------------|
----------------------------------5-|-----------------------------------------|
-------0----------------------0-----|------0-------7-7/-8--85-5p0-------------|
------------------------------------|-----------------------------------------|

verse riff:

------------------------------------|-------------------------------------|---|
------------------------------------|-------------------------------------|---|
--------6/76---------------2-------|---------6/76/12--12/14-14/15---12--|-----|
-----2----------------------2----0--|-------2-----------------------------|---|
0h1--0--4/54----0----0h1---0-------|0h1----0-4/54/10--10/12-12/13---10--|-----|
---------------------------------3--|-----------------------------------------|


--------------------------------------------------------------------------|---|
--------------------------------------|------------------------------------|--|
-----------6/76---------------2------|---------6/76----9--9/10-107--7---|-----|
-------2-----------------------2---0--|-----2------------------------------|--|
--0h1--0---4/54---0---0h1-----0------|0h1--0---4/54----7--7/-8--85--5p0-|-----|
-----------------------------------3--|------------------------------------|--|

for the chorus I just have time to put up the chords if you need the notes
let me know.


A5       Bb5    Cadd9          A5       Bb5      C7           A5       Bb5

   Cadd9               A5       Bb5     Cadd9


this is a real quick job of the solo: (b=bend)
----------------------------------------|----------------------------------5--|
7bendhold--7-7-7-7-7-7-7-7-7-7-7-7-7-7-7|--------------------------------4--8-|
7holdbend--7-7-7-7-7-7-7-7-7-7-7-7-7-7-7|-7bp5---5b-----------------57b-------|
----------------------------------------|--------------7-5--7--5h7------------|
----------------------------------------|-------------------------------------|
----------------------------------------|-------------------------------------|

--------------------------------|---------------|----------------------------|
----8---------------------------|---------------|---20b----20b----20b17------|
--------5--7-7bp5------5b-------|---------------|-----------------------19---|
--------------------7------7--7-|---------------|-2--------------------------|
--------------------------------|-----3----3-4b-|-0--------------------------|
--------------------------------|3h5----5-------|----------------------------|

-20b---20b----20bp17-------17----|--------------------------------------------|
----------------------20-----20b-|--------------------------------------------|
---------------------------------|1917--17-1716-16---1614-14-14129-9----------|
---------------------------------|--------------------------------------------|
---------------------------------|1715--15-1514-14---1412-12-12107-9----------|
---------------------------------|--------------------------------------------|

-----------------------------------|  Well, That's basically it Please if there
--2-3/5--3-2-----------------------|  are any corrections or change ideas feel
---------------2-------------------|  free to mail me or post changes.
------------------2----------------|  -Fred
------------------0------000-------|
-----------------------------------|

8.GODSMACK

Eb tuning (as usual)

Rhy. fig. 1  Gtr. 1
(end Rhy. fig. 1)
|--------------------------|--------------------|--------------------------|-------------------|
|--------------------------|--------------------|--------------------------|-------------------|
|--------------------------|--------------------|--------------------------|-------------------|
|--2--3--2-----------------|-----------------4--|--2--3--2-----------------|--------------5----|
|--1--1--1--4--3--4--3--4--|--2--2--3--3--4--2--|--1--1--1--4--3--4--3--4--|--2--2--3--3--3--5-|
|-----------2--2--2--2--2--|--0--0--1--1--2-----|-----------2--2--2--2--2--|--0--0--1--1-----3-|
 P.M.......................................      P.M....................................

Verses (Rhy. fig. 1 4 times w/1 & 2; 2 times w/3
1. Care not for the men who wonder, straw that broke your back, you're under
   Cast all them aside who care, empty eyes and dead end stare
2. For the horse you've grown much fonder, than for me, that I don't ponder
   As the heir of one who bit you.  Smiling bite your own self too.
3. So be yearning all your life, twisting turning like a knife

Pre-chorus
Rhy. fig. 2  Gtr. 1
(end Rhy. Fig. 2)
|-------------------------|-----------------------|-------------------------|---------------------|
|-------------------------|-----------------------|-------------------------|---------------------|
|-------------------------|-----------------------|-------------------------|---------------------|
|-------------------------|-------------5--4------|-------------------------|-------------------4-|
|--3--4--3--4--2--2--2--2-|-2--2--2--2--3--2------|--3--4--3--4--2--2--2--2-|-2--2--2--2--2--2--2-|
|--2--2--2--2--0--0--0--0-|-0--0--0--0---------0--|--2--2--2--2--0--0--0--0-|-0--0--0--0--0--0----|
 P.M..................................             P.M.........................................

Play Rhy. fig. 2 twice with these:
1. Don't you know that none are blind, to the lie and you think I don't find
2. And I think that you're not blind, to the ones you left behind
3. Now you know the reasons why, can't get high, or you will die.

|------------------------|---------------------|
|------------------------|---------------------|
|------------------------|---------------------|
|------------------------|---------------------|
|--4--5---------------5--|---7----7----7----7--|
|--2--3---------------3--|---5----5----5----5--|

1. What you hide
2. I'll be here
3. Or you'll die

Chorus
Rhy. fig. 3 Gtr. 1 w/wah               (end Rhy. fig. 3)
|--7--7--7---7---7--------|--7--7--7---7---7--7--------|
|--7--7--7---7---7--7--9--|--7--7--7---7---7--7--------|
|--7--7--7---7---7--7--9--|--7--7--7---7---7--7--10----|
|-------------------------|----------------------10----|
|-------------------------|-----------------------8----|
|-------------------------|-----------------------8----|

Rhy. fig. 3 four times with this:
1., 2., 3.  What in God's name have you done?  Stick your arm for some real fun.

Solo (w/Rhy. fig. 1 twice)
                   A.H...        A.H....
|------------------------------|--------------------------------|-------------------2----------|
|------------------------------|-----------------6--------------|-------------------2----------|
|---------9/12-----------------|------------9b(10)--(9)b(11)----|--------2-------------X-X-X-X-|
|--X-X-7-----------9b(11)------|--7b(9)-------------------------|----2h3----X-X-2h4----X-X-X-X-|
|--X-X-7--------8-----------7--|--7------7----------------------|------------------------------|
|------------------------------|--------------------------------|------------------------------|
               P.M.        P.M.         P.M.

|------(2)--------------------------|--------12-13-14b(17)------------r(14)b(16)--|
|------(2)--------------------------|-----14--------------------------------------|
|-------2-h-4b(6)r(4)b(6)-------r(4)/13-------------------------------------------|
|--2h4------------------------------|---------------------------------------------|
|-----------------------------------|---------------------------------------------|
|-----------------------------------|---------------------------------------------|

|-r(14)---14p13p12------------------|----------------------------------|---------------------|
|------------------12~~~~~----------|--------10-12b(14)--10~~~~~~------|--147~~~~------------|
|--------------------------14~~~~~~~|-(9)/11----------------------0/11-|-------------9~~~~~--|
|-----------------------------------|----------------------------------|---------------------|
|-----------------------------------|----------------------------------|---------------------|
|-----------------------------------|----------------------------------|---------------------|

Rhy. fig. 3 (3 1/2 times) with:
3.  So your sickness weighs a ton, and God's name is smack for some.

End with
|--7--7--7---7---7-----------|
|--7--7--7---7---7-----------|
|--7--7--7---7---7-----------|
|-------------------7--------|
|-------------------7--------|
|----------------------------|
w/wah

9.INTRO

Don't Know

10.HATE TO FEEL

Tuning Eb,Ab,Db,Gb,Bb,Eb.
Intro/Verse

1---------------------------------|
2---------------------------------|
3---------------------------------|
4---6--5--4-----------------------|
5---7--6--5-----6--5--4-----------|
6---------------7--6--5--0-3~~~~~-|

Pre Chorus

1----------------------------|
2----------------------------|
3------3------3--------------|             X4
4--2-2-3--2-2-3--------------|
5--2-2-1--2-2-1--------------|
6--0-0----0-0----------------|

then A pick scrape, then

1---------------------------|
2---------------------------|
3---------------------------|    X4
4--2-2-8--2-2-8-------------|
5--2-2-8--2-2-8-------------|
6--0-0-6--0-0-6-------------|(5)-(5)

Then The Next part goes

1----------------------------------|
2----------------------------------|
3------------------3-3-3-3-3-------|
4--2-2-2-2-3-3-3-3-3-3-3-3-3-2-2-2-|
5--2-2-2-2-3-3-3-3-1-1-1-1-1-2-2-2-|
6--0-0-0-0-1-1-1-1-----------0-0-0-|

then the "wish I couldn't feel at all" part goes

1------------------------|
2------------------------|
3--------------3---------|        And That repeats a few times
4--2-2-2-2-2-2-3---------|
5--2-2-2-2-2-2-1---------|
6--0-0-0-0-0-0-----------|


This is the end of hate to feel
1--------------------------------------------------------|
2-12-12-12-12-12-12-12-12-12-12-12-12--------------------|
3-12-12-12-12-12-12-12-12-12-12-12-12--------------------|
4--------------------------------------------------------|
5--------------------------------------------------------|
6--------------------------------------------------------|


There you are. Once again, I don't feel like figuring out the solo
Waltb@netcom.ca


===============================================================================


From: Dan (aileen.arboleda@mci2000.com)

There's a couple of things in this song that are missing from the
previous tab. I learned them listening to a live version of Hate To Feel.

1st part of pre-chorus
1-15-12-----------------------------|
2-----------------------------------|
3-------14 (bend up to 15th)played--| x4
4-----------------------------------|
5-----------------------------------|
6-----------------------------------|

Chorus (Wish I couldn't feel at all)
1------------------------|
2------------------------|
3----------12(bend to 14-|
4----12-14----14-12------|
5-14---------------------|
6------------------------|

They are hard to pick out but they are there.

===============================================================================

From: Dan (aileen.arboleda@mci2000.com)

A few more corrections for Hate To Feel.
Pre-Chorus.
HyE-------------------|
B---------------------|
G---------------------|
D---2-2------2-2------|
A---2-2-5(B)-2-2-5(B)-|
LoE-0-0-6(B)-0-0-6(B)-|

Chorus: Same thing except you play the harmonic
on the 5th fret of the low E string.

11.ANGRY CHAIR

INTRO + VERSE
Play this riff several times

e    ---------------|
B    ---------------|
G    ---------------|
D    ---------------|
A    -----2-----3b--|
E    --0-----0------|

In the intro Jerry strums an E5 chord every few beats

e    --0-0-0--|
B    --0-0-0--|
G    --x-x-x--|
D    --2-2-2--|
A    --2-2-2--|
E    --0-0-0--|

BRIDGE
Layne & Scott play this

       F5	    E5
e    --------------------------|
B    --------------------------|
G    --------------------------|
D    --3--3--3--3---2--2-------|
A    --3--3--3--3---2--2-------|
E    --1--1--1--1---0--0---5b--|
       What do I see 'cross the way?... Hey...

Jerry plays the straight chords below

       F	    E
e    --1--1--1--1---0--0-------|
B    --1--1--1--1---0--0-------|
G    --2--2--2--2---1--1-------|
D    --3--3--3--3---2--2-------|
A    --3--3--3--3---2--2-------|
E    --1--1--1--1---0--0---5b--|

CHORUS

       A5  B5        F#5         G5
e    -------------------|------------------|
B    -------------------|------------------|
G    --2---4---4--4-----|------------------|
D    --2---4---4--4--4--|--4--4--5---5--5--|
A    --0---2---2--2--4--|--4--4--5---5--5--|
E    ----------------2--|--2--2--3---3--3--|
       I don't mind yeah...

       A5	B5	    E
e    --------------------|--0--0-0------------|
B    --------------------|--0--0-0------------|
G    --2--2--2--4--4--4--|--1--1-1------------|
D    --2--2--2--4--4--4--|--2--2-2------------|
A    --0--0--0--2--2--2--|--2--2-2------------|
E    --------------------|--0--0-0--5b-5b-5b--|

SOLO

e    -----------------------|---------------------------------------------|
B    -----------------------|------8---8---8-11b-11b--10-10p8---8---------|
G    --------------7-s9-9v--|--7h9---9---9--------------------9---9-7h9v--|
D    ------5-7-7s9----------|---------------------------------------------|
A    --5h7------------------|---------------------------------------------|
E    -----------------------|---------------------------------------------|

e    -----------------|------------------------------------------|
B    -----------------|------------------------------------------|
G    --9p7-7----------|------------------------------------------|
D    --------9-9p7-5--|--7b-7b-7br5------------------------------|
A    -----------------|-------------7-5h7-7-7--5---5---5-5h7-7v--|
E    -----------------|--------------------------7---7-----------|

e    -----------------------|-----------------------10-------|
B    -----------------------|----7-8-10-11-11b-11b------11r--|
G    --------------7-s9-9v--|--9-----------------|-----------|
D    ------5-7-7s9----------|-------------------hold---------|
A    --5h7------------------|-------------------bend---------|
E    -----------------------|--------------------------------|

e    -------------------------------------|----------------|
B    --8-10-8-7-8--7h8-7--8-7-------------|----------------|
G    -------------------------9-7-9v--7v--|--7-------------|
D    -------------------------------------|----9-7-5-7-7b--|
A    -------------------------------------|----------------|
E    -------------------------------------|----------------|

12.DOWN IN A HOLE

Riff A
------

  A5add9
      Am                            Dsus4       D
|---------------------------------|-3-----------2-------------------|
|-0-t-1---------------1-----------|-----3---------------3-----------|
|---------2---------------2-------|---------2---------------2-------|
|-------------2---------------2---|-----------------------------0---|
|-----------------0---------------|---------------------------------|
|---------------------------------|---------------------------------|
| 1 e + a 2 e + a 3 e + a 4 e + a   1 e + a 2 e + a 3 e + a 4 e + a

Intro Solo (two guitars written for one)
----------

|---------------------------------|---------------------------------|
|-3-t-5---------------------------|---------------------------------|
|-4-t-5---------------------------|---------------------*-----------|
|---------------------------------|-4---5---4---2-----2g4---2-------|
|---------------------------------|-----------------------------3---|
|---------------------------------|---------------------------------|
  1 e + a 2 e + a 3 e + a 4 e + a   1 e + a 2 e + a 3 e + a 4 e + a

*grace note

|---------------------------------|----------------------------------|
|---------------------------------|--------------------3----5t6p5s3--|
|---------------------------------|---------2-t-4-t-5--4----5t7p5s4--|
|-----------------------------2---|-4-t-5----------------------------|
|-0-------------------0---3-------|----------------------------------|
|---------------------------------|----------------------------------|
  1 e + a 2 e + a 3 e + a 4 e + a   1 e + a 2 e + a 3 e + a 4 p t + a

|---------------------------------|---------------------------------|
|-3-t-5---------------------------|---------------------------------|
|-4-t-5---------------------------|---------------------------------|
|---------------------------------|-4---5---4---2-------------------|
|---------------------------------|---------------------------------|
|---------------------------------|---------------------------------|
  1 e + a 2 e + a 3 e + a 4 e + a   1 e + a 2 e + a 3 e + a 4 e + a

|---------------------------------|---------------------------------|
|-7-b-8-b-7-------5-t-7---5-------|-3-t-5---3-----------------------|
|-7-b-9-b-7-------5-t-7---5-------|-4-t-5---4---4-t-5-b-7-b-5---4---|
|---------------------------------|-------------5-t-7-b-9-b-7---5---|
|---------------------------------|---------------------------------|
|---------------------------------|---------------------------------|
  1 e + a 2 e + a 3 e + a 4 e + a   1 e + a 2 e + a 3 e + a 4 e + a

|---------------------------------|
|---------------------------------|
|-5-------------------------------|
|-7-------------------------------|
|---------------------------------|
|---------------------------------|
  1 e + a 2 e + a 3 e + a 4 e + a

Riff B
------
  A5                          G5                D5
|-----------------------------3---|-3---3-------2-------------------|
|-----------------------------3---|-3-------3---3-------------------|
|-----------------------------0---|-0-----------2-------------------|
|-9---10--9---7---------------0---|-0-----------0-------------------|
|-0---0---0---0---------------x---|-x-----------0-------------------|
|-----------------------------3---|-3-------------------------------|
  1 e + a 2 e + a 3 e + a 4 e + a   1 e + a 2 e + a 3 e + a 4 e + a

Riff C
------
  D5                          C                 G
|-----------------------------0---|-0---0---------------0-----------|
|-----------------------------1---|-1-------3---3---3-------3-------|
|-9---10--9---7---------------0---|-0-----------0---0-----------0---|
|-0---0---0---0---------------2---|-2-----------0---0---------------|
|-----------------------------3---|-3-----------2---2---------------|
|---------------------------------|-------------3---3---------------|
  1 e + a 2 e + a 3 e + a 4 e + a   1 e + a 2 e + a 3 e + a 4 e + a

|-----------------------------0---|-0---0---------------0-----------|
|-----------------------------1---|-1-------3---3---3-------3-------|
|-9---10--9---7b9-7-----------0---|-0-----------0---0-----------0---|
|-0---0---0---0---0-----------2---|-2-----------0---0---------------|
|-----------------------------3---|-3-----------2---2---------------|
|---------------------------------|-------------3---3---------------|
  1 e + a 2 e + a 3 e + a 4 e + a   1 e + a 2 e + a 3 e + a 4 e + a

Riff D
------

  D5          E5      F5            C5
|---------------------------------|---------------------------------|
|-3-------------------------------|---------------------------------|
|-2-------------------------------|-5---5-----------------------5---|
|-0-----------2-------3-----------|-5---5-----------------------5---|
|-0-----------2-------3-----------|-3---3-----------------------3---|
|-------------0-------1-----------|---------------------------------|
  1 e + a 2 e + a 3 e + a 4 e + a   1 e + a 2 e + a 3 e + a 4 e + a

      G5                            A5  G5  F5
|---------------------------------|---------------------------------|
|---------------------------------|---------------------------------|
|-5-------------------------------|---------------------------------|
|-5---5---5-------------------5---|-5s7-5---3---3-------------------|
|-3---5---5-------------------5---|-5s7-5---3---3-------------------|
|-----3---3-------------------3---|-3s5-3---1---1-------------------|
  1 e + a 2 e + a 3 e + a 4 e + a   1 e + a 2 e + a 3 e + a 4 e + a

  A5
|---------------------------------|
|---------------------------------|
|-2-------------------------------|
|-2-------------------------------|
|-0-------------------------------|
|---------------------------------|
  1 e + a 2 e + a 3 e + a 4 e + a

Outro Solo A
------------


|---------------------------------|---------------------------------|
|---------------------------------|---------------------------------|
|-7-b-9-----------b-----------7---|---------------------------------|
|---------------------------------|-4-t-5---4---2-----2g4---2-------|
|---------------------------------|-----------------------------3---|
|---------------------------------|---------------------------------|
  1 e + a 2 e + a 3 e + a 4 e + a   1 e + a 2 e + a 3 e + a 4 e + a

|---------------------------------|---------------------------------|
|---------------------------------|---------------------------------|
|---------------------------------|-------------0---2-t-4-b-5-b-4---|
|-----------------------------2---|-4-b-5-b-4-----------------------|
|-0-------------------0---3-------|---------------------------------|
|---------------------------------|---------------------------------|
  1 e + a 2 e + a 3 e + a 4 e + a   1 e + a 2 e + a 3 e + a 4 e + a


|---------------------------------|---------------------------------|
|---------------------------------|---------------------------------|
|-2-------------------------------|---------------------------------|
|---------------------------------|-4-t-5---4---2-----2g4---2-------|
|---------------------------------|-----------------------------3---|
|---------------------------------|---------------------------------|
  1 e + a 2 e + a 3 e + a 4 e + a   1 e + a 2 e + a 3 e + a 4 e + a

|---------------------------------|---------------------------------|
|---------------------------------|---------------------------------|
|---------------------------------|---------------------------------|
|---------------------------------|---------------------------------|
|-0-------------------------------|-----3-s-2-s-3---3-s-2-----------|
|---------------------------------|-------------------------3-------|
  1 e + a 2 e + a 3 e + a 4 e + a   1 e + a 2 e + a 3 e + a 4 e + a

|---------------------------------|
|---------------------------------|
|---------------------------------|
|---------------------------------|
|---------------------------------|
|-3-s-5---------------------------|
  1 e + a 2 e + a 3 e + a 4 e + a

Riff E
------

|-----5---------------3-----------|-----1-------------------2-3-2---|
|-6-------6---5-----------5---3---|---------3---1-------3-----------|
|---------------------------------|---------------------------------|
|---------------------------------|---------------------------------|
|---------------------------------|---------------------------------|
|---------------------------------|---------------------------------|
  1 e + a 2 e + a 3 e + a 4 e + a   1 e + a 2 e + a 3 e + a 4 e + a

Outro Solo B
------------

|---------------------------------|---------------------------------|
|---------------------------------|---------------------------------|
|-9--10---9---7-------------------|-7-------b-------7---------------|
|---------------------------------|---------------------------------|
|---------------------------------|---------------------------------|
|---------------------------------|---------------------------------|
  1 e + a 2 e + a 3 e + a 4 e + a   1 e + a 2 e + a 3 e + a 4 e + a

|---------------------------------|10----------10-----------------------|
|---------------------------------|-------------------------------------|
|---------------------------------|-----9-b11-------9b10b-9--7--9---7---|
|---------------------------------|-------------------------------------|
|---------------------------------|-------------------------------------|
|---------------------------------|-------------------------------------|
  1 e + a 2 e + a 3 e + a 4 e + a   1 e + a 2 e + a 3  e  +  a  4 e + a

|---------------------------------|---------------------------------|
|---------------------------------|---------------------------------|
|(7)------------------------------|(7)------------------------------|
|---------------------------------|---------------------------------|
|---------------------------------|---------------------------------|
|---------------------------------|---------------------------------|

  1 e + a 2 e + a 3 e + a 4 e + a   1 e + a 2 e + a 3 e + a 4 e + a


|----------------------------------|---------------------------------|
|----------------------------------|---------------------------------|
|----------------------------------|---------------------------------|
|----------------------------------|---------------------------------|
|---------------------9b10b9---9b10|-b---9-p-7-s-5---7b8-----7b8-----|
|----------------------------------|---------------------------------|

  1 e + a 2 e + a 3 e +  a 4 e + a   1 e + a 2 e + a 3 e + a 4 e + a

|---------------------------------|---------------------------------|
|------------fdbk(10)-------------|10)------------------------------|
|---------------------------------|---------------------------------|
|---------------------------------|---------------------------------|
|-5-------------------------------|---------------------------------|
|---------------------------------|---------------------------------|

  1 e + a 2 e + a 3 e + a 4 e + a   1 e + a 2 e + a 3 e + a 4 e + a


|-------------------------------------|---------------------------------|
|-----------------------------15b18---|-----b--------------15--13-------|
|----------------------12s14----------|----------------------------14-12|
|-------------------------------------|---------------------------------|
|-------------------------------------|---------------------------------|
|-------------------------------------|---------------------------------|

  1 e + a 2 e + a 3  e  +  a  4 e + a   1 e + a 2 e + a 3 e + a 4  p  t


|-----------------------------------|---------------------------------|
|----------13-----------13------13--|--------13-------13-----------13-|
|12b14b14----------12b14----14------|12b14b14-----12b14-------12b14---|
|-----------------------------------|---------------------------------|
|-----------------------------------|---------------------------------|
|-----------------------------------|---------------------------------|

  1  e  + a 2 e + a 3 e + a 4 e + a   1 e + a 2 e + a 3 e + a 4 e + a

|-----------------------------------|-----------------------------------|
|----------13-----------13------13--|-----------------------------------|
|12b14b14----------12b14----14------|12b14b---12b14-10------------------|
|-----------------------------------|-----------------------------------|
|-----------------------------------|-----------------------------------|
|-----------------------------------|-----------------------------------|

  1  e  + a 2 e + a 3 e + a 4 e + a   1 e + a 2    e + a 3 e + a 4 e + a

|---------------------------------|---------------------------------|
|---------------------------------|---------------------------------|
|17b-19-b-17--12b-14-b12--10------|---------------------------------|
|---------------------------------|10-------------------------------|
|---------------------------------|---------------------------------|
|---------------------------------|---------------------------------|

  1 e + a 2 e + a 3 e + a 4 e + a   1 e + a 2 e + a 3 e + a 4 e + a

|---------------------------------|---------------------------------|
|---------------------------------|------------/5---5---6---5--8b10-|
|---------------------------------|------------/5---5---5---5-------|
|(10)-----------------------------|---------------------------------|
|---------------------------------|---------------------------------|
|---------------------------------|---------------------------------|

  1 e + a 2 e + a 3 e + a 4 e + a   1 e + a 2 e + a 3 e + a 4 e + a

|---------------------------------|---------------------------------|
|(10)-----------------------------|-----5-------7---5-------7---7b9-|
|---------------------------------|-----5-------7---5-------7---7b9-|
|---------------------------------|---------------------------------|
|---------------------------------|---------------------------------|
|---------------------------------|---------------------------------|

  1 e + a 2 e + a 3 e + a 4 e + a   1 e + a 2 e + a 3 e + a 4 e + a

|---------------------------------|---------------------------------|
|-----------------------7-p-5-----|---------------------------------|
|-----------------------7-p-5-----|---------------------------------|
|---------------------------------|-----------------------------7p5-|
|---------------------------------|---------------------------------|
|---------------------------------|---------------------------------|

  1 e + a 2 e + a 3 e + a 4 e + a   1 e + a 2 e + a 3 e + a 4 e + a

|---------------------------------|---------------------------------|
|---------------------------------|-------------------------5-------|
|-----------------5---5-----------|-----5---7b9-7b9---b7p5--5-------|
|-------------5t7-----------------|-5t7-----------------------------|
|---------------------------------|---------------------------------|
|---------------------------------|---------------------------------|

  1 e + a 2 e + a 3 e + a 4 e + a   1 e + a 2 e + a 3 e + a 4 e + a

|-----------------------------------|---------------------------------|
|---------8b10-8b10--b--8-----------|-------------------------2-3-----|
|-----------------------------------|-------------------------2-2-----|
|-----7-----------------------------|-------------------------2-4-----|
|-----------------------------------|---------------------0-----------|
|-----------------------------------|---------------------------------|

  1 e + a 2  e +  a 3 e + a 4 e + a   1 e + a 2 e + a 3 e + a 4 e + a

|---------------------------------|
|-2-------------------------------|
|-2-------------------------------|
|-2--------let-fdbk---------------|
|-0-------------------------------|
|---------------------------------|

  1 e + a 2 e + a 3 e + a 4 e + a

13.WOULD?

Tune Down 1/2 step

Intro
e---------------------------------------------------------------|
b---------5-----------------------------------------------------|
g------4-------------4h6---4h6---4--4-----4h6----4h6--4--4------|
d--5-----------------4-----4-----4--5-----4------4----4--5------|
a---------------------------------------------------------------|
e---------------------------------------------------------------|

e---------------------------------------------------------------|
b-----------5---------------------------------------------------|
g--------4-------------4h6---4h6---4--4-----4h6----4h6--4--4----|
d---/5-----------------4-----4-----4--5-----4------4----4--5----|
a---------------------------------------------------------------|
e---------------------------------------------------------------|

Verse
e-------------------------------------------------------|
b-------------------------------------------------------|
g-------------------------------------------------------|
d----------2--------------------------------------------|
a-------2--------2h4--2h4--2---2-----2h4--2h4---2----2--|
e--2/3-----------2----2----2---3-----2----2-----2----3--|

e------------------------------------------------------|
b------------------------------------------------------|
g------------------------------------------------------|
d----------2-------------------------------------------|
a-------2--------2h4--2h4--2---2-----2h4--2h4---2---2--|
e--2/3-----------2----2----2---3-----2----2-----2---3--|


e-------------------------3-------3----3----3------|
b-------3---3---3------3--3-------3----3----3---0--|
g-------0---0---0------0--0-------0----0----0---0--|
d-------0---0---0------0--0-------0----0----0---0--|
a-------2---2---2------2--2-------2----2----2------|
e--3----3---3---3------3--3-------3----3----3------|

Chorus - repeat 4 times
e----------------------3-3--3-3--3-3--3-3--3-3--3-3--|
b----------------------3-3--3-3--3-3--3-3--3-3--3-3--|
g--4--4-4--4--4-4--4-4-0-0--0-0--0-0--0-0--0-0--0-0--|
d--4--4-4--4--4-4--4-4-0-0--0-0--0-0--0-0--0-0--0-0--|
a--2--2-2--2--2-2--2-2-0-0--0-0--0-0--0-0--0-0--0-0--|
e----------------------3-3--3-3--3-3--3-3--3-3--3-3--|

Solo - guitar1
e--------------------------------------------------------------------------|
b--------------------------------------------------------------------------|
g--6h7p6~~~~~~~/11~~~~~9-11-11^-rb(11)--9-11-9-11-9------------------------|
d--------------------------------------------------------------11----11~~~~|
a--------------------------------------------------------------------------|
e--------------------------------------------------------------------------|
       guitar2 play twice w/ guitar1
e---------------------------------------------------|
b---------------------------------------------------|
g---------------------------------------------------|
d------------------------------------------2--------|
a--4--4--4----4----4-----4--------------2--2--------|
e--2--2--2--0-2-------0--3--3--3--0--3--3--3--0--3--|

e-------------------------------------------------------|
b-------------------------------------------------------|
g-------------------------------------------------------|
d----------------------------------------------------2--|
a--2h4--4-4-4-4--4-------4-----------------2-2----2-----|
e--2----2-2-2-2------0---3---3--3--0--0--3-3-3-3--------|

e--------------------------------------------------|
b--------------------------------------------------|
g--------------------------------------------------|
d--9-7-9^hb9rb(9)-7---7-------------------7--9/11--|
a--------------------9-----9-7-9-9-7-7-7-----------|
e--------------------------------------------------|

e---------------------------------------------------------------|
b---------------10------12/\hb12hb12rb(12)10-------10-----------|
g--9-11-11---11----11--------------------------11------------2--|
d------------------------------------------------------------2--|
a---------------------------------------------------------------|
e---------------------------------------------------------------|


Bridge - play twice
e--2---2-2-2-------------------------4-4--4--4--4-4-4-4--|
b--3---3-3-3--6-6-6--6-6-------------4-4--4--4--4-4-4-4--|
g--2---2-2-2--5-5-5--5-5-------------5-5--5--5--5-5-5-5--|
d--0---0-0-0--4-4-4--4-4-------------6-6--6--6--6-6-6-6--|
a-------------5-5-5--5-5--5-5--5--5--6-6--6--6--6-6-6-6--|
e---------------------------4--4--4--4-4--4--4--4-4-4-4--|

e--------3--3-3--3-3--3--3-3-3-3--------------------------------|
b--------3--3-3--3-3--3--3-3-3-3--------------------------------|
g--------4--4-4--4-4--4--4-4-4-4---1-1--1-1-1--1-1--1--1-1-1-1--|
d--------5--5-5--5-5--5--5-5-5-5---2-2--2-2-2--2-2--2--2-2-2-2--|
a--5--5--5--5-5--5-5--5--5-5-5-5---2-2--2-2-2--2-2--2--2-2-2-2--|
e--3--3--3--3-3--3-3--3--3-3-3-3---0-0--0-0-0--0-0--0--0-0-0-0--|

Outro
e---------------------------------------------------------|
b----6-----------6-----------6-----------6-----------6----|
g----5-----------5-----------5-----------5-----------5----|
d----4-----------4-----------4-----------4-----------4----|
a----5-----------5-----------5-----------5-----------5----|
e---------------------------------------------------------|

This is a classic.ENJOY!!!!
comments
print report bad tab
7 comments total. Showing first comments.
+1 reply
grasstain wrote on March 17 2005, 12:00 am

you idiot you but down in a hole in the wrong place

+1 reply
urthunderstruck wrote on May 20 2005, 12:00 am

do you have any idea what youre doing "Andrew Zara"?

0 reply
FrenchyFungus wrote on July 5 2006, 08:55 am

I'm quite sure he does.

Dunno about the people who tabbed the songs...

I want to post or [tab]
guest
You may want to rate the tab now too:
select rating
Please do not post tabs as comments. Select "correction" instead!