Oops, an error
Loading. Please wait.

King Of The Kats Tab

124 views 1 this week
no commentswrite comment
1 2 3 4 5
please rate
Autoscroll
+/-
esc
set tempo
stop
Difficulty
Tuning
intermediate
D# G# C# F# A# D#
WARNING: You are trying to view
                                    content from Ultimate-Guitar.com
                                    in an unauthorized application,
                                    which is prohibited.

                                    Please use an official Ultimate
                                    Guitar Tabs application for iPhone,
                                    iPad or Android to access legitimate
                                    chords, guitar, bass, and drum tabs
                                    from Ultimate-Guitar.com database.

                                    Type "ultimate guitar tabs" in Apple
                                    App Store's or Android Market's
                                    search to find the application.
Artist: Alice In Chains
Album: Publisher Demos Or Heroin
Song: King Of The Kats
Tuning: Half Step Down (Eb Ab Db Gb Bb Eb)
Tabbed By: Psycho Munky

Intro Both
Eb|--------------------------------------------------------|
Bb|--------------------------------------------------------|
Gb|--------------------------------------------------------|
Db|------------------------5h7p5h7p5h7p5h7p5h7p5h7p5h7p5---|
Ab|--------------------------------------------------------|
Eb|-0-0-1-2-3---0-0-1-2-3----------------------------------|
                           Thrill---->
Intro Both
Eb|-----------------------------------------|
Bb|-----------------------------------------|
Gb|-----------------------------------------|
Db|-----------------------------------------|
Ab|-----------------------------------------|
Eb|-0-0-1-2-3-----------0-0-1-2-3-----------|

   Guitar 1
Eb|----------------------------------------------------------------|
Bb|-----------------------------8~~--------------------------------|
Gb|-----------5-6-7-------7-8-9--------------5-6-7-------7-8-9-----| X2
Db|-----------------5-6-7--------------------------5-6-7-------5~~-|
Ab|----------------------------------------------------------------|
Eb|-0-0-1-2-3----------------------0-0-1-2-3-----------------------|
  |Guitar 2
Eb|----------------------------------------------------------------|
Bb|----------------------------------------------------------------|
Gb|----------------------------------------------------------------| X2
Db|-----------------5-6-7-------5~------------------5-6-7----------|
Ab|-----------3-4-5-------5-6-7---------------3-4-5-------5-6-7----|
Eb|-0-0-1-2-3----------------------0-0-1-2-3--------------------3~~|

Both
Eb|-----------------------------------------------------|
Bb|-----------------------------------------------------|
Gb|-----------------------------------------------------| X2
Db|-------9-7--7-7--------------------------------------|
Ab|-2-2---7-5--5-5--5-7-7-5-2--2-2---2-7--7-7-8-9-9-5-2-|
Eb|-0-0-3-----------3-5-5-3-0--0-0-3-0-5--5-5-6-7-7-3-0-|
                              <---> P.M.

Verse Both
Eb|------------------------------------------------------|
Bb|------------------------------------------------------|
Gb|------------------------------------------------------| X2
Db|-------------------7~-5-------------------------------|
Ab|-2-2---2-5--5-5--5------7-5--2-2---2-7--7-7-8-9-9-5-2-|
Eb|-0-0-3-0-3--3-3--3-----------0-0-3-0-5--5-5-6-7-7-3-0-|
                              <---> P.M.
Chorus
   Guitar 1
Eb|------------------------------------------------|
Bb|------------------------------------------------|
Gb|----------------------------------------------7-| X2
Db|-9--9--9-9-9-7--7--7-7-7-5--5--5-5-5----------5-|
Ab|-7--7--7-7-7-5--5--5-5-5-3--3--3-3-3-5--5--7----|
Eb|-------------------------------------3--3--5----|
  |Guitar 2
Eb|------------------------------------------------|
Bb|------------------------------------------------|
Gb|-9--9--9-9-9-7--7--7-7-7-5--5--5-5-5----------7-| X2
Db|-x--x--x-x-x-x--x--x-x-x-x--x--x-x-x----------5-|
Ab|-7--7--7-7-7-5--5--5-5-5-3--3--3-3-3-5--5--7----|
Eb|-------------------------------------3--3--5----|

   Guitar 1
Eb|---------------------------------------------------------|
Bb|---------------------------------------------------------|
Gb|---------------------------------------------------------| X2
Db|-9--9--9-9-9-7---7---7--7--7-5---5---5--5--5-------------|
Ab|-7--7--7-7-7-5---5---5--5--5-3---3---3--3--3--5--5--7--5-|
Eb|----------------------------------------------3--3--5--3-|
  |Guitar 2
Eb|---------------------------------------------------------|
Bb|---------------------------------------------------------|
Gb|-9--9--9-9-9-11--11--11-11-11-12--12--12-12-12---------7-| X2
Db|-x--x--x-x-x-x---x---x--x--x--x---x---x--x--x----------5-|
Ab|-7--7--7-7-7-9---9---9--9--9--10--10--10-10-10-5--5--7---|
Eb|-----------------------------------------------3--3--5---|

Break
   Guitar 1
Eb|-----------------------------|
Bb|-----------------------------|
Gb|----------/9-8-7-------------|
Db|-----------------9-8-7-5--/--|
Ab|-2~~~~~----------------------|
Eb|-0~~~~~----------------------|
  |Guitar 2
Eb|-----------------------------|
Bb|-----------------------------|
Gb|----------/9-8-7-------------|
Db|-----------------9-8-7-5--/--|
Ab|-2~~~~~----------------------|
Eb|-0~~~~~----------------------|

Both
Eb|-----------------------------------------------------|
Bb|-----------------------------------------------------|
Gb|-----------------------------------------------------| X2
Db|-------9-7--7-7--------------------------------------|
Ab|-2-2---7-5--5-5--5-7-7-5-2--2-2---2-7--7-7-8-9-9-5-2-|
Eb|-0-0-3-----------3-5-5-3-0--0-0-3-0-5--5-5-6-7-7-3-0-|
                              <---> P.M.

Verse Both
Eb|------------------------------------------------------|
Bb|------------------------------------------------------|
Gb|------------------------------------------------------| X2
Db|-------------------7~-5-------------------------------|
Ab|-2-2---2-5--5-5--5------7-5--2-2---2-7--7-7-8-9-9-5-2-|
Eb|-0-0-3-0-3--3-3--3-----------0-0-3-0-5--5-5-6-7-7-3-0-|
                              <---> P.M.
Chorus
   Guitar 1
Eb|------------------------------------------------|
Bb|------------------------------------------------|
Gb|----------------------------------------------7-| X2
Db|-9--9--9-9-9-7--7--7-7-7-5--5--5-5-5----------5-|
Ab|-7--7--7-7-7-5--5--5-5-5-3--3--3-3-3-5--5--7----|
Eb|-------------------------------------3--3--5----|
  |Guitar 2
Eb|------------------------------------------------|
Bb|------------------------------------------------|
Gb|-9--9--9-9-9-7--7--7-7-7-5--5--5-5-5----------7-| X2
Db|-x--x--x-x-x-x--x--x-x-x-x--x--x-x-x----------5-|
Ab|-7--7--7-7-7-5--5--5-5-5-3--3--3-3-3-5--5--7----|
Eb|-------------------------------------3--3--5----|

   Guitar 1
Eb|---------------------------------------------------------|
Bb|---------------------------------------------------------|
Gb|---------------------------------------------------------| X2
Db|-9--9--9-9-9-7---7---7--7--7-5---5---5--5--5-------------|
Ab|-7--7--7-7-7-5---5---5--5--5-3---3---3--3--3--5--5--7--5-|
Eb|----------------------------------------------3--3--5--3-|
  |Guitar 2
Eb|---------------------------------------------------------|
Bb|---------------------------------------------------------|
Gb|-9--9--9-9-9-11--11--11-11-11-12--12--12-12-12---------7-| X2
Db|-x--x--x-x-x-x---x---x--x--x--x---x---x--x--x----------5-|
Ab|-7--7--7-7-7-9---9---9--9--9--10--10--10-10-10-5--5--7---|
Eb|-----------------------------------------------3--3--5---|

Bridge
Eb|-----------------------------------------------|
Bb|-----------------------------------------------|
Gb|-----------------------------------------------| X4
Db|-----------------------------------------------|
Ab|-5h6h7------------------5h6h7------------------|
Eb|------5h6h7-3b4p0-0-0-0------5h6h7-3b4p0-0-0-0-|

Eb|-----------------------------------------------|
Bb|-----------------------------------------------|
Gb|-----------------------------------------------|
Db|-5h6h7------------------5h6h7------------------|
Ab|------5h6h7-3b4p0-0-0-0------5h6h7-3b4p0-0-0-0-|
Eb|-----------------------------------------------|

Eb|-----------------------------------------------|
Bb|-----------------------------------------------|
Gb|-----------------------------------------------|
Db|-----------------------------------------------|
Ab|-5h6h7------------------5h6h7------------------|
Eb|------5h6h7-3b4p0-0-0-0------5h6h7-3b4p0-0-0-0-|

Eb|-----------------------------------------------|
Bb|-----------------------------------------------|
Gb|-----------------------------------------------|
Db|-7h8h9------------------5h6h7------------------|
Ab|------7h8h9-5b6--------------5h6h7-3b4p0-0-0-0-|
Eb|----------------7-7-7-7------------------------|

   Guitar 1
Eb|----------------------------------------------------------------|
Bb|-----------------------------8~~--------------------------------|
Gb|-----------5-6-7-------7-8-9--------------5-6-7-------7-8-9-----| X4
Db|-----------------5-6-7--------------------------5-6-7-------5~~-|
Ab|----------------------------------------------------------------|
Eb|-0-0-1-2-3----------------------0-0-1-2-3-----------------------|
  |Guitar 2
Eb|----------------------------------------------------------------|
Bb|----------------------------------------------------------------|
Gb|----------------------------------------------------------------| X4
Db|-----------------5-6-7-------5~------------------5-6-7----------|
Ab|-----------3-4-5-------5-6-7---------------3-4-5-------5-6-7----|
Eb|-0-0-1-2-3----------------------0-0-1-2-3--------------------3~~|

Chorus
   Guitar 1
Eb|------------------------------------------------|
Bb|------------------------------------------------|
Gb|----------------------------------------------7-| X2
Db|-9--9--9-9-9-7--7--7-7-7-5--5--5-5-5----------5-|
Ab|-7--7--7-7-7-5--5--5-5-5-3--3--3-3-3-5--5--7----|
Eb|-------------------------------------3--3--5----|
  |Guitar 2
Eb|------------------------------------------------|
Bb|------------------------------------------------|
Gb|-9--9--9-9-9-7--7--7-7-7-5--5--5-5-5----------7-| X2
Db|-x--x--x-x-x-x--x--x-x-x-x--x--x-x-x----------5-|
Ab|-7--7--7-7-7-5--5--5-5-5-3--3--3-3-3-5--5--7----|
Eb|-------------------------------------3--3--5----|

   Guitar 1
Eb|---------------------------------------------------------|
Bb|---------------------------------------------------------|
Gb|---------------------------------------------------------| X2
Db|-9--9--9-9-9-7---7---7--7--7-5---5---5--5--5-------------|
Ab|-7--7--7-7-7-5---5---5--5--5-3---3---3--3--3--5--5--7--5-|
Eb|----------------------------------------------3--3--5--3-|
  |Guitar 2
Eb|---------------------------------------------------------|
Bb|---------------------------------------------------------|
Gb|-9--9--9-9-9-11--11--11-11-11-12--12--12-12-12---------7-| X2
Db|-x--x--x-x-x-x---x---x--x--x--x---x---x--x--x----------5-|
Ab|-7--7--7-7-7-9---9---9--9--9--10--10--10-10-10-5--5--7---|
Eb|-----------------------------------------------3--3--5---|

Both
Eb|-----------------------------------------------------|
Bb|-----------------------------------------------------|
Gb|-----------------------------------------------------| X2
Db|-------9-7--7-7--------------------------------------|
Ab|-2-2---7-5--5-5--5-7-7-5-2--2-2---2-7--7-7-8-9-9-5-2-|
Eb|-0-0-3-----------3-5-5-3-0--0-0-3-0-5--5-5-6-7-7-3-0-|
                              <---> P.M.
End
   Guitar 1
Eb|--------------|
Bb|--------------|
Gb|--------------|
Db|-7~~~~~-------|
Ab|-5~~~~~---2-2-|
Eb|----------0-0-|
  |Guitar 2
Eb|--------------|
Bb|-8~~~~~-------|
Gb|-7~~~~~---9-9-|
Db|-7~~~~~---9-9-|
Ab|-5~~~~~---7-7-|
Eb|--------------|
comments
We did not receive enough feedback on this tab! Please rate:
print report bad tab
1 2 3 4 5
I want to post or [tab]
guest
You may want to rate the tab now too:
select rating
Please do not post tabs as comments. Select "correction" instead!