Oops, an error
Loading. Please wait.

Nothing Safe Best Of The Box Tab

7,667 views 3 this week
2 commentsread comments
1 2 3 4 5
accurate
x 5
add to favorites launch autoscroll
font size
0
reset
Autoscroll
+/-
esc
set tempo
stop
Contributor
Difficulty
intermediate
WARNING: You are trying to view
                                    content from Ultimate-Guitar.com
                                    in an unauthorized application,
                                    which is prohibited.

                                    Please use an official Ultimate
                                    Guitar Tabs application for iPhone,
                                    iPad or Android to access legitimate
                                    chords, guitar, bass, and drum tabs
                                    from Ultimate-Guitar.com database.

                                    Type "ultimate guitar tabs" in Apple
                                    App Store's or Android Market's
                                    search to find the application.
Alice In Chains
Nothing Safe: Best of the Box

1.Get Born Again
2.We Die Young
3.Man in the box
4.Them Bones
5.Iron Gland (nothing)
6.Angry Chair
7.Down in a Hole
8.Rooster
9.Got Me Wrong
10.No Excuses
11.I Stay Away
12.What the hell have i
13.Grind
14.Again
15.Would?

1. Get Born Again

Tuning: (Low) Db, Ab, Db, Gb, Bb, (High) Eb (Drop Db/C#; Drop D down half-step)

Intro/Verse:
E--------------------------------------------------------------------------|
B--------------------------------------------------------------------------|
G—4--4--4/-5-5---4--4--4/7-7---4--4--4/-5-5-5-5-5-5------------------|
D-2--2--2/--3--2--2--2/---5--2--2--2-/--3-3-3-3-3-3------------------------|
A--------------------------------------------------------------------------|
D--------------------------------------------------------------------------|


Pre Chorus*:
E-------------------------------------------------------------------|
B-------------------------------------------------------------------|
G-------------------------------------------------------------------|
D-3-2-2-2-2-----3-2-2-2-2-------------------------------------------|
A-3-2-2-2-2-----3-2-2-2-2-------------------------------------------|
D-3-2-2-2-2-----3-2-2-2-2-------------------------------------------|
 (PM)           (Before Chorus, do not palm mute)

Chorus:
E-------------------------------------------------------------------|
B-------------------------------------------------------------------|
G-7-2-3-4---7-2-5-4-------------------------------------------------|
D-7-2-3-4---7-2-5-4-------------------------------------------------|
A-5-0-1-2---5-0-3-2-------------------------------------------------|
D-------------------------------------------------------------------|

First Solo:
E----12----------------------------------------------------|
A-12----12-------------------------------------------------|
G---------12-10-12-12^-12-10-12-10-9-9h10-9----------------|
D------------------------------------------10-12-12^-12-10-|
A----------------------------------------------------------|
D----------------------------------------------------------|

D|----------------|
A|-10s12----------|
D|----------------|

(The other solo? That’s up to you.)

NOTE: You need not tune down to Drop Db (just Eb) to play the song if you decide to
the Pre-Chorus with the following riff.

*Alternative Version To Play Pre-Chorus Riff:
E-------------------------------------------------------------------|
B-------------------------------------------------------------------|
G-------------------------------------------------------------------|
D-3-2-2-2-2-----3-2-2-2-2-------------------------------------------|
A-3-2-2-2-2-----3-2-2-2-2-------------------------------------------|
E-1-0-0-0-0-----1-0-0-0-0-------------------------------------------|
 (PM)           (Before Chorus, do not palm mute)

2. We Die Young
Tune down 1/2 step (dropped "D" tuning).


Rhythm Figure 1:
===============
                                PM--|       PM--|       PM
                1/2 (bend)
1|-----------------/\-------------|------------------------------------------|
2|----------------/--\------------|-----6-----------6-------6---8------------|
3|---------------/----------5-----|-----5-----------5-------5---7------------|
4|--2---0---0---6-------0---3---0-|-0---3---0---0---3---0---3---5------------|
5|--2---0---0---6-------0---3---0-|-0---3---0---0---3---0---3---5------------|
6|--2---0---0---6-------0---3---0-|-0---3---0---0---3---0---3---5------------|

                                PM--|       PM
                1/2 (bend)                          1/2 (bend)
1|-----------------/--------------|-------------------/----------------------|
2|----------------/---------------|-----6------------/-----------------------|
3|---------------/----------5-----|-----5-------7---7-------7---5------------|
4|--2---0---0---6-------0---3---0-|-0---3---0---5---5-------5---3---0--------|
5|--2---0---0---6-------0---3---0-|-0---3---0---5---5-------5---3---0--------|
6|--2---0---0---6-------0---3---0-|-0---3---0---5---5-------5---3---0--------|

1st Verse with Figure 1

	Scary's on the wall

w/Figure 1 (1st three bars only)

	Scary's on his way


Rhythym Figure 1A:
=================

            PM-|      PM
1|-----------------------------|
2|-----------------------------|
3|------5----------5------7----|
4|--0---3---0--0---3--0---5--0-|
5|--0---3---0--0---3--0---5--0-|
6|--0---3---0--0---3--0---5--0-|


Rhythym Figure 2:
================

   Oo, watch where you spit.                    I'd advise you wait

      PM    PM-|    PM     PM-|   PM       sl       PM    PM-|    PM
1|-----------------------|---------------------|-----------------------|
2|14-----6-------6-----6-|------6----8-6-------|14-----6-------6-----6-|
3|13-----5-------5-----5-|------5----7-5-------|13-----5-------5-----5-|
4|11--0--3--0--0-3--0--3-|-0-0--3-0--5-3----0/-|11--0--3--0--0-3--0--3-|
5|11--0--3--0--0-3--0--3-|-0-0--3-0--5-3----0/-|11--0--3--0--0-3--0--3-|
6|11--0--3--0--0-3--0--3-|-0-0--3-0--5-3----0/-|11--0--3--0--0-3--0--3-|


  until it's over.

   PM-|                                  PM    PM-|    PM
                 1/2 (bend)
1|-----------------/----------------|-----------------------|
2|----------------/-----------------|14-----6-------6-----6-|
3|-------5---7---7-------7---5------|13-----5-------5-----5-|
4|-0--0--3---5---5-------5---3---0--|11--0--3--0--0-3--0--3-|
5|-0--0--3---5---5-------5---3---0--|11--0--3--0--0-3--0--3-|
6|-0--0--3---5---5-------5---3---0--|11--0--3--0--0-3--0--3-|


  Uh, then you got hit, and you shoulda known better.

  PM-|    PM         sl      PM    PM-|    PM    PM-|    PM
1|----------------------|-----------------------|----------------------|
2|------6----8--6-------|14-----6-------6-----6-|------6----6--8-------|
3|------5----7--5-------|13-----5-------5-----5-|------5----5--7-------|
4|0--0--3-0--5--3----0/-|11--0--3--0--0-3--0--3-|0--0--3-0--3--5-------|
5|0--0--3-0--5--3----0/-|11--0--3--0--0-3--0--3-|0--0--3-0--3--5-------|
6|0--0--3-0--5--3----0/-|11--0--3--0--0-3--0--3-|0--0--3-0--3--5-------|


Chorus w/Figure 1:

	And we die young.
	Faster we run.    (Fill with Figure 1A)


Second verse w/Figure 2:

	Down, down, down you're rollin'.
	Watch the blood float in the muddy sewer.
	Uh, take another hit and bury your brother.


    H    Series of hammer/pulls                1/2 (bend)     sl   ~~~~
1|----------------------------------|------------/----------|----------|
2|----------------------------------|-----------/-----------|----------|
3|----------------------------------|----5--7--7----7--5----|-5/7---5--|
4|----------------------------------|-0--3--5--5----5--3--0-|----------|
5|-3/5---3/5-3/5-3/5-3/5-3/5--3-----|-0--3--5--5----5--3--0-|----------|
6|----------------------------------|-0--3--5--5----5--3--0-|----------|


                          And we die young.

           1/2 (bend)
1|------------/----------|----------|------|
2|-----------/-----------|-6------8-|-(8)--|
3|----5--7--7----7--5----|-5------7-|-(7)--|
4|-0--3--5--5----5--3--0-|-3---0--5-|-(5)--|
5|-0--3--5--5----5--3--0-|-3---0--5-|-(5)--|
6|-0--3--5--5----5--3--0-|-3---0--5-|-(5)--|

    H    Series of hammer/pulls                1/2 (bend)     sl   ~~~~
1|----------------------------------|------------/----------|----------|
2|----------------------------------|-----------/-----------|----------|
3|----------------------------------|----5--7--7----7--5----|-5/7---5--|
4|----------------------------------|-0--3--5--5----5--3--0-|----------|
5|-3/5---3/5-3/5-3/5-3/5-3/5--3-----|-0--3--5--5----5--3--0-|----------|
6|----------------------------------|-0--3--5--5----5--3--0-|----------|


                          Faster we run.

           1/2 (bend)
1|------------/----------|----------|------|
2|-----------/-----------|-6------8-|-(8)--|
3|----5--7--7----7--5----|-5------7-|-(7)--|
4|-0--3--5--5----5--3--0-|-3---0--5-|-(5)--|
5|-0--3--5--5----5--3--0-|-3---0--5-|-(5)--|
6|-0--3--5--5----5--3--0-|-3---0--5-|-(5)--|


Solo with Figure 1 (2 times).


Third verse (with Figure 1):

	Scary's on the wall.


Third verse (with Figure 1 1st 3 bars):

 	Scary's on his way.


Fourth verse (with Figure 2):

	Another alley trip.
	Bullet seek the place to bend you over.
	Uh, then you got hit, and you shoulda known better.


Repeat chorus

Ending:
======
                               PM--|       PM-|      PM
                1/2 (bend)
1|-----------------/\------------|---------------------------|
2|----------------/--\-----------|-----6----------6-----6--8-|
3|---------------/----------5----|-----5----------5-----5--7-|
4|--2---0---0---6-------0---3--0-|-0---3---0--0---3--0--3--5-|
5|--2---0---0---6-------0---3--0-|-0---3---0--0---3--0--3--5-|
6|--2---0---0---6-------0---3--0-|-0---3---0--0---3--0--3--5-|

                1/2 (bend)
1|-----------------/\---------|
2|----------------/--\--------|
3|---------------/----------5-|
4|--2---0---0---6-------0---3-|
5|--2---0---0---6-------0---3-|
6|--2---0---0---6-------0---3-|

3. Man In The Box

Tune Gtrs. down 1/2 step s =slight bend X =fret-hand muting
~~~~~~~~~~~~~~~~~~~~~~~~ v =vibrato t =trill
h =hammer on b =bend 1/4 step
B =bend 1/2 step f =bend full step
F =bend 1 1/2 step PM =pick-hand muting
p =pull off

_INTRO______________________________________________________________________
N.C.
(drum fill) Gtr.1 (dbld) (E5) Rhy.Fig. 1 Repeat 2 times
|---------------------------------|---------------------------------|
|---------------------------------|---------------------------------|
|---------------------------------|---------------------------------|
|--------------------------X--X---|---------------------------------|
|--------------------------X--X---|--5----X-5-----------5-----------|
|--------------------------X--X---|--0----X-0-----------0--------0--|

Lead Intro.Fig. 1
Gtr. 2 w/Rhy.Fig. 1 (2 times)
end Rhy.Fig. 1 w/dist. and talk box
|---------------------------------|---------------------------------|
|---------------------------------|---------------------------------|
|---------------------------------|----------7v---------7h9v--------|
|---------------------------------|--9v-----------------------------|
|--5----X-5--------------------5--|---------------------------------|
|--0----X-0-----------0----5h7----|---------------------------------|

|---------------------------------|---------------------------------|
|---------------------------------|---------------------------------|
|---------------------------------|---------------------------------|
|--7v------7h9v----------5v-------|--5h7v------5b-------------------|
|---------------------------------|-------------------------7v------|
|---------------------------------|---------------------------------|

End Lead Intro.Fig. 1
Repeat once
|---------------------------------|
|---------------------------------|
|---------------------------------|
|---------------------------------|
|----------7------------------5---|
|-----------------0-----5h7-------|

_VERSES 1 &
2_______________________________________________________________

1. I'm the man in the box.
2. I'm the dog who gets beat.

N.C. (E5)
Rhy.Fig. 2
Gtrs. 1 and 2
|---------------------------------|---------------------------------|
|---------------------------------|---------------------------------|
|---------------------------------|---------------------------------|
|---------------------------------|---------------------------------|
|--5----X---5-----------5---------|--5----X---5----------5----------|
|--0----X---0-----------0------0--|--0----X---0----------0-------0--|
PM ...............................................................

|---------------------------------|---------------------------------|
|---------------------------------|---------------------------------|
|---------------------------------|---------------------------------|
|---------------------------------|---------------------------------|
|--5----X---5-----------5---------|--5----X---5------------------5--|
|--0----X---0-----------0------0--|--0----X---0---------0---5h7-----|
PM........................................................

Buried in my shit.
Shove my nose in shit.
|---------------------------------|---------------------------------|
|---------------------------------|---------------------------------|
|---------------------------------|---------------------------------|
|---------------------------------|---------------------------------|
|--5----X---5-----------5---------|--5----X---5----------5----------|
|--0----X---0-----------0------0--|--0----X---0----------0-------0--|
PM ...............................................................

|---------------------------------|---------------------------------|
|---------------------------------|---------------------------------|
|---------------------------------|---------------------------------|
|---------------------------------|---------------------------------|
|--5----X---5-----------5---------|--5-------5------5t7-------------|
|--0----X---0-----------0------0--|------0-------------------0---0--|
PM...............................

_PRE-CHORUS_________________________________________________________________

Won't you

G5 G6 G5 G6 G5 G6 G5 G6 G5
Rhy.Fig. 3
|---------------------------------|---------------------------------|
|---------------------------------|---------------------------------|
|---------------------------------|---------------------------------|
|---------------------------------|---------------------------------|
|--5---5---7---5---5---7---5---5--|--5---5---7---5---5---5---7---5--|
|--3---3---3---3---3---3---3---3--|--3---3---3---3---3---3---3---3--|
PM.................................................................

come and save
G6 G5 G6 G5 G6 G5 G6
|---------------------------------|---------------------------------|
|---------------------------------|---------------------------------|
|---------------------------------|---------------------------------|
|---------------------------------|---------------------------------|
|--5---5---7---5---5---7---5---5--|--5---5---7---5---5---5---7------|
|--3---3---3---3---3---3---3---3--|--3---3---3---3---3---3---3---0--|
PM...................................................................

me, save
N.C. (E5)
Gtrs. 1 and 2
|---------------------------------|---------------------------------|
|---------------------------------|---------------------------------|
|---------------------------------|---------------------------------|
|---------------------------------|---------------------------------|
|--5-----------5-----------5v-----|--5-----X---5--------5-----------|
|--0---0---0-------------------0--|--0-----X---0--------0--------0--|
PM........... PM....................................

me.
w/Fill 1 1st time
End Rhy.Fig. 3 Play Fill 2 2nd time
|---------------------------------|---------------------------------|
|---------------------------------|---------------------------------|
|---------------------------------|---------------------------------|
|---------------------------------|---------------------------------|
|--5-----X---5--------5-----------|--5t7------5---------------------|
|--5-----X---5--------5--------0--|------------------7---6---5---3--|
PM...............................

_FILL
1_____________________________________________________________________

Gtr. 3
|---------------------------------|---------------------------------|
|--15t17----15----12--------------|---------------------------------|
|---------------------15--14--12--|--15fv---------------------------|
|---------------------------------|---------------------------------|
|---------------------------------|---------------------------------|
|---------------------------------|---------------------------------|

_FILL
2_____________________________________________________________________

Gtrs. 1 and 2
|----------------------------------|
|--14B-(14)--14B-(14)--12----------|
|--14f-(14)--14f-(14)--12----------|
|------------------------- 14--12--|
|----------------------------------|
|----------------------------------|

_CHORUS_____________________________________________________________________

%

Feed_________________________________________ my eyes,

E5 G D
|------------------------------3--|------------------------------2--|
|------------------------------3--|------------------------------3--|
|------------------------------0--|------------------------------2--|
|--2---------------------------0--|------------------------------0--|
|--2---------------------------2--|---------------------------------|
|--0---------------------------3--|---------------------------------|

can you sew them shut?

A
|---------------------------------|---------------------------------|
|------------------------------2--|---------------------------------|
|------------------------------2--|---------------------------------|
|------------------------------2--|---------------------------------|
|------------------------------0--|---------------------------------|
|---------------------------------|-----------------------0----3v---|

Jesus_______________________________________________ Christ,

E5 G D
|------------------------------3--|------------------------------2--|
|------------------------------3--|------------------------------3--|
|------------------------------0--|------------------------------2--|
|--2---------------------------0--|------------------------------0--|
|--2---------------------------2--|---------------------------------|
|--0---------------------------3--|---------------------------------|

deny your maker.

A
|---------------------------------|---------------------------------|
|------------------------------2--|---------------------------------|
|------------------------------2--|---------------------------------|
|------------------------------2--|---------------------------------|
|------------------------------0--|---------------------------------|
|---------------------------------|-----------------------0----3v---|

He_______________________________________________ who tries

E5 G D
|------------------------------3--|------------------------------2--|
|------------------------------3--|------------------------------3--|
|------------------------------0--|------------------------------2--|
|--2---------------------------0--|------------------------------0--|
|--2---------------------------2--|---------------------------------|
|--0---------------------------3--|---------------------------------|

will be wasted.

A
|---------------------------------|---------------------------------|
|------------------------------2--|---------------------------------|
|------------------------------2--|---------------------------------|
|------------------------------2--|---------------------------------|
|------------------------------0--|---------------------------------|
|---------------------------------|-----------------------0----3v---|

Feed__________________________________________ my eyes.

E5 G D
|------------------------------3--|------------------------------2--|
|------------------------------3--|------------------------------3--|
|------------------------------0--|------------------------------2--|
|--2---------------------------0--|------------------------------0--|
|--2---------------------------2--|---------------------------------|
|--0---------------------------3--|---------------------------------|

Now, you've sewn them shut.

A
|---------------------------------|---------------------------------|
|------------------------------2--|---------------------------------|
|------------------------------2--|---------------------------------|
|------------------------------2--|---------------------------------|
|------------------------------0--|---------------------------------|
|---------------------------------|-----------------------0----3----|
PM........

_GUITAR
SOLO________________________________________________________________

N.C. (E5)
Gtr. 3 (w/dist and wah pedal)
w/Rhy.Fig.2
|---------------------------------|---------------------------------|
|---------------------------------|---------------------------------|
|---------------------------------|---------------------------------|
|---------------------------------|---------------------------------|
|--5t7----------------------------|---------------------------------|
|---------------------------------|---------------------------------|
(grad. close pedal) (grad. open pedal)

hold bend..
|---------------------------------|---------------------------------|
|---------------------------------|-----------------------------10f-|
|--------7h9---9F--------9--7-----|---------------------------------|
|--7h9-------------------------9--|--8---7---5---7-----7f--(7v)-----|
|---------------------------------|---------------------------------|
|---------------------------------|---------------------------------|

...keep holding bend................................
|--------------------------------------------------|
|--10--10--10--10--10--10--10--10--10--10--10--10--|
|--------------------------------------------------|
|--------------------------------------------------|
|--------------------------------------------------|
|--------------------------------------------------|
(gradually open wah pedal)

..hold bend...........
|-----------------------------------------|
|--10B--10--10--10--10--10f--(10)p8-------|
|-------------------------------------9v--|
|-----------------------------------------|
|-----------------------------------------|
|-----------------------------------------|

|-----------------------------------------12--15--15F--|
|-------12--12h15p12-12h15p12--15fv--15f---------------|
|--14f-------------------------------------------------|
|------------------------------------------------------|
|------------------------------------------------------|
|------------------------------------------------------|
G5 G6 G5 G6 G5
hold bend...
|-------15--12--------------------|
|---------------------------------|
|---------------12h14v-------14f--|
|---------------------------------|
|---------------------------------|
|---------------------------------|

Gtr. 3 w/Rhy.Fig. 3 G6 G5 G6 G5
...keep holding bend................................................
G5 G6 G5 G6 G5
|---------------------------------|---------------------------------|
|----------15v--------------------|---------------------------------|
|---------(14v)-------------------|---------------------------------|
|---------------------------------|---------------------------------|
|---------------------------------|---------------------------------|
|---------------------------------|---------------------------------|
| |
| G6 G5 G6 G5 |
|.................(feedback)....................................... |
|---------------------------------|---------------------------------|
|---------------------------------|---------------------15----------|
|---------------------------------|---------------------------------|
|---------------------------------|---------------------------------|
|---------------------------------|---------------------------------|
|---------------------------------|---------------------------------|
pitch: D

Gtr. 4
|---------------------------------|---------------------------------------|
|--15--------15v------------------|---------------------------------------|
|--14--------14v------------------|---------X------X--X--14B--14--12------|
|-----------------14--------------|--12h14--X--14--X--X--------------14v--|
|------X--X-----------------X--X--|---------------------------------------|
|------X--X-----------------X--X--|---------------------------------------|
| |
| |
|---------------------------------|---------------------------------------|
|----------12---------------------|----------------------15v--------------|
|--------------15--14--12--12fv---|----12f----12---9----------------------|
|---------------------------------|---------------------------------------|
|---------------------------------|---------------------------------------|
|---------------------------------|---------------------------------------|

Gtr. 4 slide down
|--12--15--15--15f--(15)p12--------------|
|----------------------------15v-----15--|
|----------------------------------------|
|----------------------------------------|
|----------------------------------------|
|----------------------------------------|

slide up
|---------------------------------|--------------------------------------|
|--12---------------X---------12--|--------------------------------------|
|--12--------(12)---X---------12--|----------------------------------2f--|
|--12--------(12)---X---12----12--|--X-----------------------------------|
|------X--X-----------------------|--X--------7v---X--X--X--X--5h7-------|
|------X--X-----------------------|--X--3h5------------------------------|

E5
Gtrs. 1 and 2
w/Fill 3 D.S. % al Coda
|--------------------------|
|--------------------------|
|--------------------------|
|-------5---2-------2------|
|---------------5----------|
|-----------------------3--|

Coda
N.C. (E5)
Gtr. 2 w/Rhy.Fig. 1 (2 times)
|---------------------------------|---------------------------------|
|---------------------------------|---------------------------------|
|-----------7v-------7h9v---------|---------------------------------|
|---9v----------------------------|---7v-------7h9v---------5v------|
|---------------------------------|---------------------------------|
|---------------------------------|---------------------------------|

|---------------------------------|
|---------------------------------|
|---------------------------------|
|---5h7v--------5b----------------|
|------------------------7v-------|
|---------------------------------|

1st Ending
|---------------------------------|
|---------------------------------|
|---------------------------------|
|---------------------------------|
|-------7--------------------5----|
|----------------0----5h7---------|

2nd Ending
|---------14--14-----12--12--12---|
|---------14--14-----12--12--12---|
|---------14--14-----12--12--12---|
|---------------------------------|
|---------------------------------|
|---------------------------------|

_FILL
3_____________________________________________________________________

Gtr. 3
hold bend.....
|----------------0----------------|
|---------------------------------|
|-------2f----------2f--(2)p0-----|
|------------------------------2--|
|---------------------------------|
|---------------------------------|

4. Them Bones
                                   THEM BONES
                         As recorded by Alice In Chains
                           (From the 1992 Album DIRT)

Words and Music by Jerry Cantrell
Arranged by Alice In Chains

This is exactly how Jerry plays it live. I am aware this is alot different then what
the song is usually tabbed as (the solo for the most part). I watched the song's music
video and 2 live videos to make the most accurate tab available on the web. Enjoy!

Gtr I (Db Ab Db Gb Bb Eb) - 'Jerry Cantrell'
Gtr II (Db Ab Db Gb Bb Eb) - 'Jerry Cantrell'
Gtr III (Db Ab Db Gb Bb Eb) - 'Jerry Cantrell'

   Intro
    Moderately E=163
    DmD5  Eb5     E5    F5D5    DmD5  Eb5     E5    F5D5
   7/8
    Gtr I
      PM--------------------|     PM--------------------|
    E S S S S S S S S S S S S   E S S S S S S S S S S S S
||----------------------------|----------------------------|
||o-6-------------------------|-6--------------------------|
||--5-------------------------|-5--------------------------|
||--0-0-0-1-1-1-1-2-2-2-3-0-0-|-0-0-0-1-1-1-1-2-2-2-3-0-0--|
||o-0-0-0-1-1-1-1-2-2-2-3-0-0-|-0-0-0-1-1-1-1-2-2-2-3-0-0--|
||--0-0-0-1-1-1-1-2-2-2-3-0-0-|-0-0-0-1-1-1-1-2-2-2-3-0-0--|


  Dm7D5  Eb5     E5    F5D5    DmD5  Eb5     E5    F5
   ~~PM--------------------|     PM----------------|
   E S S S S S S S S S S S S   E S S S S S S S S S S E
|----------------------------|-------------------------|
|-18-------------------------|-6-----------------------|
|-17-------------------------|-5-----------------------|
|--0-0-0-1-1-1-1-2-2-2-3-0-0-|-0-0-0-1-1-1-1-2-2-2-3---|
|--0-0-0-1-1-1-1-2-2-2-3-0-0-|-0-0-0-1-1-1-1-2-2-2-3---|
|--0-0-0-1-1-1-1-2-2-2-3-0-0-|-0-0-0-1-1-1-1-2-2-2-3---|


 Verses
  $
  D5  Eb5E5 F5      D5  Eb5E5 F5      D5  Eb5E5 F5      D5  Eb5E5 F5
  E E Q  E. S +E    E E Q  E. S +E    E E Q  E. S +E    E E Q  E. S +E
|-----------------|-----------------|-----------------|-----------------|
|-3---------------|-3---------------|-3---------------|-3---------------|
|-2---------------|-2---------------|-2---------------|-2---------------|
|-0-0-1--2--3-(3)-|-0-0-1--2--3-(3)-|-0-0-1--2--3-(3)-|-0-0-1--2--3-(3)-|
|-0-0-1--2--3-(3)-|-0-0-1--2--3-(3)-|-0-0-1--2--3-(3)-|-0-0-1--2--3-(3)-|
|-0-0-1--2--3-(3)-|-0-0-1--2--3-(3)-|-0-0-1--2--3-(3)-|-0-0-1--2--3-(3)-|


  D5  Eb5E5 F5      D5  Eb5E5 F5      D5  Eb5E5 F5      D5  Eb5E5 F5    D5
  E E Q  E. S +E    E E Q  E. S +E    E E Q  E. S +E    E E Q  E. S +S  S
|-----------------|-----------------|-----------------|--------------------|
|-3---------------|-3---------------|-3---------------|-3------------------|
|-2---------------|-2---------------|-2---------------|-2------------------|
|-0-0-1--2--3-(3)-|-0-0-1--2--3-(3)-|-0-0-1--2--3-(3)-|-0-0-1--2--3-(3)-0--|
|-0-0-1--2--3-(3)-|-0-0-1--2--3-(3)-|-0-0-1--2--3-(3)-|-0-0-1--2--3-(3)-0--|
|-0-0-1--2--3-(3)-|-0-0-1--2--3-(3)-|-0-0-1--2--3-(3)-|-0-0-1--2--3-(3)-0--|


 Chorus
                                                             To Coda
  Bb5        A5                    C5             B5            Bb5 D5
 4/4
   E E S S S S +S  S S S S  S  E    E  E  S  S  S S +S  S S S S S S S
|--------------------------------|--------------------------------------||
|-----------------------------10-|-------------------------------------o||
|------------------------------9-|--------------------------------------||
|-/8-8-8-8-8-7-(7)-7-7-7-9s11----|-10-10-10-10-10-9-(9)-9-9-9-9-8-8-0---||
|-/8-8-8-8-8-7-(7)-7-7-7---------|-10-10-10-10-10-9-(9)-9-9-9-9-8-8-0--o||
|-/8-8-8-8-8-7-(7)-7-7-7---------|-10-10-10-10-10-9-(9)-9-9-9-9-8-8-0---||


 Guitar Solo
  Dm7 D5  Eb5     E5    F5D5    Dm7 D5      Eb5     E5    F5D5
 7/8
  Gtr II
    PM--|   PM--|   PM|   PM|                   ~
  S S S S S S S S S S S S S S    E  E       S S E   S S S S E
|-----------------------------|---------------------------------|
|-----------------------------|---------------------------6-----|
|-----------------------------|---------------------------5-----|
|-3-------3-------5-----6-----|-[5]-3b3.5-------------5s7-------|
|---5-5-5---5-5-5---5-5---5-5-|-------------5-3-5---3-----------|
|-----------------------------|---------------------------------|
|
| Gtr I
|     PM--------------------|       PM------------------------|
| E   S S S S S S S S S S S S    E  S     S S S S S S S S S S S
|-----------------------------|---------------------------------|
|-6---------------------------|--6------------------------------|
|-5---------------------------|--5------------------------------|
|-0---0-0-1-1-1-1-2-2-2-3-0-0-|--0--0-----0-1-1-1-1-2-2-2-3-0-0-|
|-0---0-0-1-1-1-1-2-2-2-3-0-0-|--0--0-----0-1-1-1-1-2-2-2-3-0-0-|
|-0---0-0-1-1-1-1-2-2-2-3-0-0-|--0--0-----0-1-1-1-1-2-2-2-3-0-0-|


  Dm7   D5         Eb5     E5       F5D5
   E     +Q.                +Q         +S   +S
|-----------------------------------------------|
|-----------------------------------------------|
|-12b14r(12)b14============(12)-------(12)r(12)-|
|-----------------------------------------------|
|-----------------------------------------------|
|-----------------------------------------------|
|
|         PM-------------------------------|
|  E      S      S S S S S   S  S S S   S    S
|-----------------------------------------------|
|--6--------------------------------------------|
|--5--------------------------------------------|
|--0------0------0-1-1-1-1---2--2-2-3---0----0--|
|--0------0------0-1-1-1-1---2--2-2-3---0----0--|
|--0------0------0-1-1-1-1---2--2-2-3---0----0--|


  Dm7           D5      Eb5                  E5               F5   D5
                 ~~                                                ~~~~~~~
   |----3-----|          |---3---|  |--3---|
   S     +S   S  E    a  S  S    S  S  S   S  S      +S   +S   +S  S +S
|------------------------------------------------------------------------|
|------------------------------------------------------------------------|
|-12b14r(12)p10----------------------------------------------------------|
|---------------12---10h12p10--------------------------------------------|
|-------------------------------12p10-10s==8h10b12==(10)r(10)-(10)p8-(8)-|
|------------------------------------------------------------------------|
|
|                PM--------------------------------------------------|
|  E             S S     S    S     S    S    S       S    S    S  S  S
|------------------------------------------------------------------------|
|--6---------------------------------------------------------------------|
|--5---------------------------------------------------------------------|
|--0-------------0-0-----1----1-----1----1----2-------2----2----3--0--0--|
|--0-------------0-0-----1----1-----1----1----2-------2----2----3--0--0--|
|--0-------------0-0-----1----1-----1----1----2-------2----2----3--0--0--|


  Dm7 D5   Eb5        E5         F5 D5
 ~~~~~            ~~~~~~~~~
   E.    S  S  S  E    +S   S  S  S  S  S
|-----------------------------------------|
|-----------------------------------------|
|----------17-17-17---(17)-15-14h15p14----|
|-14----14-----------------------------15-|
|-----------------------------------------|
|-----------------------------------------|
|
|     PM-------------------------------|
|  E  S  S  S  S  S S   S   S  S  S  S  S
|-----------------------------------------|
|--6--------------------------------------|
|--5--------------------------------------|
|--0--0--0--1--1--1-1---2---2--2--3--0--0-|
|--0--0--0--1--1--1-1---2---2--2--3--0--0-|
|--0--0--0--1--1--1-1---2---2--2--3--0--0-|


  Dm7D5  Eb5           E5       F5 D5
   ~~~~~~~~~~~ PM---------------|
   Q      +S   S  S  S  S  S  S  S  S  S
|----------------------------------------|
|----------------------------------------|
|----------------------------------14h15p|
|--------(12)----------------14-15-------|
|-17-------------------15-17-------------|
|-------------15-17-19-------------------|
|
|    PM-------------------------------|
|  E S S   S   S  S  S  S  S  S  S  S  S
|----------------------------------------|
|--6-------------------------------------|
|--5-------------------------------------|
|--0-0-0---1---1--1--1--2--2--2--3--0--0-|
|--0-0-0---1---1--1--1--2--2--2--3--0--0-|
|--0-0-0---1---1--1--1--2--2--2--3--0--0-|


  Dm7 D5  Eb5       E5               F5 D5      Dm7 D5  Eb5       E5         F5D5
                                                 ~~~
   Q.          S  S  S      +S   +S   S  S  S    Q.          S  S  Q.
|---------------------------------------------|------------------------------------|
|---------------------------------------------|------------------------------------|
|-14----------14-15-17b19==(17)r(17)-15-17-15-|-14----------12-14-14b17============|
|---------------------------------------------|------------------------------------|
|---------------------------------------------|------------------------------------|
|---------------------------------------------|------------------------------------|
|
|     PM-----------------------------------|        PM---------------------------|
|  E  S S S S  S  S  S       S    S   S  S  S    E  S S S S  S  S  S     S S S S S
|---------------------------------------------|------------------------------------|
|--6------------------------------------------|--6---------------------------------|
|--5------------------------------------------|--5---------------------------------|
|--0--0-0-1-1--1--1--2-------2----2---3--0--0-|--0--0-0-1-1--1--1--2-----2-2-3-0-0-|
|--0--0-0-1-1--1--1--2-------2----2---3--0--0-|--0--0-0-1-1--1--1--2-----2-2-3-0-0-|
|--0--0-0-1-1--1--1--2-------2----2---3--0--0-|--0--0-0-1-1--1--1--2-----2-2-3-0-0-|


  Bb5                   A5
 4/4
  Gtr III
                                              ~~~
    E     S  S  S  S  S  S      +E.      +S   Q
|--15b17-15-13----13----------------------------------|
|--------------15----15-15b17==(15)r====(15)-15-------|
|-----------------------------------------------------|
|-----------------------------------------------------|
|-----------------------------------------------------|
|-----------------------------------------------------|
|
| Gtr II
|                                ~~~~~
|  +H                           +H
|-----------------------------------------------------|
|-----------------------------------------------------|
|-(14)r========================(14)-------------------|
|-----------------------------------------------------|
|-----------------------------------------------------|
|-----------------------------------------------------|
|
| Gtr I
|   E     E     S  S  S  S      +S  S S   S   S  S  E
|-----------------------------------------------------|
|--------------------------------------------------10-|
|---------------------------------------------------9-|
|--/8-----8-----8--8--8--7------(7)-7-7---7---9s11----|
|--/8-----8-----8--8--8--7------(7)-7-7---7-----------|
|--/8-----8-----8--8--8--7------(7)-7-7---7-----------|


  C5                      B5                      Bb5   D5
                                                   ~~~
    E     S  S   S   S  S  S      +S   S  S  S  S  E.
|--20b22-20-18--17-----17---------------------------------|
|-------------------20----20b22==(20)-20-18----18---------|
|-------------------------------------------19----19------|
|---------------------------------------------------------|
|---------------------------------------------------------|
|---------------------------------------------------------|
|
|  +Q           +Q                 Q.                 E
|---------------------------------------------------------|
|---------------------------------------------------------|
|-(14)---------(14)-----------------------------------x---|
|---------------------------------------------------------|
|---------------------------------------------------------|
|---------------------------------------------------------|
|
|   E     E      S   S  S  S      +S   S  S  S  S  S  S S
|---------------------------------------------------------|
|---------------------------------------------------------|
|---------------------------------------------------------|
|--10----10-----10--10-10--9------(9)--9--9--9--9--8--8-0-|
|--10----10-----10--10-10--9------(9)--9--9--9--9--8--8-0-|
|--10----10-----10--10-10--9------(9)--9--9--9--9--8--8-0-|


  Dm7          D5          Eb5                        E5                F5
 7/8
                            |-----5-----|
   T   T  T  T  T  T  T  T  T  T  T  T  T  T  T  T  T  T  T  T  T  T  T  T  T  T  T  T  T
|-----------------------------------------------------------------------------------------|
|-18h=20p18----18h20p18----18h20p18----18h20p18----18h20p18----18h20p18----18h20p18----18-|
|-----------19----------19----------19----------19----------19----------19----------19----|
|-----------------------------------------------------------------------------------------|
|-----------------------------------------------------------------------------------------|
|-----------------------------------------------------------------------------------------|
|
|  \1______________________________________________________________________________________
|  H..
|-----------------------------------------------------------------------------------------|
|-----------------------------------------------------------------------------------------|
|-----------------------------------------------------------------------------------------|
|-----------------------------------------------------------------------------------------|
|--0--------------------------------------------------------------------------------------|
|-----------------------------------------------------------------------------------------|
|
|               PM------------------------------------------------------------------|
|  E            S     S     S        S     S     S     S     S     S     S     S     S
|-----------------------------------------------------------------------------------------|
|--6--------------------------------------------------------------------------------------|
|--5--------------------------------------------------------------------------------------|
|--0------------0-----0-----1--------1-----1-----1-----2-----2-----2-----3-----0-----0----|
|--0------------0-----0-----1--------1-----1-----1-----2-----2-----2-----3-----0-----0----|
|--0------------0-----0-----1--------1-----1-----1-----2-----2-----2-----3-----0-----0----|


  Dm7   D5    Eb5        E5       F5D5
   E     S  S  S  S  E    +Q         +S   S
|---------------------------------------------|
|-20b22-20-18----18---------------------------|
|-------------19----19---(19)-------(19)s12---|
|---------------------------------------------|
|---------------------------------------------|
|---------------------------------------------|
|
|  H..
|---------------------------------------------|
|---------------------------------------------|
|---------------------------------------------|
|---------------------------------------------|
|--0------------------------------------------|
|---------------------------------------------|
|
|        PM------------------------------|
|  E     S  S  S  S  S S   S  S S S   S   S
|---------------------------------------------|
|--6------------------------------------------|
|--5------------------------------------------|
|--0-----0--0--1--1--1-1---2--2-2-3---0---0---|
|--0-----0--0--1--1--1-1---2--2-2-3---0---0---|
|--0-----0--0--1--1--1-1---2--2-2-3---0---0---|


  Dm7      D5  Eb5           E5        F5      D5
   +Q           +S   s  s  s  s   s  s  T  +T   S  S
|----------------------------------------------------|
|----------------------------------------------------|
|-(12)b14======(12)-12-12-12-12--12-12-12r(12)p10----|
|-------------------------------------------------12-|
|----------------------------------------------------|
|----------------------------------------------------|
|
|   \3.5______________________________________________
|   H                         Q.
|----------------------------------------------------|
|----------------------------------------------------|
|----------------------------------------------------|
|----------------------------------------------------|
|---0-------------------------0----------------------|
|----------------------------------------------------|
|
|   ~~~~~~~PM-------------------------------------|
|   E      S S   S   S  S  S  S   S  S  S       S  S
|----------------------------------------------------|
|--18------------------------------------------------|
|--17------------------------------------------------|
|---0------0-0---1---1--1--1--2---2--2--3-------0--0-|
|---0------0-0---1---1--1--1--2---2--2--3-------0--0-|
|---0------0-0---1---1--1--1--2---2--2--3-------0--0-|


                       D.S. al Coda
  Dm7 D5   Eb5         E5       F5
   ~~~
   E   E    S  S  S  S  S  S  S  S  +E
|----------------------------------------|
|----------------------------------------|
|-10-------------------------------------|
|-----12---10h12-12-12-12-10-10----------|
|-------------------------------12-(12)\-|
|----------------------------------------|
|
| +H.                                E
|----------------------------------------|
|----------------------------------------|
|----------------------------------------|
|----------------------------------------|
|-(0)------------------------------------|
|----------------------------------------|
|
|      PM-----------------------|
|  E   S S  S  S  S  S  S  S  S  S   E
|----------------------------------------|
|--6-------------------------------------|
|--5-------------------------------------|
|--0---0-0--1--1--1--1--2--2--2--3-------|
|--0---0-0--1--1--1--1--2--2--2--3-------|
|--0---0-0--1--1--1--1--2--2--2--3-------|


 Outro Chorus
  &
  Bb5        A5                    C5             B5            Bb5
 4/4
  Gtr I
   E E S S S S +S  S S S S  S  E    E  E  S  S  S S +S  S S S S S S S
|--------------------------------|-------------------------------------|
|-----------------------------10-|-------------------------------------|
|------------------------------9-|-------------------------------------|
|-/8-8-8-8-8-7-(7)-7-7-7-9s11----|-10-10-10-10-10-9-(9)-9-9-9-9-8-8s5--|
|-/8-8-8-8-8-7-(7)-7-7-7---------|-10-10-10-10-10-9-(9)-9-9-9-9-8-8s5--|
|-/8-8-8-8-8-7-(7)-7-7-7---------|-10-10-10-10-10-9-(9)-9-9-9-9-8-8s5--|


  Bb5        A5                    C5             B5            Bb5
   E E S S S S +S  S S S S  S  E    E  E  S  S  S S +S  S S S S S +E
|--------------------------------|-------------------------------------*|
|-----------------------------10-|-------------------------------------*|
|------------------------------9-|-------------------------------------*|
|-/8-8-8-8-8-7-(7)-7-7-7-9s11----|-10-10-10-10-10-9-(9)-9-9-9-9-8-(8)\-*|
|-/8-8-8-8-8-7-(7)-7-7-7---------|-10-10-10-10-10-9-(9)-9-9-9-9-8-(8)\-*|
|-/8-8-8-8-8-7-(7)-7-7-7---------|-10-10-10-10-10-9-(9)-9-9-9-9-8-(8)\-*|

6. Angry Chair

This is how my band plays it. I'm working on the solo so it may not be completly
correct but it should be close. This is a completely by ear transcription. I can't
find a completely correct tab which is sad for such a great song so I decided to
make one myself so this is it.  Email me if you have questions.

Tuning: EbAbDbGbBbeb

qb:quarter bend
hb:half bend
fb:full bend
h:hammer-on
p:pull-off
/:slide down
\:slide up
r:reverb
v:vibrato
x:muted string
That's about it for this song.

Guitar 1 Clean w/ slight reverb

eb|-------------|
Bb|-------------|
Gb|-------------|
Db|-------------| x14 total for intro/verse
Ab|-----2---3qb-|
Eb|---0---0-----|

Guitar 2 High Distortion Verse

eb|-------|
Bb|-------|
Gb|---x---|
Db|---2---| Repeat as many times as necessary, just listen to the song.
Ab|---2---|
Eb|---0---|

Bridge
Guitar 1 Distortion         Guitar 2 Distortion plays full chords

eb|-----------------------|    eb|---1-1-1-1--0-0--------|
Bb|-----------------------|    Bb|---1-1-1-1--0-0--------|
Gb|-----------------------|    Gb|---2-2-2-2--1-1--------|
Db|---3-3-3-3--2-2--------| x4 Db|---3-3-3-3--2-2--------| x4
Ab|---3-3-3-3--2-2--------|    Ab|---3-3-3-3--2-2--------|
Eb|---1-1-1-1--0-0-0-5fb--|    Eb|---1-1-1-1--0-0-0-5fb--|

Chorus
Both Guitars Distortion

eb|-------------------------------------------|
Bb|-------------------------------------------|
Gb|-------------------------------------------|
Db|---7--9--4--5-----7--9--2------------------|
Ab|---7--9--4--5-----7--9--2------------------|
Eb|---5--7--2--3-----5--7--0-0-5fbr5fbr5fbr5--|

Solo
Guitar 1  Note: Start with downstroke on solo then alternate for first lick.
      / \ / \ / \       Note: On the 0hb bend behind the nut.
eb|---222424242424-----------------------------------------------------|
Bb|------------------0-3-----------------------------------------15fb--|
Gb|----------------------------0-------2h4-2h4-2h4---/9-999-9p7--14fb--|
Db|-------------------------------0--x---------------------------------|
Ab|----------------------0hb-------------------------------------------|
Eb|--------------------------------------------------------------------|
solo cont.
|--------------------------------------17h19hb-------------------------|
|--15h17—15h17-16-15-------------15fb--------15fb----12-15-12-15-12-12-|
|--------------------16-15-14-12-14fb--------14fb----------------------|
|----------------------------------------------------------------------|
|----------------------------------------------------------------------|
|----------------------------------------------------------------------|
solo cont.  Once again bend behind the nut, this time slowly release bend.
|-x///--------|
|-x///--------|
|-------------|
|-------------|
|-------------|
|--------0fb--|

During solo Guitar 2 play Bridge

7.Down In A Hole

Gtr I (Eb Ab Db Gb Bb Eb) - 'Jerry Cantrell - Nylon string acoustic w/reverb'
Gtr II (Eb Ab Db Gb Bb Eb) - 'Jerry Cantrell - Nylon string acoustic'
Gtr III (Eb Ab Db Gb Bb Eb) - 'Jerry Cantrell - Steel string acoustic w/phaser'
Gtr IV (Eb Ab Db Gb Bb Eb) - 'Jerry Cantrell - Rhythm w/dist (2 gtrs)'
Gtr V (Eb Ab Db Gb Bb Eb) - 'Jerry Cantrell - clean electric w/phaser'
Gtr VI (Eb Ab Db Gb Bb Eb) - 'Jerry Cantrell - Lead w/dist (Gtr V w/dist)'

Intro
  Q=49
 4/4
  Gtr I
  Q    S E.     +Q        S S S S +S  S S S
|----|--------------------------------------|
|----|-3-5------(5)-------------------------|
|----|--------------------------------------|
|----|--------------------4-5-4-2-(2)-4-2---|
|----|------------------------------------3-|
|----|--------------------------------------|
|
| Gtrs II, III
| Q    S S  S S  S  S S S S S S S +S  S S S
|----|--------------------3-----2-(2)-------|
|----|-0h1----------1-------3---------3-----|
|----|------2---------2-------0---------2---|
|----|--------2---------2-------0-(0)-----0-|
|----|-0---------0--------------------------|
|----|--------------------3-----------------|
     |-Rhy Fig 1

             PM|
                                 |-3-|
  +Q       S S S S S S S S  S  S T T T s
|----------------------------------------|
|------------------------------3-5h6p5-3-|
|----------------------2-4--5------------|
|----------------2-4-5-------------------|
|-(3)--------0-3-------------------------|
|----------------------------------------|
|
|  S S S S S S S S S S S S +S  S S     S
|------------------3-----2-(2)-----------|
|--0h1-------1-------3---------3---------|
|------2-------2-------0---------2-------|
|--------2-------2-------0-(0)---------0-|
|--0-------0-----------------------------|
|------------------3---------------------|
                           end Rhy Fig 1-|

w/Rhy Fig 1
  S E.     +Q        S S S S +S  S S S
|--------------------------------------|
|-3-5------(5)-------------------------|
|--------------------------------------|
|--------------------4-5-4-2-(2)-4-2---|
|------------------------------------3-|
|--------------------------------------|


                       ~
  a    +E.     +S  S S E   S S S S  S    +S  +S  S
|---------------------------------------------------||
|-7b8==(7)r====(7)-5h7p5---3h5p3--------------------||
|-7b9==(7)r====(7)-5h7p5---4h5p4-4h=5b7==(5)r(5)p4--||
|--------------------------------5h=7b9==(7)r(7)p5--||
|---------------------------------------------------||
|---------------------------------------------------||
|
|                    PM|
|      +Q          S S S S S S S S  S     S   S  S
|------------------------------------------------3--||
|-----------------------------------------3---5-----||
|------------------------------2-4--5---------------||
|------------------------2-4-5----------------------||
|------(3)-----------0-3----------------------------||
|---------------------------------------------------||


   Verse 1
w/Rhy Fig 1 x4 ( Gtrs II, III, V)
                                         1.,2.,3.
    >
    Q       +H.                           +Q       +Q        H
||--------------------------------------|---------------------------------------||
||o-------------------------------------|--------------------------------------o||
||--5-------(5)-------------------------|-(5)------(5)--------------------------||
||--7-------(7)-------------------------|---------------------------------------||
||o-------------------------------------|--------------------------------------o||
||--------------------------------------|---------------------------------------||


  4.
               <
   q       e   e   +q        +e.     t t
|--------------2---(2)-------(2)-----------||
|--------------3---(3)-------(3)-----------||
|--------------2---(2)-------(2)-----------||
|--------------0---(0)-------(0)-----x-x---||
|------------------------------------x-x---||
|------------------------------------x-x---||


   verse 2 + 3
    $
    gtr iv
           ~                                    ~
    s  s s s +s  s s s +s  e s +s  e s   s  s s s +s  s s s +s  e s +s  e s  4x
||-------------------3-(3)-3-2-(2)-2---|------------------3-(3)-3-2-(2)-2----||
||o------------------3-(3)-3-3-(3)-3---|------------------3-(3)-3-3-(3)-3---o||
||-----------------0-0-(0)-0-2-(2)-2---|----------------0-0-(0)-0-2-(2)-2----||
||--9-10-9-7-(7)-7-0-0-(0)-0-0-(0)-0-0-|-9-10-9-7-(7)-7-0-0-(0)-0-0-(0)-0-0--||
||o-0--0-0-0-(0)-0-0---------0-(0)-0-0-|-0--0-0-0-(0)-0-0---------0-(0)-0-0-o||
||-------------------3-(3)-3-----------|------------------3-(3)-3------------||


   chorus
    s  s s s +s  s s s +s  s s s +s  s s s
||-------------------------0---------0-----|
||o--------------------------3---------3---|
||--9-10-9-7-(7)-7-0-0-(0)---------------0-|
||--0--0-0-0-(0)-0-0-2-(2)-----0-(0)-------|
||o------------------3-(3)-----2-(2)-------|
||-----------------------------3-(3)-------|
 |-rhy fig 2

  s  s s s +s  s s s +s  s s s +s  s s s
|------------------------0---------0-------||
|--------------------------3---------3----o||
|-9-10-9-7-(7)-7-0-0-(0)---------------0---||
|-0--0-0-0-(0)-0-0-2-(2)-----0-(0)---------||
|------------------3-(3)-----2-(2)--------o||
|----------------------------3-(3)---------||
                             end rhy fig 2-|

                                                        to coda
  e. s +e  e e s s +s  s s s   s s e s s s s s s s s +s  s s s
|----------------------------|----------------------------------|
|-3--------------------------|----------------------------------|
|-2----------5-5-5-(5)-5-5-5-|-5--------------------------------|
|-0--2-(2)-3-5-5-5-(5)-5-5-5-|-5-5-5-5-5-5-5-5s6s5-3-(3)-3-3-5--|
|----2-(2)-3-3-3-3-(3)-3-3-3-|-3-5-5-5-5-5-5-5s6s5-3-(3)-3-3-5--|
|----0-(0)-1-----------------|---3-3-3-3-3-3-3s4s3-1-(1)-1-1-3--|
|-rhy fig 3                                       end rhy fig 3-|


w/rhy fig 1
                                                               d.s. al coda
  gtr iv
  w                                   +q.          e    h
|-----------------------------------|--------------------------------------||
|-----------------------------------|--------------------------------------||
|-----------------------------------|--------------------------------------||
|-7---------------------------------|-(7)----------------------------------||
|-7---------------------------------|-(7)----------------------------------||
|-5---------------------------------|-(5)----------x\---x\-----------------||

 &
w/rhy fig 1
  w                                   +w
|-----------------------------------|---------------------------------------||
|-----------------------------------|---------------------------------------||
|-----------------------------------|---------------------------------------||
|-7---------------------------------|-(7)-----------------------------------||
|-7---------------------------------|-(7)-----------------------------------||
|-5---------------------------------|-(5)-----------------------------------||


 verse 4
w/rhy fig 1 x4
  gtr vi
                                 ~           ~~~
  e      +q        +s  +s  s s s s +s  a s s s
|----------------------------------------------|
|----------------------------------------------|
|-7b9====(7)-------(7)r(7)---------------------|
|--------------------------4-5-4-2-(2)-2h4-2---|
|--------------------------------------------3-|
|----------------------------------------------|


 ~~~~~
  +q.          e   s    +s  +s  s +s  s    +s  +s
|---------------------------------------------------|
|---------------------------------------------------|
|-------------------------------------4b6==(4)r(4)--|
|------------------4b5==(4)r(4)-2-(2)---------------|
|-(3)-----------------------------------------------|
|---------------------------------------------------|


    ~~~~~~~~~~~                   ~           ~~~
  s e.     +q        s    +s  +s  s +s  a s s s
|-----------------------------------------------|
|-----------------------------------------------|
|-4s2------(2)----------------------------------|
|--------------------4b5==(4)r(4)-2-(2)-2h4-2---|
|---------------------------------------------3-|
|-----------------------------------------------|


 ~~~~~
  +q       s s s s s s s s  s  s s s   w
|------------------------------------|--------------------------------------|
|------------------------------------|--------------------------------------|
|------------------------------------|--------------------------------------|
|------------------------------------|--------------------------------------|
|-(3)--------2-0-2---2-0-2-----5-5-5s|=7------------------------------------|
|------------------3--------3--3-3-3s|=5------------------------------------|


  +w                                   +w
|------------------------------------|------------------------------------|
|------------------------------------|------------------------------------|
|------------------------------------|------------------------------------|
|------------------------------------|------------------------------------|
|-(7)--------------------------------|-(7)--------------------------------|
|-(5)--------------------------------|-(5)--------------------------------|


              <
  q       e   e   +q        +e.     t t
|-------------2---(2)-------(2)------------||
|-------------3---(3)-------(3)------------||
|-------------2---(2)-------(2)------------||
|-------------0---(0)-------(0)-----x-x----||
|-----------------------------------x-x----||
|-----------------------------------x-x----||


 chorus
w/rhy fig 2 x4 (gtr iv)
  gtr vi
                 <
  q         e    e       +q        +q
|--------------------------------------------|
|--------------------------------------------|
|----------------7pb9====(7)r======(7)-------|
|--------------------------------------------|
|--------------------------------------------|
|--------------------------------------------|


                                                                ~
  +e     e    s   e    s  +s  a     +e      s a     +s  +t  t s s
|----------------10---10-(10)--------------10----------------------|
|----------------10------------------------------------------------|
|-(7)-------------------------9b11==(9)r------9b11==(9)r(9)p7-9-7--|
|------------------------------------------------------------------|
|------------------------------------------------------------------|
|------------------------------------------------------------------|


   ~~~~~~~~~~~~~~
  +e.      s +h.
|------------------------------------------|
|------------------------------------------|
|-(7)------7-(7)---------------------------|
|------------------------------------------|
|------------------------------------------|
|------------------------------------------|


  e    s s  s  a     +s  +s      +s  +s  +s  s s  s    +s  +t     +t  +t     +t
|----------------------------------------------------------------------------------|
|----------------------------------------------------------------------------------|
|----------------------------------------------------------------------------------|
|----------------------------------------------------------------------------------|
|------7-8--9--9b10==(9)r(9)b11==(9)-(9)r(9)-7s5s=7b9==(7)r(7)b9==(7)r(7)b9==(7)r==|
|----------------------------------------------------------------------------------|


       ~~~~~~~~~~~
  +s   e.     +h.
|-------------------------------------------|
|-------------------------------------------|
|-------------------------------------------|
|-------------------------------------------|
|-(7)--5------(5)---------------------------|
|-------------------------------------------|


                                                                 |---3---|
  q         s   a       s    s  s      +q         +t   +s     t  s  s    s
|----------------------10------------------------------------10-------------|
|----------------------10---10-15b17==(15)-------(15)r(15)------13-10-------|
|--------------12b14==(12)r---------------------------------------------10--|
|---------------------------------------------------------------------------|
|---------------------------------------------------------------------------|
|---------------------------------------------------------------------------|


   a     +s    a     +s    a     +e   +e     s  a    +s   +s    s  a     +s    a      +s 
 +e    s  a     +s
|--------------------------------------------------------------------------------------------------------------|
|-------------------------------------------13------------------13-------------------------------13------------|
|-12b14=(12)r-12b14=(12)r-12b14=(12)-(12)r-----12b14=(12)-(12)r----12b14=(12)r(12)b14=(12)-(12)r----12b14=(12)-|
|--------------------------------------------------------------------------------------------------------------|
|--------------------------------------------------------------------------------------------------------------|
|--------------------------------------------------------------------------------------------------------------|
                                                                                            ~~~~~~~
   +s    a      +s    a      +s    s  s   a      s    a      +e    +s    s  a     +t   +t   s  +q
|-----------------------------------------------------------------------------------------------------|
|---------------------------------10-13---------10----------------------13----------------------------|
|-(12)r(12)b14=(12)r(12)b14=(12)r--------12b14=(12)r(12)b14=(12)--(12)r----12b14=(12)r(12)s10-(10)----|
|-----------------------------------------------------------------------------------------------------|
|-----------------------------------------------------------------------------------------------------|
|-----------------------------------------------------------------------------------------------------|

                                        ~~       ~~~~~~~
   a      +e   +s   s  +t   s      +t   e  e  s  s  +s   s  s  s
|----------------------------------------------------------------|
|-13b15==(13)r(13)-----------------------------------------------|
|------------------12-(12)-12pb13r(12)-10------------------------|
|-----------------------------------------10-12-12-(12)-12-12-12-|
|----------------------------------------------------------------|
|----------------------------------------------------------------|


   s  s  e  +q        s.  t s a s  s  s s a     +s
|----------------------------------5--5-5------------||
|-----------------------------3h5--5--6-5-8b10==(8)--||
|-10------------------------5------------------------||
|----12-12-(12)-----------7--------------------------||
|----------------------------------------------------||
|----------------------------------------------------||


w/rhy fig 1 x1.5
  gtr iv
  a5
   w
   |
   /

  gtr vi
  +h               +s   s s s  e    s t t
|-----------------------------------------|
|-(8)--------------(8)r-5-x-5--5----7-7-7-|
|-----------------------5-x-5--5----7-7-7-|
|-----------------------------------------|
|-----------------------------------------|
|-----------------------------------------|

  +w
   |
   /

                        ~~~~~~~~~~~~~~~~
   q          +e    +s  s +q        +e.     t t
|-----------------------------------------------|
|--7b8========(7)r==(7)p5-(5)-------(5)---------|
|--7b8========(7)r==(7)p5-(5)-------(5)---------|
|-------------------------------------------7p5-|
|-----------------------------------------------|
|-----------------------------------------------|


  +w
   |
   /

   e   s t t s     +e       +s   t t s a    +s  +s  +t  t s e
|-------------------------------------------------------------------|
|-----------------------------------------------------------5b5.5---|
|------------5b5.5-(5)b7====(5)r-----5-7b9==(7)r(7)-(7)p5---5b5.5---|
|------x-5h7---------------------5h7----------------------7---------|
|-------------------------------------------------------------------|
|-------------------------------------------------------------------|


  +h                                  h                          w
   |
   /

                              ~~~~~~~~~~~
   s s s      a      +s  +s  +e.     +e.     e      s  a  e      w
|-------------------------------------------------------------|-------*|
|------8pb10r(8)b10==(8)-(8)r(8)-----(8)-----------14-14h15---|-14----*|
|----0---------------------------------------------14----14---|-14----*|
|--------------------------------------------------14-14h16---|-14----*|
|-------------------------------------------------------------|-------*|
|-------------------------------------------------------------|-------*|
|
|  s s s              s   s   s  s s  s  s s s +s   s     s s    w
|-------------------------------------3------2-(2)------------|----------|
|--0h1------------------------1----------3----------3---------|--2-------|
|------2----------------------2------------0--------------2---|--2-------|
|---------------------2----------2-2---------0-(0)--------0---|--2-------|
|--0----------------------0---------------------------------0-|--0-------|
|-------------------------------------3----------------------------------|

8. Rooster
all tuned - Eb Ab Db Gb Bb Eb
Gtr I - 'Jerry Cantrell clean electric'
Gtr II, III - 'Jerry Cantrell dist electric (2 gtrs arr. for 1)'

Intro
    Q=72
   4/4
    Gtr I
    Q  E E +E  E E S S   Q  E E +E  E E S S
||--2--2-0-(0)-0-0-0-0-|-5--5-0-(0)-0-0-0-0-|
||o-2--2-0-(0)-0-0-0-0-|-5--5-0-(0)-0-0-0-0-|
||--3--3-3-(3)-3-3-3-3-|-6--6-6-(6)-6-6-6-6-|
||--4--4-4-(4)-4-4-4-4-|-7--7-7-(7)-7-7-7-7-|
||o-4--4-4-(4)-4-4-4-4-|-7--7-7-(7)-7-7-7-7-|
||--2--2-2-(2)-2-2-2-2-|-5--5-5-(5)-5-5-5-5-|
 |-Rhy Fig 1

  Q  E E +E  E E S S   Q  E E +E  E E S S  4x
|-2--2-0-(0)-0-0-0-0-|-5--5-0-(0)-0-0-0-0--||
|-2--2-0-(0)-0-0-0-0-|-5--5-0-(0)-0-0-0-0-o||
|-3--3-3-(3)-3-3-3-3-|-6--6-6-(6)-6-6-6-6--||
|-4--4-4-(4)-4-4-4-4-|-7--7-7-(7)-7-7-7-7--||
|-4--4-4-(4)-4-4-4-4-|-7--7-7-(7)-7-7-7-7-o||
|-2--2-2-(2)-2-2-2-2-|-5--5-5-(5)-5-5-5-5--||
                             end Rhy Fig 1-|

 Verse 1
 Gtr I plays Rhy Fig 1 x4
  Gtr II,III
  ~~~~~~~~~~~~~~~~~~~~~~~~~~~~~~~~~~~~~~~~~~~
  W                    +W
|--------------------|----------------------|
|--------------------|----------------------|
|-6------------------|-(6)------------------|
|--------------------|----------------------|
|--------------------|----------------------|
|--------------------|----------------------|

 ~~~~~~~~~~~~~~~~~~~~~~~~~~~~
  +W                     +W
|----------------------|----------------------|
|----------------------|----------------------|
|-(6)------------------|-(6)------------------|
|----------------------|----------------------|
|----------------------|----------------------|
|----------------------|----------------------|

   ~~~~~~~~~~~~~~~~~~~~~~~~~~~~~~~~~~~~~~~~~~~~
  +W                     +W
|----------------------|----------------------|
|----------------------|----------------------|
|-(6)------------------|-(6)------------------|
|----------------------|----------------------|
|----------------------|----------------------|
|----------------------|----------------------|

 ~~~~~~~~~~~~~~~~~~~~~~~~~~~~
  +W                     +W
|----------------------|----------------------|
|----------------------|----------------------|
|-(6)------------------|-(6)------------------|
|----------------------|----------------------|
|----------------------|----------------------|
|----------------------|----------------------|

   ~~~~~~~~~~~~~~~~~~~~~~~~~~
  +W                     +Q.    E +E  Q   E
|----------------------|----------------------|
|----------------------|----------------------|
|-(6)------------------|-(6)------------------|
|----------------------|----------------------|
|----------------------|--------4-(4)-3---2---|
|----------------------|----------------------|

        ~~~~~~~~~~~~~~~~~~
  E Q   E +H            W
|---------------------|--------------------|
|---------------------|--------------------|
|---------------------|--------------------|
|-------4-(4)---------|--------------------|
|---------------------|--------------------|
|-5-2-----------------|-5------------------|

        ~~~~~~~~~~~~~~~~~~~~~~~~~~~~~~~~~~
  Q.    E +H            H.            +E  S S
|---------------------|-5-------------(5)-----|
|-------7-(7)---------|-------------------5-7-|
|---------------------|-2-------------(2)-----|
|-4-------------------|-------------------2-4-|
|---------------------|-----------------------|
|---------------------|-----------------------|

                            ~~~
  S E. +H.                 +W
|-5----------------------|----------------------||
|---7--(7)---------------|-(7)------------------||
|-2----------------------|----------------------||
|---4--(4)---------------|-(4)------------------||
|------------------------|----------------------||
|------------------------|----------------------||

 Chorus 1
  Gtr I
  Q  E E E E E E    E  E  E  E  E  E  E S S   S E. S S E +Q.   S S
|-7--7-7-7-7-7-7-|-10-10-10-10-10-10-10-x-x-|-0-2--2-0-2-(2)---2-0-|
|-7--7-7-7-7-7-7-|-10-10-10-10-10-10-10-x-x-|-0-2--2-0-2-(2)---2-0-|
|-8--8-8-8-8-8-8-|-11-11-11-11-11-11-11-x-x-|-3-3--3-3-3-(3)---3-3-|
|-9--9-9-9-9-9-9-|-12-12-12-12-12-12-12-x-x-|-4-4--4-4-4-(4)---4-4-|
|-9--9-9-9-9-9-9-|-12-12-12-12-12-12-12-x-x-|-4-4--4-4-4-(4)---4-4-|
|-7--7-7-7-7-7-7-|-10-10-10-10-10-10-10-----|-0-2--2-0-2-(2)---2-0-|


  E. S S S E +S  S E S S S S   Q  E E E E E E    E  E  E  E  E  E  E  E
|-2--2-2-2-------2-2-2-2-2-2-|-7--7-7-7-7-7-7-|-10-10-10-10-10-10-10-10-||
|-2--2-2-2-4-(4)-2-2-2-2-2-2-|-7--7-7-7-7-7-7-|-10-10-10-10-10-10-10-10-||
|-3--3-3-3-4-(4)-3-3-3-3-3-3-|-8--8-8-8-8-8-8-|-11-11-11-11-11-11-11-11-||
|-4--4-4-4-4-(4)-4-4-4-4-4-4-|-9--9-9-9-9-9-9-|-12-12-12-12-12-12-12-12-||
|-4--4-4-4-2-(2)-4-4-4-4-4-4-|-9--9-9-9-9-9-9-|-12-12-12-12-12-12-12-12-||
|-2--2-2-2-2-(2)-2-2-2-2-2-2-|-7--7-7-7-7-7-7-|-10-10-10-10-10-10-10-10-||


    Gtr II,III
         ~~~~~~          ~~~~~~~~~~~       ~~~~~~
    E Q  E +H       Q.   E +E  Q  E   E Q  E +H       Q.   E +H
||-------0-(0)----|-----------------|------0-(0)----|------5-(5)----||
||o------0-(0)----|-----------------|------0-(0)----|------5-(5)---o||
||-------3-(3)----|-2---------------|------3-(3)----|-2----2-(2)----||
||----4--4-(4)----|-2---------------|---4--4-(4)----|-2----2-(2)----||
||o-2-4--4-(4)----|-0----4-(4)-3--2-|-2-4--4-(4)----|-0----0-(0)---o||
||--0-2--2-(2)----|-----------------|-0-2--2-(2)----|---------------||


   Interlude
Gtr II,III
    E E E a E +H       Q.   E +Q   a Q    E E E E +H       +W
||-------------------|------------------|----------------|---------||
||o------------------|------------------|----------------|--------o||
||--4-3-4-4s6-(6)----|-6----4-(4)--4s6--|-3--------------|---------||
||-------------------|------------------|---4-2-2-(2)----|-(2)-----||
||o-2-1-2-2s4-(4)----|-4----2-(2)--2s4--|-1--------------|--------o||
||-------------------|------------------|---2-0-0-(0)----|-(0)-----||
 |-Riff A                                               end Riff A-|

Gtr II plays Riff A
Gtr III
  E E E a E +Q.   S S   Q.   a  E  +Q   E  E    E  E H.        +W
|---------------------|----------------------|---------------|--------||
|---------------------|----------------------|---------------|--------||
|-4-3-4-4s6-(6)---6s9-|-9----9s11-(11)--9-11-|-14-11-9-------|-(9)----||
|---------------------|----------------------|---------------|--------||
|-2-1-2-2s4-(4)---4s7-|-7----7s=9--(9)--7--9-|-12--9-7-------|-(7)----||
|---------------------|----------------------|---------------|--------||


 Chorus 2 & 3
Gtrs II,III
  $
  E E E E E E E E    E  E  E  E  E  E  E  E   S E S S S E +Q   E E
|-7-7-7-7-7-7-7-7-|-10-10-10-10-10-10-10-10-|-0-2-2-2-2-------------|
|-7-7-7-7-7-7-7-7-|-10-10-10-10-10-10-10-10-|-0-2-2-2-2-------------|
|-8-8-8-8-8-8-8-8-|-11-11-11-11-11-11-11-11-|-3-3-3-3-3-3-(3)--3-3--|
|-9-9-9-9-9-9-9-9-|-12-12-12-12-12-12-12-12-|-4-4-4-4-4-4-(4)--4-4--|
|-9-9-9-9-9-9-9-9-|-12-12-12-12-12-12-12-12-|-4-4-4-4-4-4-(4)--4-4--|
|-7-7-7-7-7-7-7-7-|-10-10-10-10-10-10-10-10-|-0-2-2-0-2-2-(2)--2-2--|


  S E S S S E +S  S Q  S S   E E E E E E E  E    E  E  E  E  E  E  E  E
|-------------------2--2-2-|-7-7-7-7-7-7-7-10-|-10-10-10-10-10-10-10-10-|
|-----------4-(4)---2--2-2-|-7-7-7-7-7-7-7-10-|-10-10-10-10-10-10-10-10-|
|-3-3-3-3-3-4-(4)-3-3--3-3-|-8-8-8-8-8-8-8-11-|-11-11-11-11-11-11-11-11-|
|-4-4-4-4-4-4-(4)-4-4--4-4-|-9-9-9-9-9-9-9-12-|-12-12-12-12-12-12-12-12-|
|-4-4-4-4-4-4-(4)-4-4--4-4-|-9-9-9-9-9-9-9-12-|-12-12-12-12-12-12-12-12-|
|-0-2-2-0-2-2-(2)-2-2--2-2-|-7-7-7-7-7-7-7-10-|-10-10-10-10-10-10-10-10-|


                                                                  To Coda after repeat
         ~~~~~~          ~~~~~~~~~~~       ~~~~~~
    E Q  E +H       Q.   E +E  Q  E   E Q  E +H       Q.   E +H
||-------0-(0)----|-----------------|------0-(0)----|------5-(5)----||
||o------0-(0)----|-----------------|------0-(0)----|------5-(5)---o||
||-------3-(3)----|-2---------------|------3-(3)----|-2----2-(2)----||
||----4--4-(4)----|-2---------------|---4--4-(4)----|-2----2-(2)----||
||o-2-4--4-(4)----|-0----4-(4)-3--2-|-2-4--4-(4)----|-0----0-(0)---o||
||--0-2--2-(2)----|-----------------|-0-2--2-(2)----|---------------||


 Verse 2
Gtr I plays Rhy Fig 1 x4
  Gtr II,III
  W                    +H       +H            +W
|--------------------|----------------------|----------------------|
|--------------------|----------------------|----------------------|
|--------------------|----------------------|----------------------|
|-4------------------|-(4)------(4)---------|-(4)------------------|
|-4------------------|-(4)------(4)---------|-(4)------------------|
|-2------------------|-(2)------(2)---------|-(2)------------------|

  +H        Q    E  S  S    W
|------------------------|------------------------|
|------------------17-14-|-17---------------------|
|------------------------|------------------------|
|-(4)--------------------|------------------------|
|-(4)--------------------|------------------------|
|-(2)--------------------|------------------------|

                                 ~~~~~~~~~~~~                 ~~~~~~~~~~~~
   +W                      S  S  Q.      +H             S  S  Q.      +H
|-----------------------|-14-------------------------|----------------------------|
|-(17)------------------|-------17------(17)---------|-14----14------(14)---------|
|-----------------------|----14----------------------|-14-------------------------|
|-----------------------|----------------------------|----17----------------------|
|-----------------------|----------------------------|----------------------------|
|-----------------------|----------------------------|----------------------------|

           ~~~~~~~~~~~~~~~~~~~~~~~~~~~
   E       Q.      +H             +W
|------------------------------|------------------------|
|-14b14.5----------------------|------------------------|
|-14b14.5----------------------|------------------------|
|---------16------(16)---------|-(16)-------------------|
|------------------------------|------------------------|
|------------------------------|------------------------|

   E  E  E  E  E   E  E  E
|----------------------------|
|----------------------------|
|-------14-----------14------|
|-14-16----16-14--16----16---|
|----------------------------|
|----------------------------|

                                    ~~~~~~~~~~~~
   E  E  E  E  E   E  E  S  S    E  Q.      +H
|-----------------------------|--------------------------|
|-----------------------------|----17------(17)----------|
|-------14----16-----14-16s18-|-18-----------------------|
|-14-16----16-----16----------|--------------------------|
|-----------------------------|--------------------------|
|-----------------------------|--------------------------|

                                                        D.S. al Coda
   ~~~~~~~~~~~~~~~~~~~~~~~~~~~~~~~~~~~~~~~~~~~~~~~~~~
   W                     +W                      +W
|---------------------|-----------------------|-----------------------||
|-17------------------|-(17)------------------|-(17)------------------||
|---------------------|-----------------------|-----------------------||
|---------------------|-----------------------|-----------------------||
|---------------------|-----------------------|-----------------------||
|---------------------|-----------------------|-----------------------||

 Outro
Gtr I plays Rhy Fig 1
  &
  a a a W                    +W
|-x------------------------|----------------------|
|---x----------------------|----------------------|
|-----x--------------------|----------------------|
|-------4------------------|-(4)------------------|
|-------4------------------|-(4)------------------|
|-------2------------------|-(2)------------------|

  +W                      E  Q.      +Q     a      +E   +E
|----------------------|-16-17------(17)---16b17==(17)r(16)-----|
|----------------------|----------------------------------------|
|----------------------|----------------------------------------|
|-(4)------------------|----------------------------------------|
|-(4)------------------|----------------------------------------|
|-(2)------------------|----------------------------------------|


Gtr I plays Rhy Fig 1 (1st 2 bars)
   W                    Q   E     +E   E     Q       S     +S
|-14------------------|--------------------------------------------|
|---------------------|----16b17r(16)-16b17-16b17---16b17r(16)b17==|
|---------------------|--------------------------------------------|
|---------------------|--------------------------------------------|
|---------------------|--------------------------------------------|
|---------------------|--------------------------------------------|

   +E   Q.      +H             +Q    +H.
|---------------------------|---------------*|
|-(17)-14------(14)---------|-(14)--(14)----*|
|---------------------------|---------------*|
|---------------------------|---------------*|
|---------------------------|---------------*|
|---------------------------|---------------*|
|
|   Q      E E  +E  E E S S     Q    +H.
|---2------2-0--(0)-0-0-0-0-|---5----(5)----*|
|---2------2-0--(0)-0-0-0-0-|---5----(5)----*|
|---3------3-3--(3)-3-3-3-3-|---6----(6)----*|
|---4------4-4--(4)-4-4-4-4-|---7----(7)----*|
|---4------4-4--(4)-4-4-4-4-|---7----(7)----*|
|---2------2-2--(2)-2-2-2-2-|---5----(5)----*|

9.Got Me Wrong

Song: Got Me Wrong
Band: Alice In Chains

Tuning is down 1/2 step.

	Intro and Verse
      G#       E        F#

e---4--4----0--0-0---2--2------|
B---4--4----0--0-0---2--2------|
G---5--5----1--1-1---3--3------|
D---6--6----2--2-2---4--4------|
A---6--6----2--2-2---4--4------|
E---4--4----0--0-0---2--2------|

Chorus
   D     F            C#    A
e--------1---------1---------5----------5---|
B--7--7--1--1-1--1-1--6---6--5--5-5--5--5---|
G--7--7--2--2-2--2-2--6---6--6--6-6--6--6---|
D--7--7--3--3-3--3-3--6---6--7--7-7--7--7---|
A--5--5--3--3-3--3-3--4---4--7--7-7--7--7---|
E--------1--1-1--1-1---------5--5-5--5--5---|

  As of now           you have got me

      G#       E        F#

e---4--4----0--0-0---2--2------|
B---4--4----0--0-0---2--2------|
G---5--5----1--1-1---3--3------|
D---6--6----2--2-2---4--4------|
A---6--6----2--2-2---4--4------|
E---4--4----0--0-0---2--2------|
   wrong.

Bridge:

e--0--0--2--2----5--5--5-5--5--5--5--5-----|
B--0--0--2--2-2--5--5--5-5--5--5--5--5-----|
G--1--1--3--3-3--6--6--6-6--6--6--6--6-----|
D--2--2--4--4-4--7--7--7-7--7--7--7--7-----|
A--2--2--4--4-4--7--7--7-7--7--7--7--7-----|
E--0--0--2--2-2--5--5--5-5--5--5--5--5-----|


e--2--2--2--2--2--2--2--5--5--5--5-5--5--5---|
B--2--2--2--2--2--2--2--5--5--5--5-5--5--5---|
G--3--3--3--3--3--3--3--6--6--6--6-6--6--6---|
D--4--4--4--4--4--4--4--7--7--7--7-7--7--7---|
A--4--4--4--4--4--4--4--7--7--7--7-7--7--7---|
E--2--2--2--2--2--2--2--5--5--5--5-5--5--5---|
  And that don't last forever

10. No Excuses

This is the transcription of AiC's No Excuses. I used TAB MASTER to write it
down...

No Excuses  as recorded by AiC

--------------------------------------------------------------------
Tune down 1/2 step

 Chords

         Aadd2:          Badd4:       G6:        E:
 e              0               0         0         0
 B              0               0         0         0
 G              6               8         4         1
 D              7               9         5         2
 A              7               9         5         2
 E              5               7         3         0

1. verse
     sl.
Aadd2 / Badd4              Aadd2    Badd4                    Aadd2
               It's alright.           There comes a time.

     sl.
Aadd2 / Badd4              Aadd2    Badd4                    Aadd2
              Got no patience   to search for peace of mind.

     sl.
Aadd2 / Badd4              Aadd2    Badd4                    Aadd2
              Layin' low.              Want to take it slow.

     sl.
Aadd2 / Badd4              Aadd2    Badd4                    Aadd2
              No more hiding or disguising truths I sold.


2. verse

It's okay. Had a bad day.
Hands are bruised from breaking rocks all day.
Drained and blue, I bleed for you.
You think it's funny, well, you're drowning in it too.

3. verse

Yeah, it's fine. We'll walk down the line.
Leave our rain, a cold trade for warm sunshine.
You my friend, I will defend.
And if we change, well, I love you anyway.


  G6            Aadd2
  Chorus 1 & 2
           Ev'ry day___     it's some _ thing,        hits
e:------------------|------------------------------------|
B:---------------7--|--(7)-------------------------------|
G:---4-----4--------|------------4--7b(9)rb(7)p4------4--|
D:7-----7-----7-----|------------------------------7-----|
A:------------------|------------------------------------|
E:------------------|------------------------------------|


  Badd4                                   Aadd2

  _   me     all   so    cold.                        You
e:--------------------------|-------------------------------|
B:-----------------------7--|-(7)-------7h8p7p5-------------|
G:-(4)----4-----4-----------|--------------------7b(9)rb(7)-|
D:-----7-----7-----4--7-----|-------------------------------|
A:--------------------------|-------------------------------|
E:--------------------------|-------------------------------|


  G6                    Aadd2

  find    me   sittin'  by        myself,                      no exc
e:-------------------------|-----------------------------------0----|
B:-------------------------|-----------------------------------0----|
G:-(7)----4-----4-------6--|-(6)--4------------7b(9)rb(7)b(9)-------|
D:-----7-----7-----7-------|---------7------------------------------|
A:-------------------------|----------------------------------------|
E:-------------------------|----------------------------------------|
                            2nd time substitute Fill 1

  E                                    Aadd2

  uses,      then I  know.
e:-(0)------------0-----|------------------------|
B:-(0)------------0-----|------------------------|
G:-------------------4--|-(4)--------------------|
D:-------------------4--|-(4)--------------------|
A:----------------------|------------------------|
E:----------------------|------------------------|

  Fill 1

e:-------------------------------|-----|-----|-----|-----|------|
B:-------------------------------|-----|-----|-----|-----|------|
G:(6)--4-----7b(9)rb(7)p4--------|-----|-----|-----|-----|------|
D:--------7----------------7b(9)-|-(7)-|-(7)-|-(7)-|-(7)-|------|
A:-------------------------------|-----|-----|-----|-----|------|
E:-------------------------------|-----|-----|-----|-----|------|



  Guitar Solo  w/chords from chorus

e:--12p10-----10----------------|-------------------------|
B:--------12------12~~~~--------|-------------------------|
G:-----------------------9b(11)-|-(9)----9--7~~~~~~~~~~~~~|
D:------------------------------|-------------------------|
A:------------------------------|-------------------------|
E:------------------------------|-------------------------|

e:-----12p10-----10----------------|-------------------------------------|
B:-----------12-----12~~~~--7b(9)--|----------12----------12-------------|
G:~~~-----------------------7b(9)--|----9/11------9b(11)------9b(11)--7--|
D:---------------------------------|-------------------------------------|
A:---------------------------------|-------------------------------------|
E:---------------------------------|-------------------------------------|
                            grad.bend


e:------------------------------|----------------------------|
B:------10--7-------------------|---------------------9b(10)~|
G:(7)----9--6--9b(11)--9--7-----|---------------------9b(11)~|
D:---------------------------9--|--9~~~~~~~~~~~~~~-----------|
A:------------------------------|----------------------------|
E:------------------------------|----------------------------|
                                                      grad.bend


e:----------------------|--------------------------|
B:~~~~~~~~rb(9)-----7h9-|--------------------------|
G:~~~~~~~~rb(9)-----7h9-|--------------------------|
D:----------------------|--------------------------|
A:----------------------|--------------------------|
E:----------------------|--------------------------|

  3rd Chorus w/chords from chorus

e:----------------------------|
B:-------------------------19-|
G:------16------16~~~---------|
D:--19------19---------19-----|
A:----------------------------|
E:----------------------------|




e:-----------------------------------------------|---------------------------|
B:-(19)------------------------------------------|---------------------------|
G:-----------16~~~--18b(19)rb(18)p16-------16~~~~~~------16------16----------|
D:-------19---------------------------19---------|---19------19------19~~~~--|
A:-----------------------------------------------|---------------------------|
E:-----------------------------------------------|---------------------------|

e:------|---------------------------------------|
B:--19--|-(19)------19h20p19p17-----------------|
G:------|------------------------19b(21)rb(19)--|
D:------|---------------------------------------|
A:------|---------------------------------------|
E:------|---------------------------------------|

e:------------------------------------|
B:--------------------------------19--|
G:-(19)------16------16---------------|
D:-------19------19------19-----------|
A:------------------------------------|
E:------------------------------------|

e:--------------------------------------------|--------------------------|
B:-(19)---------------------------------------|--------------------------|
G:--------16--19b(21)rb(19)p16----------------|--------------------------|
D:------------------------------19---19b(21)~~|~~~~~~~~~~~~~~rb(19)----7-|
A:--------------------------------------------|--------------------------|
E:--------------------------------------------|--------------------------|

e:-----------------------|---------|---------|---------|-|
B:-----------------------|---------|---------|---------|-|
G:-----------------------|---------|---------|---------|-|
D:--9--7-----------------|---------|---------|---------|-|
A:--------9\7--5--7p(9)--|---(7)---|---(7)---|---(7)---|-|
E:-----------------------|---------|---------|---------|-|
                  grad. bend

11. I Stay Away

 tabbed this out on a normal acoustic using standard tuning (but it also sounds great
down 1/2 step)  The other tabs for this song were kinda weird sounding.  This is pretty
accurate

INTRO
e]-0h2-2-2-0---3-------------------------------|
B]-3---3-3-3---3-------------------------------|
G]-2---2-2-2---5-----0-----0-------------------|
D]---------0-0-----2-----0-------0-----0-----0-|
A]---------0-0---3-----2-------2-----0-------0-|
E]---------0-0---------------5-----5-----5p4-0-|

Then the verses
e]-0h2-2-2-0---0---0-0-3-----------------------------------|
B]-3---3-3-3---3---3-3-3-----------------------------------|
G]-2---2-2-2---0---0-0-0---------0-----0-------------------|
D]-0-------0-0-2---2-2-2-------2-----0-------0-----0-----0-|
A]-0-------0-0-3---3-3-3-0-2-3-----2-------4-----0-------0-|
E]-0-------0-0---------------------------5-----5-----5p4-0-|

 Yeah          hey           yeah         want to travel south this year
  I            wo-           -ont         won't prevent safe passage here

This part sounds kinda wierd acoustically, but this is the closest I could come
e]--------------------------|
B]--------------------------|
G]-0h3p0--------------------|
D]-------0h3p0--------------|
A]-------------0h3p0--------|
E]-------------------3p0-3--|b

  Why                    you act crazy
  Not                    an act maybe
  So                     close a lady
  Shif-                  -ty eyes shady

After this, you repeat the intro , then you do the next verse, identical to the first,
but the first part is done only once

Hey, yeah tears that soak a careless heart

Then the second part of the verse is done to these lyrics

Why you act frightened
I am enlightened
Your weakness builds me
So someday you'll see

Then the big powerful sounding chorus.  Play it this way. but listen to the song for the
rhythm

e]-2-2-2-2-2-2---2-2-2-2-2-3-3-3-3-3-2---2-2-2-2-2-------------2-|
B]-3-3-3-3-3-3---3-3-3-3-3-3-3-3-3-3-3---3-3-3-3-3-3---3-3-3-5-3-|
G]-2-2-2-2-2-2---2-2-2-2-2-2-2-2-2-2-2---2-2-2-2-2-3---3-3-3-5-2-|
D]-0-0-0-0-0-0---0-0-0-0-0-0-0-0-0-0-0---0-0-0-0-0-3---3-3-3-5-0-|
A]-------------------------------------------------1---1-1-1-3-0-|
E]-------------------------------------------------------------0-|
  I                        stay              away

I'm not exactly sure on the solo, but the rest is there.  If you have the solo,
would appreciate it

12. What The Hell Have I

tune down 1/2 step
intro+verse
-----------------------------------------------------|
-------------------------------------------2---------|
2---------------------2---2----------------3---------|
--0-----------2-----3-------0----------2---0---------|
---4--0-1-0--------3---------4--0-1-0----------------|
-----3----------1--------------3---------------------|

chorus
-------------------------------------------------------|
------------------------3--3----------------------3----|
------------------------2--2--2-------------------2----|
------------------------0--0--2-------------------0----|
----2--------2----3--2--------0---2-----2--3-2-0-------|
----0-----1--0--------------------0--1--0--------------|

solo
------------------------------------------------------|
------------------------------------------------------|
22----------------------------------------------------|
--21-----19------17-----14-----12--12/10-10-10/7-7/9--|
----19/17---17/15--15/14--14/12----12/10----10/7-7----|
------------------------------------------------------|

outro
----------------------------------1--------------------|
10-----8-----------10-------------1--------------------|
--9--------9------------9---------2--------------------|
----7---------7------------7------3--------------------|
-------------------------------------------------------|
-------------------------------------------------------|

13. Grind

Eb Ab Db Gb Bb Eb) - 'Jerry Cantrell - Rhythm w/dist'
Gtr III, IV (Eb Ab Db Gb Bb Eb) - 'Jerry Cantrell - Lead w/dist'

Intro
  Q=89
 4/4
  Gtr I
  W                 +W                  E Q    E  +Q    +S   +E.
|-----------------|-------------------|-----------------------------|
|-----------------|-------------------|-----------------------------|
|-5---------------|-(5)---------------|-4s5---[4]-(4)---(4)-([4])---|
|-----------------|-------------------|-----------------------------|
|-3---------------|-(3)---------------|-2s3---[2]-(2)---(2)--(2)----|
|-----------------|-------------------|-----------------------------|
|
| Gtr II
| PM--|   PM--|      PM---|   PM--|     PM--|      PM---|
| E E E E E E E E    E  E E E E E E E   E E E  E   E  E  E        E
|-----------------|-------------------|-----------------------------|
|-----------------|-------------------|-----------------------------|
|-----------------|-------------------|-----------------------------|
|-----------------|-------------------|-----------------------------|
|-3-3-3-6-3-3-3-6-|--3--3-3-6-3-3-3-6-|-3-3-3--6---3--3--3--------6-|
|-1-1-1-4-1-1-1-4-|--1--1-1-4-1-1-1-4-|-1-1-1--4---1--1--1--------4-|
|-Rhy Fig 1

        T
  +S   +E.       +Q    +Q.      E
|---------------------------------------|
|---------------------------------------|
|-(4)-([4])------(4)---(4)--------------|
|---------------------------------------|
|-(2)--(2(21))---(2)---(2)-----[2]b3====|
|---------------------------------------|
|
|  PM------------|      PM---|
|  E           E  E  E  E  E E  E
|---------------------------------------|
|---------------------------------------|
|---------------------------------------|
|---------------------------------------|
|--3-----------3--3--6--3--3-3--6-------|
|--1-----------1--1--4--1--1-1--4-------|
                          end Rhy Fig 1-|

w/Rhy Fig 1
                      ~~~~~~~~~~~~~~~~~
  +Q     +E    +E    +H           +H..             E
|-------------------------------|-----------------------|
|-------------------------------|-----------------------|
|-------------------------------|------------------3b5==|
|-------------------------------|-----------------------|
|-(2)---([2])-([2])-([2])-------|-(2)r------------------|
|-------------------------------|-----------------------|


                                                         \1.5/  \1.5/    \1.5_____
                     ~~~~~~~~~~~
            |-3-|
  +Q    +E  S S S S  E.    +E.    S   S S S S S S S +S   E      Q        E
|-----------------------------------|--------------------------------------------|
|-----------------------------------|--------------------------------------------|
|-(3)r==(3)-1h3p1-------------------|--------------------------------------------|
|-----------------3-[1]---([1])---1-|--------------------------------------------|
|-----------------------------------|-3-2-1-0-1-2-3-(3)S17-----18-------18-------|
|-----------------------------------|--------------------------------------------|


         |
                                           ~~~~
   +E   +E   S  S  S  S      +H           +W
|--------------------------------------|--------------------|
|--------------------------------------|--------------------|
|-----------20-------------------------|--------------------|
|--------------18-19-------------------|--------------------|
|-(18)-(18)----------17b18==(17)-------|-(17)---------------|
|--------------------------------------|--------------------|
|
|   PM------|                 PM---|       PM---|   PM--|
|   E    E   E     E          E  E E E     E  E E E E E E E
|------------------4-------------------|----------4---------|
|------------------4-----------------4-|----------4-------4-|
|------------------------------------4-|------------------4-|
|--------------------------------------|--------------------|
|---3----3---3----------------3--3-3---|---3--3-3---3-3-3---|
|---1----1---1----------------1--1-1---|---1--1-1---1-1-1---|
|-Rhy Fig 1A

                                         ~~~~
   +Q      S  S  S  S      +H           +W
|------------------------------------|---------------------||
|------------------------------------|---------------------||
|---------20-------------------------|---------------------||
|------------18-19-------------------|---------------------||
|-(17)r------------17b18==(17)-------|-(17)----------------||
|------------------------------------|---------------------||
|
|   PM----|                 PM---|       PM---|   PM--|
|   E   E  E     E          E  E E E     E  E E E E E E E
|----------------4-------------------|----------4----------||
|----------------4-----------------4-|----------4-------4--||
|----------------------------------4-|------------------4--||
|------------------------------------|---------------------||
|---3---3--3----------------3--3-3---|---3--3-3---3-3-3----||
|---1---1--1----------------1--1-1---|---1--1-1---1-1-1----||
                                            end Rhy Fig 1A-|


 Verses 1 + 2
w/Rhy Fig 1
         ~~~~
    a   +W                  W                 W                 W
|-------------------------|-----------------|-----------------|-----------------|
|-------------------------|-----------------|-----------------|-----------------|
|-------------------------|-----------------|-----------------|-----------------|
|-------------------------|-----------------|-----------------|-----------------|
|-(17)r(17)---------------|-----------------|-----------------|-----------------|
|-------------------------|-----------------|-----------------|-----------------|


w/Rhy Fig 1A
                                       ~~~~
    Q    S  S  S  S      +H           +W
||---------------------------------|--------------------|
||o--------------------------------|--------------------|
||------20-------------------------|--------------------|
||---------18-19-------------------|--------------------|
||o--------------17b18==(17)-------|-(17)---------------|
||---------------------------------|--------------------|


                                       ~~~~
   +Q      S  S  S  S  H              +H         +H
|----------------------------------|-----------------------|
|----------------------------------|-----------------------|
|---------20-----------------------|-----------------------|
|------------18-19-----------------|-----------------------|
|-(17)r------------17-17b18========|=(17)-------(17)-------|
|----------------------------------|-----------------------|

w/Rhy Fig 1
               ~~~~
   +H         +H          W                 W                 W
|-----------------------|-----------------|-----------------|------------------|
|-----------------------|-----------------|-----------------|------------------|
|-----------------------|-----------------|-----------------|------------------|
|-----------------------|-----------------|-----------------|------------------|
|-(17)r======(17)-------|-----------------|-----------------|------------------|
|-----------------------|-----------------|-----------------|------------------|

w/Rhy Fig 1A
                                     ~~~~
  Q    S  S  S  S      +H           +W
|--------------------------------|--------------------|
|--------------------------------|--------------------|
|-----20-------------------------|--------------------|
|--------18-19-------------------|--------------------|
|--------------17b18==(17)-------|-(17)---------------|
|--------------------------------|--------------------|
|-Riff A


                                       ~~~~
   +Q      S  S  S  S  H              +H         +H
|----------------------------------|------------------------||
|----------------------------------|------------------------||
|---------20-----------------------|------------------------||
|------------18-19-----------------|------------------------||
|-(17)r------------17-17b18========|=(17)-------(17)--------||
|----------------------------------|------------------------||
                                                 end Riff A-|


 Chorus
  Gtr III
                   ~~~~~~~~
  E   Q  E +E  Q   E   +Q.     E  E  E E E
|--------------------|---------------------|
|-3b5-3--------------|---------------------|
|--------5-(5)-4-----|---------------------|
|------------------5-|-(5)-----3--3--5-3-5-|
|--------------------|---------------------|
|--------------------|---------------------|
|-Riff B
|
| Gtr II
| E   Q  E +E  E E E   +E  E E E +E  E E E
|--------------------|---------------------|
|--------------------|---------------------|
|--------------------|---------------------|
|-5------------------|---------------------|
|-3---5--5-(5)-5-5-5-|-(5)-5-5-5-(5)-5-5-5-|
|-----3--3-(3)-3-3-3-|-(3)-3-3-3-(3)-3-3-3-|
|-Rhy Fig 2

                   ~~~~~~~~
  E   Q  E +E  Q   E   +Q.     E E E Q
|--------------------|---------------------|
|-3b5-3--------------|---------------------|
|--------5-(5)-4-----|---------------------|
|------------------5-|-(5)-----3-3-5-------|
|--------------------|---------------3-----|
|--------------------|---------------------|
|                               end Riff B-|
|
| E   Q  E +E  E E E   +E  E E E E E E   E
|--------------------|---------------------|
|--------------------|---------------------|
|--------------------|---------------------|
|-----5--------------|---------------------|
|-----3--5-(5)-5-5-5-|-(5)-5-5-5-----------|
|-3b4----3-(3)-3-3-3-|-(3)-3-3-3-1-3-3b4-1-|
                             end Rhy Fig 2-|

                      1.
                   ~~~~~~~~
  E   Q  E +E  Q   E   +Q.     E  E  E E E
|--------------------|---------------------|
|-3b5-3--------------|---------------------|
|--------5-(5)-4-----|---------------------|
|------------------5-|-(5)-----3--3--5-3-5-|
|--------------------|---------------------|
|--------------------|---------------------|
|
| E   Q  E +E  E E E   +E  E E E +E  E E E
|--------------------|---------------------|
|--------------------|---------------------|
|--------------------|---------------------|
|-5------------------|---------------------|
|-3---5--5-(5)-5-5-5-|-(5)-5-5-5-(5)-5-5-5-|
|-----3--3-(3)-3-3-3-|-(3)-3-3-3-(3)-3-3-3-|


                   ~~~~~~~~
  E   Q  E +E  E E E   +H        Q    +E  +E
|--------------------|------------------------||
|-3b5-3--------------|------------------------||
|--------5-(5)-4-4---|------------------------||
|------------------5-|-(5)-------3b5==(3)r(3)-||
|--------------------|------------------------||
|--------------------|------------------------||
|
| E   Q  E +E  E E E   +E  E E E Q.       +E
|--------------------|------------------------||
|--------------------|------------------------||
|--------------------|------------------------||
|-----5--------------|------------------------||
|-----3--5-(5)-5-5-5-|-(5)-5-5-5--------------||
|-3b4----3-(3)-3-3-3-|-(3)-3-3-3-1b3r=====(1)-||


  Gtr III
w/Rhy Fig 1A
  e E Q   H          W                   W
|-----------------|-------------------|---------------------------------|
|-----------------|-------------------|---------------------------------|
|-----------------|-------------------|---------------------------------|
|-3---------------|-------------------|---------------------------------|
|-----------------|-------------------|---------------------------------|
|-----------------|-------------------|---------------------------------|
|
| Gtr I
| W                 +W                   E   Q     E  +Q    +S   +E.
|-----------------|-------------------|---------------------------------|
|-----------------|-------------------|---------------------------------|
|-5---------------|-(5)---------------|-[4]s[5]---[4]-(4)---(4)-([4])---|
|-----------------|-------------------|---------------------------------|
|-3---------------|-(3)---------------|-[2]s[3]---[2]-(2)---(2)--(2)----|
|-----------------|-------------------|---------------------------------|


        T
  +S   +E.       +Q    +Q.      E
|--------------------------------------||
|--------------------------------------||
|-(4)-([4])------(4)---(4)-------------||
|--------------------------------------||
|-(2)--(2(21))---(2)---(2)-----[2]b3===||
|--------------------------------------||


 Verse 2
w/Rhy Fig 1
  Gtr I
   ~~~~~~~~~~~~~~~~~~~~~~~~~~~~~~~~~~~~~~
  +W                  +W
|-------------------|-------------------|
|-------------------|-------------------|
|-------------------|-------------------|
|-------------------|-------------------|
|-(2)---------------|-(2)r==============|
|-------------------|-------------------|
|-Fill 1

 ~~~~~~~~~~~~~~~~~~~~~~~~~
  +W                  +Q    Q   H
|-------------------|---------------------||
|-------------------|--------------------o||
|-------------------|---------------------||
|-------------------|---------------------||
|-(2)---------------|-(2)----------------o||
|-------------------|---------------------||
                               end Fill 1-|

  2.
w/Rhy Fig 2 (last 3 bars)
  Gtr IV
                  ~
                                            |---6---|  |----6-----| |----6----|
   Q    E E  E  E Q     S    +S   S    +S   S S S E S  S  S S S S S S S S S S S
|---------------------|---------------------------------------------------------|
|---------------------|---------------------------------------------------------|
|---------------------|-3b4==(3)r-3b4==(3)r-2h3p2------2h=3p2-3p2h3h5p2h3p2---2h|
|---------3--3h=5-3---|---------------------------5-5-----------------------5---|
|---------------------|---------------------------------------------------------|
|---------------------|---------------------------------------------------------|
|
| Gtr III
|  ~~~                                                                    ~~~~~~~
|  Q.     E  E  E E E   E         Q               E   +E      Q           E
|---------------------|---------------------------------------------------------|
|---------------------|-3b5-------3---------------------------------------------|
|---------------------|---------------------------5---(5)-----4-----------------|
|-(5)-----3--3--5-3-5-|---------------------------------------------------5-----|
|---------------------|---------------------------------------------------------|
|---------------------|---------------------------------------------------------|


   |----6-----| |----6----| |-----6-----|
   S  S S S S S S S S S S S S S T T S S S T   T S S    S
|-----------------------------------------------------------||
|-----------------------------------------------------------||
|--3p=2---2h3p2---2h3p2---2h3p2-2h3h5p3p2-------2-----------||
|-------5-------5-------5-----------------5p==0---5----3----||
|-----------------------------------------------------------||
|-----------------------------------------------------------||
|
|~~~~~
| +Q.                 E     E       E     E       E
|-----------------------------------------------------------||
|-----------------------------------------------------------||
|-----------------------------------------------------------||
|-(5)-----------------3-----3-------5-----3-------3b5=======||
|-----------------------------------------------------------||
|-----------------------------------------------------------||


 Guitar Solo
w/Rhy Fig 2
        |-3-|                               |-3-| |-3-|
   S  S S S S T T T T T T T T  T  T T T T T T T T S S S S S
|-----------------------------------------------------------|
|-----------------------------------------------------------|
|-----2-------2h3h5p3p2-2h3h5p=3p=2-2h3h5p3p2-2h3p2h3p2---3-|
|--0----0h3h5-------------------------------------------5---|
|-----------------------------------------------------------|
|-----------------------------------------------------------|
|
| +H                          +H
|-----------------------------------------------------------|
|-----------------------------------------------------------|
|-----------------------------------------------------------|
|-(3)-------------------------(3)---------------------------|
|-----------------------------------------------------------|
|-----------------------------------------------------------|


                                               ~~~
   |-3--|                      |----6-----|
   S  S S T T T T  T  T S S S  S  S S S S S E +E
|---------------------------------------------------|
|---------------------------------------------------|
|--2----------2h3-------2h3s5p=3h=5p3h5p3-5s7-(7)---|
|-----5p0-3p0------5p=0-----------------------------|
|---------------------------------------------------|
|---------------------------------------------------|
|
|                  ~~~
| +Q              +H.
|---------------------------------------------------|
|---------------------------------------------------|
|---------------------------------------------------|
|-(3)-------------(3)-------------------------------|
|---------------------------------------------------|
|---------------------------------------------------|


   |--3--|
   T   T T S  T T  T  T  S T  S.    T  T  T   T  T  T  T  T  T  T  T  S.     +S    S
|---------------------------------------------------------------------------------12-|
|------------------------------------------------------------------------------------|
|----------------------------10--------------------10----------10----12b14==(12)r----|
|--7---7-7-7s12p0-12-12-12p0-------12-12-12--12-12----10-12-12----10-----------------|
|------------------------------------------------------------------------------------|
|------------------------------------------------------------------------------------|
|
|  ~~~~
| +W
|------------------------------------------------------------------------------------|
|------------------------------------------------------------------------------------|
|------------------------------------------------------------------------------------|
|-(3)r-------------------------------------------------------------------------------|
|------------------------------------------------------------------------------------|
|------------------------------------------------------------------------------------|

                                               ~~~~
                             |---3----|
   S    E.     +E    E      +S   +S   S  S  S  Q
|----------------------------------------------------|
|-12--[10]---([10])----------------------------------|
|-------------------12b14==(12)r(12)p10----10--------|
|---------------------------------------12----12-----|
|----------------------------------------------------|
|----------------------------------------------------|


w/Rhy Fig 2 first 3 bars
  Gtr IV
    ~~~~
   +S  S S S Q   +T  T T T T S T T S T T S T
|--------------------------------------------|
|--------------------------------------------|
|----------2---------0h2-------0-2p0---0-5---|
|-(12)-9S4---3---(3)-----3-5p3-------0-----3-|
|--------------------------------------------|
|--------------------------------------------|


  +T  T S T T S E S S  S  S S S T T T S   T S
|----------------------------------------------|
|----------------------------------------------|
|-----------0-5--------5p=0-0-2-------5---0----|
|-(3)h5-3-3-----3-3-3-----------5p3-3-------3--|
|----------------------------------------------|
|----------------------------------------------|


                                   \1___/
                        ~~~~
  S   S S S S    +E.   +Q..       +T   +T
|------------------------------------------|
|------------------------------------------|
|-2p==0-5-5-5b7==(5)---(5)--------(5)r-(5)-|
|------------------------------------------|
|------------------------------------------|
|------------------------------------------|


   /1\  \1     /1\ \2___/
  +E   +Q    E E   a   +E  +E.     +S
|--------------------------------------||
|--------------------------------------||
|-(5)--(5)---------4---(4)-(4)-----(4)-||
|--------------------------------------||
|------------0-0-----------------------||
|--------------------------------------||
|
| +E    E  E E Q.              +E
|--------------------------------------||
|--------------------------------------||
|--------------------------------------||
|--------------------------------------||
|-(5)---5--5-5-------------------------||
|-(3)---3--3-3-1b3r============(1)-----||


w/Rhy Fig 1A
   \1
  +E.   +S  E E H          W
|-----------------------|-------------------|
|-----------------------|-------------------|
|-(4)---(4)-x-----------|-------------------|
|-----------x-----------|-------------------|
|-----------x-----------|-------------------|
|-----------x-----------|-------------------|
|
| Gtr I
|  W                      +W
|-----------------------|-------------------|
|-----------------------|-------------------|
|--5--------------------|-(5)---------------|
|-----------------------|-------------------|
|--3--------------------|-(3)---------------|
|-----------------------|-------------------|

  E Q    S   S  +Q     +S    +E.      +H..              E
|-----------------------------------|----------------------||
|-----------------------------------|----------------------||
|-4-5-------------------------------|----------------------||
|-------[2]-------------------------|----------------------||
|-2-3-------[2]-(2)---([2])-([2])---|-(2)--------------[2]-||
|-----------------------------------|----------------------||


 Verse 3
Rhy Fig 1 + Fill 1

Rhy Fig 1A + Riff A


   Chorus
Rhy Fig 2 + Riff B x2


w/Rhy Fig 2 + Riff B x1.5
  Gtr IV
                          ~~~~~~~~~
   E     Q   E  +E   Q    E    +Q.      E  E   E  E  E
|---------------------------|--------------------------|
|-15b17-15------------------|--------------------------|
|-----------17-(17)-16------|--------------------------|
|------------------------17-|-(17)-----15-15--17-15-17-|
|---------------------------|--------------------------|
|---------------------------|--------------------------|


                          ~~~~~~~~~
   E     Q   E  +E   Q    E    +Q.      E  E  E  Q
|---------------------------|--------------------------|
|-15b17-15------------------|--------------------------|
|-----------17-(17)-16------|--------------------------|
|------------------------17-|-(17)-----15-15-17--------|
|---------------------------|-------------------15-----|
|---------------------------|--------------------------|

                          ~~~~~~~~~
   E     Q   E  +E   Q    E    +Q.      E  E   E  E  E
|---------------------------|--------------------------|
|-15b17-15------------------|--------------------------|
|-----------17-(17)-16------|--------------------------|
|------------------------17-|-(17)-----15-15--17-15-17-|
|---------------------------|--------------------------|
|---------------------------|--------------------------|


                          ~~~~~~~~~
   E     Q   E  +E   Q    E    +H         Q       +Q
|---------------------------|-----------------------------||
|-15b17-15------------------|-----------------------------||
|-----------17-(17)-16------|-----------------------------||
|------------------------17-|-(17)-------15b17===(15)r====||
|---------------------------|-----------------------------||
|---------------------------|-----------------------------||
|
|                         ~~~~~~~~~
|  E     Q   E  +E   Q    E    +H         Q       +Q
|---------------------------|-----------------------------||
|--3b5---3------------------|-----------------------------||
|------------5--(5)--4------|-----------------------------||
|-------------------------5-|--(5)--------3b5=====(3)r====||
|---------------------------|-----------------------------||
|---------------------------|-----------------------------||
|
|  E     Q   E  +E   E E  E    +E  E E E  Q.          +E
|---------------------------|-----------------------------||
|---------------------------|-----------------------------||
|---------------------------|-----------------------------||
|--------5------------------|-----------------------------||
|--------3---5--(5)--5-5--5-|--(5)-5-5--------------------||
|--3b4-------3--(3)--3-3--3-|--(3)-3-3-0--1b4r========(1)-||


 Outro
Rhy Fig 1A + Riff A

14. Again

Tuning: D#
D# G# C# F# A# D#


Main Riff
=========
1:----------------------------------|
2:----------------------------------|
3:---6-----------7------------------|
4:---6-----------7------------------|
5:-6---6-6-6-6-6---5-5-5-5-5-5-5-66-|
6:-4---4-4-4-4-4---3-3-3-3-3-3-3-44-|


Chorus
======
1:---------------------------------|
2:---------------------------------|
3:---------------------------------|
4:-6-------------5---5-5-5-5-5-5-5-|
5:-6---4---5-4---5---5-5-5-5-5-5-5-|
6:-4-4---4-----4-3---3-3-3-3-3-3-3-|

1:---------------------------------|
2:---------------------------------|
3:---------------------------------|
4:-6-------------7---7-7-7-7-7-7-7-|
5:-6---4---5-4---7---7-7-7-7-7-7-7-|
6:-4-4---4-----4-5---5-5-5-5-5-5-5-|


Interlude
=========
1:---------------------|
2:---------------------|
3:-----5---------------|
4:-6-6-6---------5-7-7-|
5:-6-4-6---------5-5-5-|
6:-4-4---<4>-<3>-3-5-5-|

Lead:

1:-------------------------------------|
2:-7--b9-9-9-9-9-9-9-9-9b7-------------|
3:---------------------------6--b7-----|
4:-------------------------------------|
5:-------------------------------------|
6:-------------------------------------|

15. Would?

Song: Would?
Band: Alice in Chains


Down half a step

Intro
e--------------------------------------------------|
B----------------------------------------------5---|
G--4h6--4h6---4--4--------4h6--4h6--4--4-----4-----|
D--4----4-----4--5--------4----4----4--5---5-------|
A--------------------------------------------------|
E--------------------------------------------------|

Verse
e--------------------------------------------------|
B--------------------------------------------------|
G--------------------------------------------------|
D----------------------------------------------2---|
A--2h4--2h4---2--2--------2h4--2h4--2--2-----2-----|
E--2----2-----2--3--------2----2----2--3---3-------|

Chorus
e------------------------3--3-------3---3---3--3---3---|
B------------------------3--3-------3---3---3--3---3---|
G-4---4--4---4--4---2----0--0-------0---0---0--0---0---|
D-4---4--4---4--4---2----0--0-------0---0---0--0---0---|
A-2---2--2---2--2---0----2--2-------2---X---2--2---2---|
E------------------------3--3-0--2--3---3---3--3---3---|

  Into        the flood again     Same old trip it was
       back             then
  So I made a big        mistake       try to see it
  once   my                   way.

Outro
  D       D7      G#                     G
e----------------------------------------------------------------|
B-3--3----6--6-6-----4--4------------------------3---------------|
G-2--2-X--5--5-5--5--5--5--5--------5---------4--4--4--4--4------|
D-0--0-X--4--4-4--6--6--6--6-6-6-6--6----5--5-5--5--5--5--5--5---|
A-0--0-X--5--5-5--6--6--6--6-6-6-6--6----5--5-5--5--5--5--5--5---|
E-----------------4--4--4--4-4-4-4--4-0--3--3-3--3--3--3--3--3---|
          Am I  Wrong                    Have I run too    far
  E
------------------------------|
------------------------------|
--1--1--1-1--------------1----|
--2--2--2-2--2--2--2--2--2----|
--2--2--2-2--2--2--2--2--2----|
--0--0--0-0--0--0--0--0--0----|
   to get home


D7 D7 D7   D7    D7
If I would could you?

Please Rate if you can
comments
print report bad tab
2 comments total.
0 reply
St.Angarrr wrote on August 25 2009, 04:59 am

Good tab.IM SURPRISED NO ONE HAS COMMENTED lol.Good job.All i got a problem with is Man in the box.I prefer it differently but hey its up to anyone to play it the way they want to i guess. 4 stars!

0 reply
wheatking wrote on October 15 2010, 05:29 pm

Awesome bro.

I want to post or [tab]
guest
You may want to rate the tab now too:
select rating
Please do not post tabs as comments. Select "correction" instead!