Oops, an error
Loading. Please wait.

Over Now Tab

ver3
ver3

Whole song

Interactive

More versions @911Tabs.com
5,581 views 6 this week
5 commentsread comments
1 2 3 4 5
worth learning
x 3
Autoscroll
+/-
esc
set tempo
stop
Contributor
Difficulty
intermediate
Hey! There's an official Ultimate Guitar app which is ideal
for learning songs when you're away from computer. Get the app
WARNING: You are trying to view
                                    content from Ultimate-Guitar.com
                                    in an unauthorized application,
                                    which is prohibited.

                                    Please use an official Ultimate
                                    Guitar Tabs application for iPhone,
                                    iPad or Android to access legitimate
                                    chords, guitar, bass, and drum tabs
                                    from Ultimate-Guitar.com database.

                                    Type "ultimate guitar tabs" in Apple
                                    App Store's or Android Market's
                                    search to find the application.
Band - Alice In Chains
Song - Over Now

Gtr I (Db Ab Db F Ab Db) - 'Jerry Cantrell - Rhythm Steel String Acoustic'
Gtr II (Db Ab Db F Ab Db) - 'Jerry Cantrell - Rhythm dist electric'
Gtr III (Eb Ab Db Gb Bb Eb) - 'Jerry Cantrell - Lead dist electric'

Intro
  Q=106
 4/4
  Gtrs I, II
             PM|               PM|     PM  PM
  W          E E E E E E E E   E E E E E E E E
|----------|-----7-6-4-------|-----------------|
|----------|-----4-4-4-7-6-4-|-----------------|
|----------|-----4-4-4-4-4-4-|-----5-4---5---4-|
|----------|-----4-4-4-4-4-4-|-----4-4---4---4-|
|----------|-----4-4-4-4-4-4-|-----6-4---6---4-|
|----------|-4-4-4-4-4-4-4-4-|-4-4-4-4-4-4-4-4-|
           |-Rhy Fig 1

  PM|               PM|     PM  PM
  E E E E E E E E   E E E E E E E E
|-----3-2-0-------|-----------------|
|-----0-0-0-3-2-0-|-----------------|
|-----0-0-0-0-0-0-|-----1-0---1---0-|
|-----0-0-0-0-0-0-|-----0-0---0---0-|
|-----0-0-0-0-0-0-|-----2-0---2---0-|
|-0-0-0-0-0-0-0-0-|-0-0-0-0-0-0-0-0-|
                      end Rhy Fig 1-|

w/Rhy Fig 1
  Gtr III
   W                 +H.           +E  S  S
|------------------|------------------------|
|------------------|------------------------|
|------------------|------------------------|
|-/4---------------|-(4)-----------(4)-4s12-|
|------------------|------------------------|
|-/2---------------|-(2)-----------(2)-2s10-|

                       ~~~~~~~~
   +H         +E   E E E   +W
|------------------------|--------------------||
|------------------------|--------------------||
|------------------------|--------------------||
|-(12)-------(12)-11s9-7-|-(7)----------------||
|------------------------|--------------------||
|-(10)-------(10)--9s7-5-|-(5)----------------||


   Verse
    $
    Gtrs I, II
    PM|               PM|     PM  PM    PM|               PM|     PM  PM
    E E E E E E E E   E E E E E E E E   E E E E E E E E   E E E E E E E E
||------7-6-4-------|-----------------|-----7-6-4-------|------------------|
||o-----4-4-4-7-6-4-|-----------------|-----4-4-4-7-6-4-|------------------|
||------4-4-4-4-4-4-|-----5-4---5---4-|-----4-4-4-4-4-4-|-----5-4---5---4--|
||------4-4-4-4-4-4-|-----4-4---4---4-|-----4-4-4-4-4-4-|-----4-4---4---4--|
||o-----4-4-4-4-4-4-|-----6-4---6---4-|-----4-4-4-4-4-4-|-----6-4---6---4--|
||--4-4-4-4-4-4-4-4-|-4-4-4-4-4-4-4-4-|-4-4-4-4-4-4-4-4-|-4-4-4-4-4-4-4-4--|
 |-Rhy Fig 2

  PM|               PM|     PM  PM    PM|               PM|     PM  PM
  E E E E E E E E   E E E E E E E E   E E E E E E E E   E E E E E E E E
|-----3-2-0-------|-----------------|-----7-6-4-------|-----------------|
|-----0-0-0-3-2-0-|-----------------|-----4-4-4-7-6-4-|-----------------|
|-----0-0-0-0-0-0-|-----1-0---1---0-|-----4-4-4-4-4-4-|-----5-4---5---4-|
|-----0-0-0-0-0-0-|-----0-0---0---0-|-----4-4-4-4-4-4-|-----4-4---4---4-|
|-----0-0-0-0-0-0-|-----2-0---2---0-|-----4-4-4-4-4-4-|-----6-4---6---4-|
|-0-0-0-0-0-0-0-0-|-0-0-0-0-0-0-0-0-|-4-4-4-4-4-4-4-4-|-4-4-4-4-4-4-4-4-|
                                                          end Rhy Fig 2-|

Rhy Fig 2


 Chorus
  Gtr III
   W                     +H.              +E  E   +E  E Q   E E E  E
|----------------------|------------------------|--------------------|
|----------------------|------------------------|--------------------|
|----------------------|------------------------|--------------------|
|-/7-------------------|-(7)--------------(7)-6-|-(6)-7-6---6-7-8--9-|
|----------------------|------------------------|--------------------|
|----------------------|------------------------|--------------------|
|
| Gtrs I, II
|  PM|    PM      PM      PM-|    PM       PM      PM-|   PM    PM
|  E E  E E  E  E E  E    E  E  E E  E  E  E  E    E  E E E E E E  E
|----------------------|------------------------|--------------------|
|------10---10-10---10-|-------10---10-10-----9-|-------9---9-9---12-|
|-------7----7--7----7-|--------7----7--7-----6-|-------6---6-6----9-|
|-------7----7--7----7-|--------7----7--7-----6-|-------6---6-6----9-|
|-------7----7--7----7-|--------7----7--7-----6-|-------6---6-6----9-|
|--7-7--7-7--7--7-7--7-|--7--7--7-7--7--7--7--6-|--6--6-6-6-6-6-6--9-|


  +W                      W                     W
|-----------------------|---------------------|------------------|
|-----------------------|---------------------|------------------|
|-----------------------|---------------------|------------------|
|-(9)-------------------|---------------------|------------------|
|-----------------------|---------------------|------------------|
|-----------------------|---------------------|------------------|
|
|  PM-|    PM      PM     PM|    PM      PM
|  E  E  E E  E  E E  E   E E  E E  E  E E  E
|-----------------------|---------------------|
|-------12---12-12---12-|-----12---12-12---12-|
|--------9----9--9----9-|------9----9--9----9-| w/Rhy Fig 1 x2
|--------9----9--9----9-|------9----9--9----9-|
|--------9----9--9----9-|------9----9--9----9-|
|--9--9--9-9--9--9-9--9-|-9-9--9-9--9--9-9--9-|


           To Coda
  W                  E      +E   +E   a      +E   +H
|-----------------|-----------------------------------------|
|-----------------|-----------------------------------------|
|-----------------|------------------11b13==(11)-(11)-------|
|-----------------|-11b12==(11)r(11)------------------------|
|-----------------|-----------------------------------------|
|-----------------|-----------------------------------------|


 1.
   +H         +E   +E  E  E    +W
|---------------------------|---------------------|
|---------------------------|---------------------|
|-(11)-------(11)r(11)-9----|---------------------|
|------------------------11-|-(11)----------------|
|---------------------------|---------------------|
|---------------------------|---------------------|


    ~~~~
   +W                  E     +E  +E  a     +E  +H
|--------------------|-----------------------------------|
|--------------------|-----------------------------------|
|--------------------|-----------------------------------|
|-(11)---------------|-----------------------------------|
|--------------------|---------------9b11==(9)-(9)-------|
|--------------------|-9b10==(9)r(9)---------------------|


                            2.
  +H        +Q    +Q          H              +E   +E  E  a      +E
|------------------------||-----------------------------------------|
|-----------------------o||-----------------------------12b14==(12)-|
|------------------------||-(11)pb13========(11)r(11)-9-------------|
|------------------------||-----------------------------------------|
|-(9)-------(9)r==(9)---o||-----------------------------------------|
|------------------------||-----------------------------------------|


   W                  +W                   W                 W
|------------------|---------------------|-----------------|-----------------||
|-12---------------|-(12)r---------------|-----------------|-----------------||
|------------------|---------------------|-----------------|-----------------||
|------------------|---------------------|-----------------|-----------------||
|------------------|---------------------|-----------------|-----------------||
|------------------|---------------------|-----------------|-----------------||
|
|  PM|                 PM--|     PM  PM    PM|               PM|     PM  PM
|  E E E E E E E E     E   E E E E E E E   E E E E E E E E   E E E E E E E E
|------3-2-0-------|---------------------|-----7-6-4-------|-----------------||
|------0-0-0-3-2-0-|---------------------|-----4-4-4-7-6-4-|-----------------||
|------0-0-0-0-0-0-|---------1-0---1---0-|-----4-4-4-4-4-4-|-----5-4---5---4-||
|------0-0-0-0-0-0-|---------0-0---0---0-|-----4-4-4-4-4-4-|-----4-4---4---4-||
|------0-0-0-0-0-0-|---------2-0---2---0-|-----4-4-4-4-4-4-|-----6-4---6---4-||
|--0-0-0-0-0-0-0-0-|---0---0-0-0-0-0-0-0-|-4-4-4-4-4-4-4-4-|-4-4-4-4-4-4-4-4-||


 Interlude
  Gtr II
  |-Rhy Fig 3A (Rhythm Slashes)
       F5
        W                  +W
        |                   |
        /                   /

  Gtr III
  a    +W                  +W
|------------------------|--------------------|
|------------------------|--------------------|
|-7b9==(7)---------------|-(7)r---------------|
|------------------------|--------------------|
|------------------------|--------------------|
|------------------------|--------------------|
|
| Gtr I
|       E  E E E E E E E    E   E E E E E E E
|------------------------|------------2-------|
|------------0-----2-----|--4-----------4-----|
|----------3---3-----3---|------3---3-----3---|
|-------4--------4-----4-|--------4---------4-|
|------------------------|--------------------|
|------------------------|--------------------|
|-Rhy Fig 3

       D5                                end Rhy Fig 3A-|
        W                            +W
        |                             |
        /                             /

  a    +E   a    +E  +H.             +W
|----------------------------------|--------------------|
|----------------------------------|--------------------|
|-7b9==(7)r-7b9==(7)-(7)-----------|-(7)r---------------|
|----------------------------------|--------------------|
|----------------------------------|--------------------|
|----------------------------------|--------------------|
|
|       E         E   E  E E E E E    E   E E E E E E E
|----------------------------------|------------0-------|
|---------------------0------2-----|--4-----------4-----|
|-----------------3------3-----3---|------3---3-----3---|
|-------0------------------0-----0-|--------0---------0-|
|----------------------------------|--------------------|
|----------------------------------|--------------------|
                                          end Rhy Fig 3-|

w/Rhy FIg 3 + 3A both x5
          ~~~~~~~~~~~~~~~~~~
   E E  E E +H          +W
|---------------------|-------------------|
|----9-10-9-(9)-------|-(9)---------------|
|-11------------------|-------------------|
|---------------------|-------------------|
|---------------------|-------------------|
|---------------------|-------------------|


                         ~~~~~~~~~~~~~~~~
  |----3----|
  Q    q    Q    a      +H           +Q.      E  +E   Q    +E
|---------------------------------|----------12-(12)-----------|
|-9---10---12---12b14==(12)-------|-(12)-------------12r==(12)-|
|---------------------------------|----------------------------|
|---------------------------------|----------------------------|
|---------------------------------|----------------------------|
|---------------------------------|----------------------------|


   ~~             ~~~~~~~~                   ~~
   H       E  E E E   +Q     E      +E   +E  Q.
|-------------------|-------------------------------|
|-10-------9h10p9---|-------------------------------|
|-----------------9-|-(9)---11b13==(11)r(11)--------|
|-------------------|------------------------9------|
|-------------------|-------------------------------|
|-------------------|-------------------------------|


                  ~~~~~~
  a     +Q    +E  E +H           E S S +Q    +E  a     +E  +Q
|-----------------------------|----------------------------------|
|-----------------------------|----------------------------------|
|-----------------------------|----------------------------------|
|-9b11==(9)r==(9)p7-(7)-------|--6-7p6-(6)---(6)-9b11==(9)r(9)---|
|-----------------------------|----------------------------------|
|-----------------------------|----------------------------------|



          ~~~~~~~~~~~~~~~~~~~~
  E  Q    E  +H           +H        E  E  a      +E   +E
|----------------------|----------------------------------|
|----------------------|----------------------------------|
|----------------------|-----------------11b13==(11)r(11)-|
|-9s11---11-(11)-------|-(11)-------9-11------------------|
|----------------------|----------------------------------|
|----------------------|----------------------------------|


   +H         E E  E  E    +E   E  E E  E E  E  E
|-----------------------|-------------------------|
|-----------------------|-------------------------|
|-(11)-------11-9-------|-------------------------|
|-----------------12p11-|-(11)h12p11p9----9-------|
|-----------------------|--------------12---12p11-|
|-----------------------|-------------------------|


        ~                            ~
   E  E H        E  E    E  E E  E E Q   E
|---------------------|--------------------|
|---------------------|--------------------|
|---------------------|--------------------|
|---------------------|-------9h11-9-------|
|-12p11-9-------11-12p|=11-12--------9---9-|
|---------------------|--------------------|


                            ~~~~~~~~
  E E a     +Q    +Q    +E  E   +W
|-----------------------------|-------------------|
|-----------------------------|-------------------|
|-----------------------------|-------------------|
|-----9b11==(9)---(9)r==(9)---|-------------------|
|-9-7-----------------------7-|-(7)---------------|
|-----------------------------|-------------------|


   E      +E   +E   a      +E   +H           +H.            +E   +E
|-----------------------------------------|--------------------------|
|-----------------------------------------|--------------------------|
|------------------11b13==(11)-(11)-------|-(11)-----------(11)r(11)-|
|-11b12==(11)r(11)------------------------|--------------------------|
|-----------------------------------------|--------------------------|
|-----------------------------------------|--------------------------|



  E  E  Q    a      +E    a       +Q.        +H         +Q.      +E   D.S. al Coda
|-----------------------------------------|--------------------------||
|-----------------------------------------|--------------------------||
|-9h11------------------------------------|--------------------------||
|------11---11b12==(11)r(11)b12==(11)-----|-(11)-------(11)r====(11)-||
|-----------------------------------------|--------------------------||
|-----------------------------------------|--------------------------||



  &
  Gtr III
                          ~~~~~
   E      +E   +E  E E  E Q
|----------------------12-----|
|-10b12==(10)r(10)-9-9----9---|
|-----------------------------|
|-----------------------------|
|-----------------------------|
|-----------------------------|
|
| Gtrs I, II
|  PM----|
|  E       E    E  E E  E E E
|---------------7--6-4--------|
|---------------4--4-4--7-6-4-|
|---------------4--4-4--4-4-4-|
|---------------4--4-4--4-4-4-|
|---------------4--4-4--4-4-4-|
|--4-------4----4--4-4--4-4-4-|


 ~~~~~~~~~~~~~~~
  +H        +E   a      +Q.        +W
|-------------------------------|--------------------|
|-(9)-------(9)-12b14==(12)-----|-(12)---------------|
|-------------------------------|--------------------|
|-------------------------------|--------------------|
|-------------------------------|--------------------|
|-------------------------------|--------------------|
|
|  PM-|      PM             PM      PM-|
|  E  E E E  E           E  E E     E  E E E E E E E
|-------------------------------|--------3-2-0-------|
|-------------------------------|--------0-0-0-3-2-0-|
|-------5-4--------------5----4-|--------0-0-0-0-0-0-|
|-------4-4--------------4----4-|--------0-0-0-0-0-0-|
|-------6-4--------------6----4-|--------0-0-0-0-0-0-|
|--4--4-4-4--4-----------4--4-4-|---0--0-0-0-0-0-0-0-|


   +W                   W                 W
|---------------------|-----------------|-----------------||
|-(12)r---------------|-----------------|-----------------||
|---------------------|-----------------|-----------------||
|---------------------|-----------------|-----------------||
|---------------------|-----------------|-----------------||
|---------------------|-----------------|-----------------||
|
|   PM--|     PM  PM    PM|               PM|     PM  PM
|   E   E E E E E E E   E E E E E E E E   E E E E E E E E
|---------------------|-----7-6-4-------|-----------------||
|---------------------|-----4-4-4-7-6-4-|-----------------||
|---------1-0---1---0-|-----4-4-4-4-4-4-|-----5-4---5---4-||
|---------0-0---0---0-|-----4-4-4-4-4-4-|-----4-4---4---4-||
|---------2-0---2---0-|-----4-4-4-4-4-4-|-----6-4---6---4-||
|---0---0-0-0-0-0-0-0-|-4-4-4-4-4-4-4-4-|-4-4-4-4-4-4-4-4-||


 Outro
w/Rhy Fig 3 + 3A both x6
  Gtr III
                       ~~
  E    +E  +E  a E +E  Q.        W
|-----------------------------|------------------|
|-----------------------------|------------------|
|-----------------------------|------------------|
|----------------------9------|------------------|
|-4b5==(4)r(4)-4s7-(7)--------|------------------|
|-----------------------------|------------------|


                       ~~                             ~
  E    +E  +E  a E +E  Q.        E    +E  +E  E +E  E Q
|-----------------------------|----------------------------|
|-----------------------------|----------------------------|
|-----------------------------|----------------------------|
|----------------------9------|--6b7==(6)r(6)-------6-7----|
|-4b5==(4)r(4)-4s7-(7)--------|---------------9-(9)--------|
|-----------------------------|----------------------------|


                       ~~
  E    +E  +E  a E +E  Q.        W
|-----------------------------|------------------|
|-----------------------------|------------------|
|-----------------------------|------------------|
|----------------------9------|------------------|
|-4b5==(4)r(4)-4s7-(7)--------|------------------|
|-----------------------------|------------------|


                       ~~                             ~
  E    +E  +E  a E +E  Q.        E    +E  +E  E +E  E Q
|-----------------------------|----------------------------|
|-----------------------------|----------------------------|
|-----------------------------|----------------------------|
|----------------------9------|--6b7==(6)r(6)-------6-7----|
|-4b5==(4)r(4)-4s7-(7)--------|---------------9-(9)--------|
|-----------------------------|----------------------------|


   W                 +W
|------------------|-------------------|
|------------------|-------------------|
|------------------|-------------------|
|------------------|-------------------|
|-/9---------------|-(9)---------------|
|------------------|-------------------|


                                                 ~~
  E  E      +E   +E   +Q.      E    E      +E    Q    Q   Q
|--------------------------------|-----------------------------|
|--------------------------------|-----------------------------|
|--------------------------------|------------------------9----|
|-----------------------------11-|-11b12==(11)r-11---/9--------|
|-9-11b12==(11)r(11)-(11)--------|-----------------------------|
|--------------------------------|-----------------------------|


  W                 +W
|-----------------|-------------------|
|-----------------|-------------------|
|-----------------|-------------------|
|-7---------------|-(7)---------------|
|-----------------|-------------------|
|-----------------|-------------------|


                                                   ~
  a     +H.           +E  E   +E  E E    +E  +E  E Q
|---------------------------|--------------------------|
|---------------------------|--------------------------|
|-9b11==(9)-----------(9)-9r|=(9)-7-6b7==(6)r(6)-------|
|---------------------------|--------------------7-----|
|---------------------------|----------------------9---|
|---------------------------|--------------------------|

  ~             ~~~~~~~~                ~~~~~~~~
  Q   E E E E E E   +E  E  a      +E   +E   +Q    E  E
|-----------------|------------------------------------|
|-----------------|-------10b12==(10)r(10)-(10)---9-10p|
|---------6s7-9-9-|-(9)-7------------------------------|
|-----7-7---------|------------------------------------|
|-9---------------|------------------------------------|
|-----------------|------------------------------------|


     ~~~                       ~~~~~~~~~
  E  Q.     E  E  a      +E    E    +E   E E  E E  a      +Q.
|---10------9-10-12b14==(12)r-12-|-(12)-10-9-10-9-----------------|
|-9------------------------------|----------------12b14==(12)-----|
|--------------------------------|--------------------------------|
|--------------------------------|--------------------------------|
|--------------------------------|--------------------------------|
|--------------------------------|--------------------------------|


                                                                  ~~
   +Q      a      +E    a       +E   +Q.       a      +S   +S     W
|--------------------------------------------------------------|------------------|
|-(12)r---12b14==(12)r(12)b14==(12)-(12)r-----12b14==(12)r(12)p|=10---------------|
|--------------------------------------------------------------|------------------|
|--------------------------------------------------------------|------------------|
|--------------------------------------------------------------|------------------|
|--------------------------------------------------------------|------------------|


   a     +H     a     +E    E  Q     a     +E    a     +E   Q   a     +E    a     +E   Q
|-19b21=(19)r--19b21=(19)r-19-17--|-22b24=(22)r-22b24=(22)r----22b24=(22)r-22b24=(22)r----||
|---------------------------------|-------------------------------------------------------||
|---------------------------------|-------------------------------------------------------||
|---------------------------------|-------------------------------------------------------||
|---------------------------------|-------------------------------------------------------||
|---------------------------------|-------------------------------------------------------||

w/Rhy Fig 3A x4
  Gtr I
  E E E E E E E E   E E E E E E E E   E E E E E E E E   E E E E E E E E
|---0-------0-----|-------0-------0-|-------0-------0-|-------0-------0--|
|-------4-------4-|---4-------4-----|---4-------4-----|---4-------4------|
|-----0---0---0---|-----0---0---0---|-----0---0---0---|-----0---0---0----|
|-----------------|-----------------|-----------------|------------------|
|-----------------|-----------------|-----------------|------------------|
|-4---------------|-4---------------|-0---------------|-4----------------|
|-Rhy Fig 4                                                end Rhy Fig 4-|


w/Rhy Fig 4 x2.5

|-----------------|-----------------|


Gtr III
                                                                    ~~
   E      +E   +E   a      +E   +H           +H         +E   +E  E  E
|-----------------------------------------|---------------------------|
|-----------------------------------------|---------------------------|
|------------------11b13==(11)-(11)-------|-(11)-------(11)r(11)-9----|
|-11b12==(11)r(11)------------------------|------------------------11-|
|-----------------------------------------|---------------------------|
|-----------------------------------------|---------------------------|


    ~~~~~~~~~~~~~~~~~~~~~~~~
   +W                   +W
|--------------------|--------------------|
|--------------------|--------------------|
|--------------------|--------------------|
|-(11)---------------|-(11)---------------|
|--------------------|--------------------|
|--------------------|--------------------|


  W                 +W
|-----------------|--------------------|
|-----------------|--------------------|
|-----------------|--------------------|
|-----------------|--------------------|
|-9---------------|-(9)----------------|
|-----------------|--------------------|


                     ~                            ~
  E  E      +E   +E  H         E  E      +E   +E  H
|----------------------------|----------------------------|
|----------------------------|----------------------------|
|----------------------------|----------------------------|
|----------------------------|----------------------------|
|-9-11b12==(11)r(11)-9-------|-9-11b12==(11)r(11)-9-------|
|----------------------------|----------------------------|


  a     +W           +H     +Q   +Q
|------------------|------------------|
|------------------|------------------|
|------------------|------------------|
|------------------|------------------|
|------------------|------------------|
|-9b10==(9)--------|-(9)----(9)r=(9)--|


  Gtr II
  W              +W            W               +W
|--------------|------------|---------------|---------|
|--------------|------------|---------------|---------|
|--------------|------------|---------------|---------|
|--------------|------------|---------------|---------|
|--------------|------------|---------------|---------|
|-4------------|-(4)--------|--0------------|--(0)----|
|
| Gtr III
| W              +W            W               +W
|--------------|------------|---------------|---------|
|--------------|------------|---------------|---------|
|--------------|------------|---------------|---------|
|--------------|------------|---------------|---------|
|--------------|------------|---------------|---------|
|-9------------|-(9)--------|-10------------|-(10)----|
|
| Gtr I
| E E E E H      +W            E E E E H       +W
|---0----------|------------|----0----------|---------|
|-------4-4----|-(4)--------|--------4-4----|--(4)----|
|-----0--------|------------|------0--------|---------|
|--------------|------------|---------------|---------|
|--------------|------------|---------------|---------|
|-4------------|------------|--4------------|---------|


  F#
  Gtr II
   W                                      +W
   |                                       |
   o                                       /

  Gtr III
   E      +E   +E   a      +E   +H        +H.       +E   +E
|--------------------------------------|---------------------|
|--------------------------------------|---------------------|
|------------------11b13==(11)-(11)----|-(11)------(11)r(11)-|
|-11b12==(11)r(11)---------------------|---------------------|
|--------------------------------------|---------------------|
|--------------------------------------|---------------------|
|
| Gtr I
|  E       E    E           E    H        +W
|----------0---------------------------|---------------------|
|---------------------------4----4-----|--(4)----------------|
|---------------0----------------------|---------------------|
|--------------------------------------|---------------------|
|--------------------------------------|---------------------|
|--4-----------------------------------|---------------------|


  D5
  W                         +W             W
  |                          |
  /                          /

  E  E  +H      +Q          +W            +H      +E   E Q
|------------------------:-------------:---------------------*|
|------------------------:-------------:---------------------*|
|-9----------------------:-------------:---------------------*|
|---11-(11)----(11)b12===:=(11)--------:-(11)r===(11)\-------*|
|------------------------:-------------:---------------------*|
|------------------------:-------------:---------------------*|
|
| W                         +W             W
|------------------------:-------------:---------------------*|
|------------------------:-------------:---------------------*|
|------------------------:-------------:---------------------*|
|------------------------:-------------:---------------------*|
|------------------------:-------------:---------------------*|
|-0----------------------:--(0)--------:---------------------*|
comments
We did not receive enough feedback on this tab! Please rate:
print report bad tab
1 2 3 4 5
5 comments total. Showing first comments.
0 reply
AirForceMetalhe wrote on June 8 2007, 10:34 am

The notes are just wrong. It looks like those chords are for an alternate tuning, but you didn't specify what tuning that is.

0 reply
floydian07 wrote on June 30 2007, 05:08 pm

The tuning's right up top. Seems a bit off though.

0 reply
GotMeWrong wrote on September 23 2007, 09:14 pm

every tab ive seen for this song is completely wrong!
can someone make a decent one already?!?!?!!?

I want to post or [tab]
guest
You may want to rate the tab now too:
select rating
Please do not post tabs as comments. Select "correction" instead!