Oops, an error
Loading. Please wait.

If I Aint Got You Tab

ver4
ver4

Whole song

Interactive

More versions @911Tabs.com
43,669 views 150 this week
1 commentread comment
1 2 3 4 5
excellent!
x 5
Autoscroll
+/-
esc
set tempo
stop
Difficulty
novice
Hey! There's an official Ultimate Guitar app which is ideal
for learning songs when you're away from computer. Get the app
WARNING: You are trying to view
                                    content from Ultimate-Guitar.com
                                    in an unauthorized application,
                                    which is prohibited.

                                    Please use an official Ultimate
                                    Guitar Tabs application for iPhone,
                                    iPad or Android to access legitimate
                                    chords, guitar, bass, and drum tabs
                                    from Ultimate-Guitar.com database.

                                    Type "ultimate guitar tabs" in Apple
                                    App Store's or Android Market's
                                    search to find the application.
If I Aint Got You Chords
Alicia Keys

Intro:
  Em/C                         D/B
e-12--12--12--12--12--12----|--10--10--10--10--10--10----|
B--12--12--12--12--12--12---|---10--10--10--10--10--10---|
G---12--12--12--12--12--12--|----11--11--11--11--11--11--|
D---------------------------|----------------------------|
A---------------------------|----------------------------|
E---------------------------|----------------------------|

 C/A                    Bm/G                  
-8--8--8--8--8--8----|--7--7--7--7--7--7----|
--8--8--8--8--8--8---|---7--7--7--7--7--7---|
---9--9--9--9--9--9--|----7--7--7--7--7--7--|
---------------------|----------------------|
---------------------|----------------------|
---------------------|----------------------|

Em D C  Bm  Em/C                     D/B
-7-8-10-12--12--12--12--12--12----|--10--10--10--10--10--10----|
----------12--12--12--12--12--12--|---10--10--10--10--10--10---|
-----------12--12--12--12--12--12-|----11--11--11--11--11--11--|
-5-7-9--10------------------------|----------------------------|
----------------------------------|----------------------------|
----------------------------------|----------------------------|

 C/A                    Bm/G                   
-8--8--8--8--8--8----|--7--7--7--7--7--7--7--|
--8--8--8--8--8--8---|---7--7--7--7--7--7----| 
---9--9--9--9--9--9--|----7--7--7--7--7--7---|  
---------------------|-----------------------|  
---------------------|-----------------------|
---------------------|-----------------------|



Verse
G7                       Em7
Some people live for the fortune
Am7                          D7               
Some people live just for the fame
G7                        Em7               
Some people live for the power yeah
Am7                               D7
Some people live just to play the game

Bridge
G7            Am7            Bm7       Am7
Some people think that the physical things 
G7      Am7       Bm7
Define what's within
Am7   G7        Am7 
I've been there before
Bm7             Am7
But that life's a bore
G7         Am7         Bm7
So full of the superficial
 
Chorus
(octave up)
 N/C          Em/C
Some people want it all
                 D/B
But I don't want nothing at all
            C/A
If it ain't you baby
               Bm/G
If I ain't got you baby
Bm/G - C/A - D/B - Em/C
Some people want diamond rings
                D/B
Some just want everything
               C#/A# - C/A
But everything means nothing
              Bm/G
If I ain't got you
 
Verse:(same as before)
Some people search for a fountain
Promises forever young
Some people need three dozen roses
And that's the only way to prove you love them
 
Bridge:
And in a world on a silver platter
And wondering what it means
No one to share, no one who truly cares for me
 
Chorus:
Some people want it all
But I don't want nothing at all
If it ain't you baby
If I ain't got you baby
Some people want diamond rings
Some just want everything
But everything means nothing
If I ain't got you
 
Some people want it all
But I don't want nothing at all
If it ain't you baby
If I ain't got you baby
Some people want diamond rings
Some just want everything
But everything means nothing
If I ain't got you
 
If I ain't got you with me baby
Nothing in this whole wide world don't mean a thing
If I ain't got you with me baby
comments
print report bad tab
1 comment total.
0 reply
guitarero2 wrote on April 3 2014, 02:38 pm

If I Aint Got You Chords
Alicia Key tabbed by guitarero2

Play
Gmaj7 as 300032
sounds better in this song

Intro:
Cmaj7 Bm7
e-12--12--12--12--12--12----|--10--10--10--10--10--10----|
B--12--12--12--12--12--12---|---10--10--10--10--10--10---|
G---12--12--12--12--12--12--|----11--11--11--11--11--11--|
D---------------------------|----------------------------|
A---------------------------|----------------------------|
E---------------------------|----------------------------|

Am7 Gmaj7
-8--8--8--8--8--8----|--7--7--7--7--7--7----|
--8--8--8--8--8--8---|---7--7--7--7--7--7---|
---9--9--9--9--9--9--|----7--7--7--7--7--7--|
---------------------|----------------------|
---------------------|----------------------|
---------------------|----------------------|

Gmj7 Am7 Bm7 Cmaj7 Bm7
-7---8---10---12--12--12--12--12--12----|--10--10--10--10--10--10----|
----------------12--12--12--12--12--12--|---10--10--10--10--10--10---|
-----------------12--12--12--12--12--12-|----11--11--11--11--11--11--|
-5---7---9----10------------------------|----------------------------|
----------------------------------------|----------------------------|
----------------------------------------|----------------------------|

Am7 Gmaj7
-8--8--8--8--8--8----|--7--7--7--7--7--7--7--|
--8--8--8--8--8--8---|---7--7--7--7--7--7----|
---9--9--9--9--9--9--|----7--7--7--7--7--7---|
---------------------|-----------------------|
---------------------|-----------------------|
---------------------|-----------------------|

Verse
G Em7
Some people live for the fortune
Am7 D7
Some people live just for the fame
Gmaj7 E7
Some people live for the power yeah
Am7 D7
Some people live just to play the game

Bridge
Gmaj Am7 Bm7 Am7
Some people think that the physical things
Gmaj7 Am7 Bm7 Am7 Bm7
Define what's within
Am7 Gmaj7 Am7
I've been there before
Bm7 Am7
But that life's a bore
Gmaj7 Am7 Bm7
So full of the superficial

Chorus
Gmj7 Am7 Bm7 Cmaj7
Some people want it all
Bm7
But I don't want nothing at all
Bbm7 Am7
If it ain't you baby
Gmaj7
If I ain't got you baby
Am7 Bm7 Cmaj7
Some people want diamond rings
Bm7
Some just want everything
Bbm7 Am7
But everything means nothing
Gmaj7
If I ain't got you

Verse:
G Em7
Some people search for a fountain
Am7 D7
Promises forever young
Gmaj7 E7
Some people need three dozen roses
Am7 D7
And that's the only way to prove you love them

Bridge:
Gmaj Am7 Bm7 Am7
And in a world on a silver platter
Gmaj7 Am7 Bm7 Am7 Bm7 Am7
And wondering what it means
Gmaj7 Am7 Bm7 Am7 Gmaj7 Am7 Bm7
No one to share, no one who truly cares for me

Chorus:
Gmj7 Am7 Bm7 Cmaj7
Some people want it all
Bm7
But I don't want nothing at all
Bbm7 Am7
If it ain't you baby
Gmaj7
If I ain't got you baby
Am7 Bm7 Cmaj7
Some people want diamond rings
Bm7
Some just want everything
Bbm7 Am7
But everything means nothing
Gmaj7
If I ain't got you

Am7 Bm7 Cmaj7
Some people want it all
Bm7
But I don't want nothing at all
Bbm7 Am7
If it ain't you baby
Gmaj7
If I ain't got you baby
Gmj7 Am7 Bm7 Cmaj7
Some people want diamond rings
Bm7
Some just want everything
Bbm7 Am7
But everything means nothing
Gmaj7
If I ain't got you

Outro like Intro

I want to post or [tab]
guest
You may want to rate the tab now too:
select rating
Please do not post tabs as comments. Select "correction" instead!