Oops, an error
Loading. Please wait.

Alkaline Trio Tab

11,592 views 21 this week
3 commentsread comments
1 2 3 4 5
excellent!
x 5
add to favorites launch autoscroll
font size
0
reset
Autoscroll
+/-
esc
set tempo
stop
Contributor
Difficulty
intermediate
WARNING: You are trying to view
                                    content from Ultimate-Guitar.com
                                    in an unauthorized application,
                                    which is prohibited.

                                    Please use an official Ultimate
                                    Guitar Tabs application for iPhone,
                                    iPad or Android to access legitimate
                                    chords, guitar, bass, and drum tabs
                                    from Ultimate-Guitar.com database.

                                    Type "ultimate guitar tabs" in Apple
                                    App Store's or Android Market's
                                    search to find the application.
Artist: Alkaline Trio
Album: Alkaline Trio

Tabbed by: Josh (royal88vocals@yahoo.com)

Notes:
/=slide
x=mute
.=palm mute
~=let ring
>=pick slide
h=hammer on
p=pull off
b=bend
r=release bend

This is a great CD and this tab should be 90-100%.  A lot of these songs don't have good 
surprisingly.

Track Listing
1. Goodbye Forever
2. This Is Getting Over You
3. Bleeder
4. I Lied My Face Off
5. My Friend Peter
6. Snake Oil Tanker
7. Southern Rock
8. Cooking Wine
9. For Your Lungs Only
10. Exploding Boy
11. Sun Dials
12. Nose Over Tail
13. '97

1. GOODBYE FOREVER

Intro
E |----------------|----------------|----------------|----------------||
B |----------------|----------------|----------------|----------------||
G |99-999-999-9999-|6666666666666666|99-999-999-999-6|6666666/7777-777||
D |77-777-777-7777-|6666666666666666|77-777-777-777-6|6666666/7777-777||
A |00-000-000-0000-|4444444444444444|00-000-000-000-4|4444444-4444/555||
E |----------------|----------------|----------------|----------------||

E |----------------|----------------|----------------|----------------||
B |----------------|----------------|----------------|----------------||
G |99-999-999-9999-|6666666666666666|4~---------2~-4~|----------------||
D |77-777-777-7777-|6666666666666666|4~---------2~-4~|----------------||
A |00-000-000-0000-|4444444444444444|2~------>>-0~-2~|----------------||
E |----------------|----------------|-------->>------|----------------||

Verse (Take your wings outside, you can't fly in here...)
E |----------------|----------------|----------------|----------------||
B |----------------|----------------|----------------|----------------||
G |99-999-999-9999-|6666666666666666|99-999-999-999-6|6666666/7777-777||
D |77-777-777-7777-|6666666666666666|77-777-777-777-6|6666666/7777-777||
A |00-000-000-0000-|4444444444444444|00-000-000-000-4|4444444-4444/555||
E |----------------|----------------|----------------|----------------||

E |----------------|----------------|----------------|----------------||
B |----------------|----------------|----------------|----------------||
G |99-999-999-9999-|6666666666666666|4~---------2~-4~|99999999999999--||
D |77-777-777-7777-|6666666666666666|4~---------2~-4~|99999999999999--||
A |00-000-000-0000-|4444444444444444|2~---------0~-2~|77777777777777--||
E |----------------|----------------|----------------|----------------||

E |----------------|----------------|----------------|----------------||
B |----------------|----------------|----------------|----------------||
G |99-999-999-9999-|6666666666666666|99-999-999-999-6|6666666/7777-777||
D |77-777-777-7777-|6666666666666666|77-777-777-777-6|6666666/7777-777||
A |00-000-000-0000-|4444444444444444|00-000-000-000-4|4444444-4444/555||
E |----------------|----------------|----------------|----------------||

E |----------------|----------------|----------------|----------------||
B |----------------|----------------|----------------|----------------||
G |99-999-999-9999-|6666666666666666|4~---------2~-4~|----------------||
D |77-777-777-7777-|6666666666666666|4~---------2~-4~|----------------||
A |00-000-000-0000-|4444444444444444|2~---------0~-2~|----------------||
E |----------------|----------------|----------------|----------------||

Chorus (And we say goodbye...)
E |----------------|----------------|----------------|----------------||
B |----------------|------------(x2)|----------------|----------------||
G |6666666666666666|----------------|6666666666666666|2~-4~-9~--------||
D |6666666666666666|6666666677777777|6666666666666666|2~-4~-9~--------||
A |4444444444444444|6666666677777777|4444444444444444|0~-2~-7~--------||
E |----------------|4444444455555555|----------------|----------------||

Verse 2 (Take your wings outside, no use for them in here...)
E |----------------|----------------|----------------|----------------||`
B |----------------|----------------|----------------|----------------||
G |9~------6~------|---bass break---|9~------6~------|4~------2~--4~--||
D |7~------6~------|----------------|7~------6~------|4~------2~--4~--||
A |0~------4~------|----------------|0~------4~------|2~------0~--2~--||
E |----------------|----------------|----------------|----------------||

Chorus (And we say goodbye...)
E |----------------|----------------|----------------|----------------||
B |----------------|------------(x2)|----------------|----------------||
G |6666666666666666|----------------|6666666666666666|2~-4~-----------||
D |6666666666666666|6666666677777777|6666666666666666|2~-4~-----------||
A |4444444444444444|6666666677777777|4444444444444444|0~-2~-----------||
E |----------------|4444444455555555|----------------|----------------||

Interlude
E |----------------|----------------|----------------|----------------||
B |----------------|----------------|----------------|----------------||
G |9999999999999999|8/99999999999999|8-99999999999999|8/99999999999999||
D |xxxxxxxxxxxxxxxx|x-xxxxxxxxxxxxxx|x-xxxxxxxxxxxxxx|x-xxxxxxxxxxxxxx||
A |7777777777777777|6/77777777777777|6/77777777777777|6/77777777777777||
E |----------------|----------------|----------------|----------------||

E |----------------|----------------|----------------|----------------||
B |----------------|----------------|----------------|----------------||
G |9999999999999999|8/99999999999999|8-99999-13131314|13-9999999999999||
D |xxxxxxxxxxxxxxxx|x-xxxxxxxxxxxxxx|x-xxxxx--x-x-x-x|-x-xxxxxxxxxxxxx||
A |7777777777777777|6/77777777777777|6/77777-11111112|11-7777777777777||
E |----------------|----------------|----------------|----------------||

E |----------------|----------------|----------------|----------------||
B |----------------|----------------|----------------|----------------||
G |99-999-999-8888-|99-999-999-8888-|99-999-999-8888-|99999-1313131413||
D |xx-xxx-xxx-xxxx-|xx-xxx-xxx-xxxx-|xx-xxx-xxx-xxxx-|xxxxx--x-x-x-x-x||
A |77-777-777-6666-|77-777-777-6666-|77-777-777-6666-|77777-1111111211||
E |----------------|----------------|----------------|----------------||

Chorus (And we say goodbye...)
E |----------------|----------------|----------------|----------------||
B |----------------|------------(x2)|----------------|----------------||
G |6666666666666666|----------------|6666666666666666|2~-4~-9~--------||
D |6666666666666666|6666666677777777|6666666666666666|2~-4~-9~--------||
A |4444444444444444|6666666677777777|4444444444444444|0~-2~-7~--------||
E |----------------|4444444455555555|----------------|----------------||

_______________________________________________________________________________
2. THIS IS GETTING OVER YOU

Intro
E |----------------|----------------|----------------|----------------||
B |----------------|----------------|----------------|----------------||
G |77xxx777xxx777xx|x777xxx777xxx777|xxx777xxx777xxx7|77xxx777xxx777xx||
D |77xxx777xxx777xx|x777xxx777xxx777|xxx777xxx777xxx7|77xxx777xxx777xx||
A |55xxx555xxx555xx|x555xxx555xxx555|xxx555xxx555xxx5|55xxx555xxx555xx||
E |----------------|----------------|----------------|----------------||

E |----------------|----------------|----------------|----------------||
B |----------------|----------------|----------------|----------------||
G |x777xxx777777777|7777-777xxx777xx|x777xxx777xxx11-|1111xxx111111xxx||
D |x777xxx777777777|7777-777xxx777xx|x777xxx777xxx11-|1111xxx111111xxx||
A |x555xxx555555555|5555-555xxx555xx|x555xxx555xxx-9-|-9-9xxx-9-9-9xxx||
E |----------------|----------------|----------------|----------------||

E |----------------|----------------|----------------|----------------||
B |----------------|----------------|----------------|----------------||
G |666-66699977-777|xxx777xxx777xxx7|77xxx111111xxx11|1111xxx666666999||
D |666-66699977-777|xxx777xxx777xxx7|77xxx111111xxx11|1111xxx666666999||
A |444-44477755-555|xxx555xxx555xxx5|55xxx-9-9-9xxx-9|-9-9xxx444444777||
E |----------------|----------------|----------------|----------------||

E |----------------||
B |----------------||
G |77-7~-----------||
D |77-7~-----------||
A |55-5~-----------||
E |----------------||

Verse (Today I woke up younger than I've been in years...)
E |----------------|----------------|----------------|----------------||
B |----------------|----------------|----------------|----------------||
G |----------------|7~/-------------|----------------|----------------||
D |4/5-------------|7~/-------------|7777777777777777|7777777777777777||
A |----7-5-4-5-42/4|5~/-------------|5555555555555555|5555555555555555||
E |----------------|----------------|----------------|----------------||

E |----------------|----------------|----------------|----------------||
B |----------------|----------------|----------------|----------------||
G |----------------|----------------|----------------|----------------||
D |1111111111111111|1111111111111111|666666699977-777|7777777777777777||
A |-9-9-9-9-9-9-9-9|-9-9-9-9-9-9-9-9|444444477755-555|5555555555555555||
E |----------------|----------------|----------------|----------------||

E |----------------|----------------|----------------|----------------||
B |----------------|----------------|----------------|----------------||
G |----------------|----------------|----------------|----------------||
D |7777777777111111|1111111111111111|1111111111-66666|6699977-5-4-----||
A |5555555555-9-9-9|-9-9-9-9-9-9-9-9|-9-9-9-9-9-44444|4477755-----7-4-||
E |----------------|----------------|----------------|----------------||

Chorus (Drowning girls is a game I play)
E |----------------|----------------||
B |----------------|----------------||
G |7777777777777777|----------------||
D |7777777777777777|7777777777777777||
A |5555555555555555|7777777777777777||
E |----------------|5555555555555555||


Preverse
E |----------------|----------------|----------------|----------------||
B |----------------|----------------|----------------|----------------||
G |777xxx777xxx777x|xx777xxx111111xx|x111111xxx-666-6|6699977---------||
D |777xxx777xxx777x|xx777xxx111111xx|x111111xxx-666-6|6699977---------||
A |555xxx555xxx555x|xx555xxx-9-9-9xx|x-9-9-9xxx-444-4|4477755---------||
E |----------------|----------------|----------------|----------------||x2

Verse (Today I woke up more awake than I have felt in years...)
E |----------------|----------------|----------------|----------------||
B |----------------|----------------|----------------|----------------||
G |----------------|7~/-------------|----------------|----------------||
D |4/5-------------|7~/-------------|7777777777777777|7777777777777777||
A |----7-5-4-5-42/4|5~/-------------|5555555555555555|5555555555555555||
E |----------------|----------------|----------------|----------------||

E |----------------|----------------|----------------|----------------||
B |----------------|----------------|----------------|----------------||
G |----------------|----------------|----------------|----------------||
D |1111111111111111|1111111111111111|666666699977-777|7777777777777777||
A |-9-9-9-9-9-9-9-9|-9-9-9-9-9-9-9-9|444444477755-555|5555555555555555||
E |----------------|----------------|----------------|----------------||

E |----------------|----------------|----------------|----------------||
B |----------------|----------------|----------------|----------------||
G |----------------|----------------|----------------|----------------||
D |7777777777111111|1111111111111111|1111111111-66666|6699977-5-4-----||
A |5555555555-9-9-9|-9-9-9-9-9-9-9-9|-9-9-9-9-9-44444|4477755-----7-4-||
E |----------------|----------------|----------------|----------------||

Chorus (Drowning myself is a game I play)
E |----------------|----------------||
B |----------------|----------------||
G |7777777777777777|----------------||
D |7777777777777777|7777777777777777||
A |5555555555555555|7777777777777777||
E |----------------|5555555555555555||

Bridge 1 (Drown Myself away...)
E |----------------|----------------|----------------|----------------||
B |----------------|----------------|----------------|----------------||
G |----------------|7777777777777777|6666666666666666|4444444444444444||
D |5-4-------------|7777777777777777|6666666666666666|4444444444444444||
A |----7-5-4-2-4-0-|5555555555555555|4444444444444444|2222222222222222||
E |----------------|----------------|----------------|----------------||

E |----------------|----------------||
B |----------------|----------------||
G |44444444446666--|----------------||
D |44444444446666--|----------------||
A |22222222224444--|----------------||
E |----------------|----------------||4x except for first measure

Bridge 2 (Goodbye...)
E |----------------|----------------|----------------|----------------||
B |----------------|----------------|----------------|----------------||
G |2~--------------|----------------|----------777777|7777777777777777||
D |2~-------------2|-----7/------6/-|----4-----777777|7777777777777777||
A |0~-5/4~-4/2~-2/0|4/5~-5/-5/4~-4/-|4/2-2/4/5-555555|5555555555555555||
E |----------------|----------------|----------------|----------------||

Outro (I'm not tired of being alone)
E |----------------|----------------|----------------|----------------||
B |----------------|----------------|----------------|----------------||
G |7777777777777777|7777777777777777|6666666666666666|6666666666666666||
D |7777777777777777|7777777777777777|6666666666666666|6666666666666666||
A |5555555555555555|5555555555555555|4444444444444444|4444444444444444||
E |----------------|----------------|----------------|----------------||

E |----------------|----------------|----------------|----------------||
B |----------------|----------------|----------------|----------------||
G |4444444444444444|4444444444444444|2222222222222222|2222222222222222||
D |4444444444444444|4444444444444444|2222222222222222|2222222222222222||
A |2222222222222222|2222222222222222|0000000000000000|0000000000000000||
E |----------------|----------------|----------------|----------------||x3

Ending
E |----------------||
B |----------------||
G |7~--------------||
D |7~--------------||
A |5~--------------||
E |----------------||

___________________________________________________________________________

3. BLEEDER

Intro
E |----------------||
B |----------------||
G |----------------||
D |22233333--------||
A |33333333--------||
E |----------------||x4

Verse (It came to me like a dream, the kind that always leaves...)
E |----------------|----------------|----------------|----------------||
B |----------------|----------------|----------------|----------------||
G |----------------|----------------|----------------|----------------||
D |2223333322233333|--------33333333|2223333322233333|---------3------||
A |3333333333333333|2223333333333333|3333333333333333|22233333-3------||
E |----------------|3333333311111111|----------------|33333333-1------||
   ................ ................ ................ ........

E |----------------|----------------|----------------|----------------||
B |----------------|----------------|----------------|----------------||
G |----------------|----------------|----------------|----------------||
D |2223333322233333|--------33333333|2223333322233333|---------3~-----||
A |3333333333333333|2223333333333333|3333333333333333|22233333-3~-----||
E |----------------|3333333311111111|----------------|33333333-1~-----||

Bridge
E |----------------|----------------|----------------|----------------||
B |----------------|----------------|----------------|----------------||
G |999999999101010-|1099995555555555|555555----------|------99999999/-||
D |999999999101010-|1099995555555555|5555555555555555|55555599999999/3||
A |777777777-8-8-8-|-877773333333333|3333335555555555|55555577777777/3||
E |----------------|----------------|------3333333333|333333---------1||

E |----------------||
B |----------------||
G |----------------||
D |33-5555---------||
A |33-5555---------||
E |11-3333---------||

Verse 2 (And you broke me like the cigarette that I busted on the day I quit...)
E |----------------|----------------|----------------|----------------||
B |----------------|----------------|----------------|----------------||
G |----------------|----------------|----------------|----------------||
D |2223333322233333|--------33333333|2223333322233333|---------3333333||
A |3333333333333333|2223333333333333|3333333333333333|22233333-3333333||
E |----------------|3333333311111111|----------------|33333333-1111111||
                                                                .. ..

E |----------------|----------------|----------------|----------------||
B |----------------|----------------|----------------|----------------||
G |----------------|----------------|----------------|----------------||
D |2223333322233333|--------33333333|2223333322233333|---------3~-----||
A |3333333333333333|2223333333333333|3333333333333333|22233333-3~-----||
E |----------------|3333333311111111|----------------|33333333-1~-----||

Chorus (One thing that I never said...)
E |----------------|----------------|----------------|----------------||
B |----------------|----------------|----------------|----------------||
G |999-1010-99-5555|555555555555----|------99999999--|----------------||
D |999-1010-99-5555|555555555555-555|55-55-99999999/3|33-5555---------||
A |777--8-8-77-3333|333333333333-555|55-55-77777777/3|33-5555---------||
E |----------------|-------------333|33-33----------1|11-3333---------||

Fill
E |----------------||
B |----------------||
G |----------------||
D |22233333--------||
A |33333333--------||
E |----------------||x4

Verse (It came to me like a dream, the kind that always leaves...)
E |----------------|----------------|----------------|----------------||
B |----------------|----------------|----------------|----------------||
G |----------------|----------------|----------------|----------------||
D |2223333322233333|--------333333-3|2223333322233333|---------3------||
A |3333333333333333|22233333333333-3|3333333333333333|22233333-3------||
E |----------------|33333333111111-1|----------------|33333333-1------||
   ................ .......... ..    ................ ........

E |----------------|----------------|----------------|----------------||
B |----------------|----------------|----------------|----------------||
G |----------------|----------------|----------------|----------------||
D |2223333322233333|--------33333333|2223333322233333|---------3~-----||
A |3333333333333333|2223333333333333|3333333333333333|22233333-3~-----||
E |----------------|3333333311111111|----------------|33333333-1~-----||

Chorus (One thing that I never said...)
E |----------------|----------------|----------------|----------------||
B |----------------|----------------|----------------|----------------||
G |999-1010-99-5555|555555555555----|------99999999--|----------------||
D |999-1010-99-5555|555555555555-555|55-55-99999999/3|33-5555---------||
A |777--8-8-77-3333|333333333333-555|55-55-77777777/3|33-5555---------||
E |----------------|-------------333|33-33----------1|11-3333---------||

Chorus 2 (It's one thing that I never did...)
E |----------------|----------------|----------------|----------------||
B |----------------|----------------|----------------|----------------||
G |999999999101010-|1099995555555555|555555----------|------99999999/-||
D |999999999101010-|1099995555555555|5555555555555555|55555599999999/3||
A |777777777-8-8-8-|-877773333333333|3333335555555555|55555577777777/3||
E |----------------|----------------|------3333333333|333333---------1||

E |----------------||
B |----------------||
G |----------------||
D |33-5555---------||
A |33-5555---------||
E |11-3333---------||

Bridge (For what you never did...) (This is as close as I could get, but it sounds right.)
E |----------------|----------------|----------------|----------------||
B |----------------|----------------|----------------|----------------||
G |555555555555555-|----------------|555555555555555-|----------------||
D |xxxxxxxxxxxxxxx-|555555555555555-|xxxxxxxxxxxxxxx-|555555555555555-||
A |333333333333333-|xxxxxxxxxxxxxxx-|333333333333333-|xxxxxxxxxxxxxxx-||
E |----------------|333333333333333-|----------------|333333333333333-||

E |----------------|----------------|----------------|----------------||
B |----------------|----------------|----------------|----------------||
G |----------------|----------------|555555555555555-|----------------||
D |2222222222222222|5555555555555555|xxxxxxxxxxxxxxx-|555555577755555-||
A |2222222222222222|5555555555555555|333333333333333-|xxxxxxxxxxxxxxx-||
E |0000000000000000|3333333333333333|----------------|333333355533333-||
                                    |                x4                |

E |----------------|----------------|----------------|----------------||
B |----------------|----------------|----------------|----------------||
G |555555555554444-|----------------|555555555554444-|----------------||
D |xxxxxxxxxxxxxxx-|555555577755555-|xxxxxxxxxxxxxxx-|55555557775xxxxx||
A |333333333332222-|xxxxxxxxxxxxxxx-|333333333332222-|xxxxxxxxxxxxxxxx||
E |----------------|333333355533333-|----------------|33333335553xxxxx||

E |----------------|----------------|----------------|----------------||
B |----------------|----------------|----------------|----------------||
G |555xxx555xxx-999|77-5555555------|----------------|----------------||
D |xxxxxxxxxxxx-xxx|xx-xxxxxxx-555xx|x555xxx777xxx555|xxx-------------||
A |333xxx333xxx-777|55-3333333-xxxxx|xxxxxxxxxxxxxxxx|xxx-------------||
E |----------------|-----------333xx|x333xxx555xxx333|xxx-------------||x2

E |----------------|----------------|----------------|----------------||
B |----------------|----------------|----------------|----------------||
G |9-9-9-9-9-9-9-9-|777/555---------|----------------|----------------||
D |9-9-9-9-9-9-9-9-|xxx-xxx-5-555555|5555555555------|----------------||
A |7-7-7-7-7-7-7-7-|555/333-5-555555|5555555555------|----------------||
E |----------------|--------3-333333|3333333333------|----------------||
                              ...... ......

Final Chorus (It's one thing that I never said...)
E |----------------|----------------|----------------|----------------||
B |----------------|----------------|----------------|----------------||
G |999999999101010-|1099995555555555|555555----------|------99999999/-||
D |999999999101010-|1099995555555555|5555555555555555|55555599999999/3||
A |777777777-8-8-8-|-877773333333333|3333335555555555|55555577777777/3||
E |----------------|----------------|------3333333333|333333---------1||

E |----------------||
B |----------------||
G |----------------||
D |33-5555---------||
A |33-5555---------||
E |11-3333---------||x2

E |----------------||
B |----------------||
G |5~--------------||
D |5~--------------||
A |3~--------------||
E |----------------||

________________________________________________________________________
4. I LIED MY FACE OFF

Intro
E |----------------|----------------|----------------|------------------||
B |----------------|----------------|----------------|------------------||
G |-------99991111-|1111121212121212|1212------------|------------------||
D |-------99991111-|1111121212121212|1212101010101010|101099999999------||
A |3/2/3~-7777-9-9-|-9-9101010101010|1010101010101010|101099999999------||
E |----------------|----------------|-----8-8-8-8-8-8|-8-877777777------||
          |--------------------------x2---------------------------------||

Verse (Well it's not fair, it's not even close...)
E |----------------|----------------|----------------|----------------||
B |----------------|----------------|----------------|----------------||
G |9999111111111212|121212121212----|----------------|----999911111111||
D |9999111111111212|1212121212121010|1010101010109999|9999999911111111||
A |7777-9-9-9-91010|1010101010101010|1010101010109999|99997777-9-9-9-9||
E |----------------|-------------8-8|-8-8-8-8-8-87777|7777------------||
                                 . .  . . . . . ..... ........ . . . .
E |----------------|----------------|----------------|----------------||
B |----------------|----------------|----------------|----------------||
G |1212121212121212|----------------|--------999-1111|11-121212-121212||
D |1212121212121212|1010101010101010|99999999999-1111|11-121212-121212||
A |1010101010101010|1010101010101010|99999999777--9-9|-9-101010-101010||
E |----------------|-8-8-8-8-8-8-8-8|77777777--------|----------------||
    . . . . . . . .  . . . . . . . . ..      ..   . .     . .    . .

E |----------------|----------------|----------------||
B |----------------|----------------|----------------||
G |----------------|----------------|555555555555555-||
D |1010101010101010|9999999999999999|555555555555555-||
A |1010101010101010|9999999999999999|333333333333333-||
E |-8-8-8-8-8-8-8-8|7777777777777777|----------------||
    . . . . . . . .                   ........

Chorus (I lied my face off when I said that I would be OK...) (Some of this you have to 
extremely close for)
E |----------------|----------------||
B |--------44444444|55555555--------||
G |----999944444444|55555555--------||
D |2222xxxx44444444|555555555555----||
A |2222777722222222|333333335555----||
E |0000------------|--------333323/2||x4

Bridge
E |----------------|----------------|----------------|----------------||
B |----------------|----------------|----------------|----------------||
G |---44-----------|9999111111111212|121212121212----|----------------||
D |22-44-----------|9999111111111212|1212121212121010|1010101010109999||
A |22-22-3/2/3~->>-|7777-9-9-9-91010|1010101010101010|1010101010109999||
E |00----------->>-|----------------|-------------8-8|-8-8-8-8-8-87777||

E |----------------|----------------|----------------|----------------||
B |----------------|----------------|----------------|----------------||
G |----999911111111|1212121212121212|----------------|----------------||
D |9999999911111111|1212121212121212|1010101010101010|99999999--------||
A |99997777-9-9-9-9|1010101010101010|1010101010101010|99999999--------||
E |7777------------|----------------|-8-8-8-8-8-8-8-8|77777777--------||

Verse 2 (Well it's not fair, it's not even close...)
E |----------------|----------------|----------------|----------------||
B |----------------|----------------|----------------|----------------||
G |9999111111111212|121212121212----|----------------|----999911111111||
D |9999111111111212|1212121212121010|1010101010109999|9999999911111111||
A |7777-9-9-9-91010|1010101010101010|1010101010109999|99997777-9-9-9-9||
E |----------------|-------------8-8|-8-8-8-8-8-87777|7777------------||
   .... . . . . . .  . . . . . . . .  . . . . . ..... ........ . . . .
E |----------------|----------------|----------------|----------------||
B |----------------|----------------|----------------|----------------||
G |1212121212121212|----------------|--------999-1111|11-121212-121212||
D |1212121212121212|1010101010101010|99999999999-1111|11-121212-121212||
A |1010101010101010|1010101010101010|99999999777--9-9|-9-101010-101010||
E |----------------|-8-8-8-8-8-8-8-8|77777777--------|----------------||
    . . . . . . . .  . . . . . . . . ..      ..   . .     . .    . .

E |----------------|----------------|----------------||
B |----------------|----------------|----------------||
G |----------------|----------------|555555555555555-||
D |1010101010101010|9999999999999999|555555555555555-||
A |1010101010101010|9999999999999999|333333333333333-||
E |-8-8-8-8-8-8-8-8|7777777777777777|----------------||
    . . . . . . . .                   ........

Chorus (I lied my face off when I said that I would be OK...) (Some of this you have to 
extremely close for)
E |----------------|----------------||
B |--------44444444|55555555--------||
G |----999944444444|55555555--------||
D |2222xxxx44444444|555555555555----||
A |2222777722222222|333333335555----||
E |0000------------|--------333323/2||x4

Fill
E |----------------||
B |----------------||
G |----------------||
D |2~-2-0--------2~||
A |2~-----3-2/3/22~||
E |0~------------0~||

Bridge (And like and empty sterile room, somehow I made a mess...)
E |----------------|----------------|----------------|----------------||
B |----------------|----------------|----------------|----------------||
G |99999999--------|5555555577777777|99999999--------|5555555577777777||
D |9999999999999999|5555555577777777|9999999999999999|5555555577777777||
A |7777777799999999|3333333355555555|7777777799999999|3333333355555555||
E |--------77777777|----------------|--------77777777|----------------||
   ................ ..........       ................ ..........
E |----------------|----------------|----------------|----------------||
B |----------------|----------------|----------------|----------------||
G |99999999--------|5555555577777777|99999999--------|5555555577-777--||
D |9999999999999999|5555555577777777|9999999999999999|5555555577-777--||
A |7777777799999999|3333333355555555|7777777799999999|3333333355-555--||
E |--------77777777|----------------|--------77777777|----------------||
   ........
E |----------------|----------------|----------------|----------------||
B |----------------|----------------|----------------|----------------||
G |7777777777555555|44444444477755-4|7777777755555555|44444444777555-4||
D |7777777775555555|44444444477755-4|7777777755555555|44444444777555-4||
A |5555555553333333|22222222255533-2|5555555533333333|22222222555333-2||
E |----------------|----------------|----------------|----------------||

Chorus (I lied my face off when I said that I would be OK...) (Some of this you have to 
extremely close for)
E |----------------|----------------|----------------|----------------||
B |--------44444444|55555555--------|--------44444444|----------------||
G |----999944444444|55555555--------|----999944444444|5~--------------||
D |2222xxxx44444444|555555555555----|2222xxxx44444444|5~-5-------2~-2~||
A |2222777722222222|333333335555----|2222777722222222|3~-5-------2~-2~||
E |0000------------|--------333323/2|0000------------|---3-2/3/2-0~-0~||

_________________________________________________________________________
5. MY FRIEND PETER

Intro
E |----------------|----------------|----------------|----------------||
B |----------------|----------------|----------------|----------------||
G |9999999999999999|66666666--------|8/99999999999999|6666666699999999||
D |xxxxxxxxxxxxxxxx|6666666699999999|x-xxxxxxxxxxxxxx|6666666699999999||
A |7777777777777777|4444444499999999|6/77777777777777|4444444499999999||
E |----------------|--------77777777|----------------|--------77777777||

E |----------------|----------------|----------------|----------------||
B |----------------|----------------|----------------|----------------||
G |8/9999998/999999|66666666--------|----------------|----------------||
D |x-xxxxxxx-xxxxxx|6666666699999999|7777777777777777|9999999977777777||
A |6/7777776/777777|4444444499999999|7777777777777777|9999999977777777||
E |----------------|--------77777777|5555555555555555|7777777755555555||

Verse (I don't care who you've been sleeping with these days)
E |----------------|----------------|----------------|----------------||
B |----------------|----------------|----------------|----------------||
G |99-66----99-66--|8/99999999999999|66666666--------|----------------||
D |99-66-99-99-66-9|x-xxxxxxxxxxxxxx|6666666699999999|7777777777777777||
A |77-44-99-77-44-9|6/77777777777777|4444444499999999|7777777777777777||
E |------77-------7|----------------|--------77777777|5555555555555555||

E |----------------||
B |----------------||
G |----------------||
D |9999999977777777||
A |9999999977777777||
E |7777777755555555||

Bridge
E |----------------|----------------|----------------|----------------||
B |----------------|----------------|----------------|----------------||
G |8/99999999999999|66666666--------|8/99999998/99999|66666666--------||
D |x-xxxxxxxxxxxxxx|6666666699999999|x-xxxxxxxx-xxxxx|6666666699999999||
A |6/77777777777777|4444444499999999|6/77777776/77777|4444444499999999||
E |----------------|--------77777777|----------------|--------77777777||

Verse (I don't care who you've been dining with these days...)
E |----------------|----------------|----------------|----------------||
B |----------------|----------------|----------------|----------------||
G |99-66----99-66--|8/99999999999999|66666666--------|----------------||
D |99-66-99-99-66-9|x-xxxxxxxxxxxxxx|6666666699999999|7777777777777777||
A |77-44-99-77-44-9|6/77777777777777|4444444499999999|7777777777777777||
E |------77-------7|----------------|--------77777777|5555555555555555||

E |----------------||
B |----------------||
G |----------------||
D |9999999977777777||
A |9999999977777777||
E |7777777755555555||

Chorus (And I'm tired of sleeping with myself...)
E |----------------|----------------|----------------|----------------||
B |----------------|----------------|----------------|----------------||
G |----------------|----------------|x3--------------|----------------||
D |2222222277777777|9999999999999999|--7~--9~-7~-----|----------------||
A |2222222277777777|9999999999999999|--7~--9~-7~-----|----------------||
E |0000000055555555|7777777777777777|--5~--7~-5~-----|----------------||

Bridge
E |----------------|----------------|----------------|----------------||
B |----------------|----------------|----------------|----------------||
G |8/99999999999999|66666666--------|8/99999998/99999|66666666--------||
D |x-xxxxxxxxxxxxxx|6666666699999999|x-xxxxxxxx-xxxxx|6666666699999999||
A |6/77777777777777|4444444499999999|6/77777776/77777|4444444499999999||
E |----------------|--------77777777|----------------|--------77777777||

Verse 3 (I don't care who you've been kissin' on these days...)
E |----------------|----------------|----------------|----------------||
B |----------------|----------------|----------------|----------------||
G |9~--------9~----|----------------|----------------|----------------||
D |9~-11~-9~-9~-11~|9~-7777777777777|777-7-9---------|----------------||
A |7~-11~-9~-7~-11~|9~-7777777777777|777-7-9---------|----------------||
E |----9~-7~-----9~|7~-5555555555555|555-5-7---------|----------------||

Chorus (And I'm tired of sleeping with myself...)
E |----------------|----------------|----------------|----------------||
B |----------------|----------------|----------------|----------------||
G |----------------|----------------|x3--------------|----------------||
D |2222222277777777|9999999999999999|--7~--9~-7~-2~--|2x--------------||
A |2222222277777777|9999999999999999|--7~--9~-7~-2~--|2x--------------||
E |0000000055555555|7777777777777777|--5~--7~-5~-0~--|0x--------------||


__________________________________________________________________________
6.SNAKE OIL TANKER

Intro
E |----------------|----------------|----------------|----------------||
B |----------------|----------------|----------------|----------------||
G |----------------|-------------7//|----------------|----------------||
D |7---77---77---79|9-7---77---7-7//|----------------|----------------||
A |7-xx77-xx77-xx79|9-7-xx77-xx7-5//|----------------|----------------||
E |5-xx55-xx55-xx57|7-5-xx55-xx5----|----------------|----------------||

Verse (This time you've dug yourself an anchor...)
E |----------------|----------------|----------------|----------------||
B |----------------|----------------|----------------|----------------||
G |----------------|7777777777777777|----------------|7777777799999999||
D |4444444444444444|7777777777777777|4444444444444444|7777777799999999||
A |4444444444444444|5555555555555555|4444444444444444|5555555577777777||
E |2222222222222222|----------------|2222222222222222|----------------||x2

Chorus (I know that you wish I was dead...)
E |----------------|----------------|----------------|----------------||
B |----------------|----------------|----------------|----------------||
G |----------------|----------------|6666666666666666|----------------||
D |7777777777777777|7777777777777777|6666666666666666|4-4444-2-2222---||
A |7777777777777777|7777777777777777|4444444444444444|4-4444-2-2222---||
E |5555555555555555|5555555555555555|----------------|2-2222-0-0000---||x2

Bridge
E |----------------|----------------|----------------|----------------||
B |----------------|----------------|----------------|----------------||
G |----------------|-------------7//|----------------|----------------||
D |7---77---77---79|9-7---77---7-7//|----------------|----------------||
A |7-xx77-xx77-xx79|9-7-xx77-xx7-5//|----------------|----------------||
E |5-xx55-xx55-xx57|7-5-xx55-xx5----|----------------|----------------||

Verse 2 (This time you've dug yourself an anchor...)
E |----------------|----------------|----------------|----------------||
B |----------------|----------------|----------------|----------------||
G |----------------|----------------|----------------|----------------||
D |4---------------|4---------------|----------------|----------------||
A |4------------->>|4---------------|----------------|-------------->>||
E |2------------->>|2---------------|----------------|-------------->>||

Chorus (I know that you wish I was dead...)
E |----------------|----------------|----------------|----------------||
B |----------------|----------------|----------------|----------------||
G |----------------|----------------|6666666666666666|----------------||
D |7777777777777777|7777777777777777|6666666666666666|4-4444-2-2222---||
A |7777777777777777|7777777777777777|4444444444444444|4-4444-2-2222---||
E |5555555555555555|5555555555555555|----------------|2-2222-0-0000---||x2

Outro
E |----------------|----------------|----------------|----------------||
B |----------------|----------------|----------------|----------------||
G |----------------|-------------7-6|4---------------|----------------||
D |7---77---77---79|9-7---77---7-7-6|4-467/----------|----------------||
A |7-xx77-xx77-xx79|9-7-xx77-xx7-5-4|2-467/----------|----------------||
E |5-xx55-xx55-xx57|7-5-xx55-xx5----|--245/----------|----------------||

_____________________________________________________________________________
7. SOUTHERN ROCK

Verse (Can't believe my heart's still pounding...)
E |----------------|----------------|----------------|----------------||
B |----------------|----------------|----------------|----------------||
G |----------------|----------------|9~-(x3)---------|----------------||
D |----6-----7-----|9-----7-----6---|9~----------6---|--7-----99999999||
A |0-0---0-0---0-0-|--0-0---0-0---0-|7~------0-0---0-|0---0-0---------||
E |----------------|----------------|----------------|----------------||


Chorus (Fallen angels flown away...)
E |----------------|----------------|----------------|----------------||
B |----------------|----------------|----------------|----------------||
G |9999999999999999|888-------------|----------------|888-------------||
D |9999999999999999|xxx-6666---222--|--99-999-999-999|xxx-6666--222---||
A |7777777777777777|666-666677-22224|6-99-999-999-999|666-666677222246||
E |----------------|----444444-00002|4-77-777-777-777|----444444000024||last two measures x2

E |----------------|----------------||
B |----------------|----------------||
G |----------------|888-------------||
D |99-999-999-9999-|xxx-6666--777999||
A |99-999-999-9999-|666-666677777999||
E |77-777-777-7777-|----444444555777||

Verse (Hard to believe my heart stopped pounding...)
E |----------------|----------------|----------------|----------------||
B |----------------|----------------|----------------|----------------||
G |----------------|----------------|9~-(x3)---------|----------------||
D |----6-----7-----|9-----7-----6---|9~----------6---|--7-----99999999||
A |0-0---0-0---0-0-|--0-0---0-0---0-|7~------0-0---0-|0---0-0---------||
E |----------------|----------------|----------------|----------------||

Chorus (I got so scared that I forgot my name...)
E |----------------|----------------|----------------|----------------||
B |----------------|----------------|----------------|----------------||
G |9999999999999999|888-------------|----------------|888-------------||
D |9999999999999999|xxx-6666---222--|--99-999-999-999|xxx-6666--222---||
A |7777777777777777|666-666677-22224|6-99-999-999-999|666-666677222246||
E |----------------|----444444-00002|4-77-777-777-777|----444444000024||last two measures x2

E |----------------|----------------||
B |----------------|----------------||
G |----------------|888-------------||
D |99-999-999-9999-|xxx-6666--777999||
A |99-999-999-9999-|666-666677777999||
E |77-777-777-7777-|----444444555777||

Bridge
E |----------------|----------------|----------------|----------------||
B |----------------|----------------|----------------|----------------||
G |----------------|----------------|----------------|----------------||
D |9~--7-6------6--|7/11-9/7-6h7-9--|7/11-9/7-6h7-9--|7/11-9-999999999||
A |0~--0-0-7~--0---|--------------7~|--------------7~|----------------||
E |--------0~------|--------------0~|--------------0~|----------------||

E |----------------||
B |----------------||
G |----------------||
D |999999999999999-||
A |777777777777777-||
E |----------------||
   ...........

Outro
E |----------------|----------------|----------------|----------------||
B |----------------|----------------|----------------|----------------||
G |----------------|--------------99|999999----------|(x3)------------||
D |9-999-999-999-99|9-999-999-999-99|999999-66677777-|-----9-999-999-9||
A |9-999-999-999-99|9-999-999-999-77|777777-66677777-|-----9-999-999-9||
E |7-777-777-777-77|7-777-777-777---|-------44455555-|-----7-777-777-7||

E |----------------|----------------|----------------|----------------||
B |----------------|----------------|----------------|----------------||
G |----------------|---99-999-------|----------------|----------------||
D |99-999-999-999-9|99-99-999-666-77|77-9-999-999-999|999-999-999-999-||
A |99-999-999-999-9|99-77-777-666-77|77-9-999-999-999|999-999-999-999-||
E |77-777-777-777-7|77--------444-55|55-7-777-777-777|777-777-777-777-||

   Guitar 1
E |----------------|----------------|----------------||
B |----------------|----------------|----------------||
G |4/11------------|----------------|----------------||
D |x--x------------|----------------|----------------||
A |2/-9-(strum until the end)-------|----------------||
E |----------------|----------------|----------------||
  |
  |Guitar 2
E |----------------|----------------|----------------|----------------||
B |----------------|----------------|----------------|----------------||
G |----------------|----------------|----------------|----------------||
D |999-999-999-999-|99-9-7-6-4-2~---|----------------|----------------||
A |999-999-999-999-|99-9-7-6-4-2~---|----------------|----------------||
E |777-777-777-777-|77-7-5-4-2-0~---|----------------|----------------||

______________________________________________________________________________
8. COOKING WINE

Intro
E |----------------|----------------|----------------|----------------||
B |----------------|----------------|----------------|----------------||
G |7-7-7-----------|----------7-7-7-|----------------|7-7-7-----------||
D |7-7-7-7-777-5-55|55-5-5555-7-7-7-|7-777-4-44-5-555|7-7-7-7-777-5-55||
A |5-5-5-7-777-5-55|55-5-5555-5-5-5-|7-777-4-44-5-555|5-5-5-7-777-5-55||
E |------5-555-3-33|33-3-3333-------|5-555-2-22-3-333|------5-555-3-33||

E |----------------|----------------||
B |----------------|----------------||
G |----------7-7-7-|----------------||
D |55-5-5555-7-7-7-|7-777-4445555---||
A |55-5-5555-5-5-5-|7-777-4445555---||
E |33-3-3333-------|5-555-2223333---||
                          .......

Verse (Sorry I'm late, I was out spoiling my liver...)
E |----------------|----------------|----------------|----------------||
B |----------------|----------------|----------------|----------------||
G |----------------|----------------|----------------|----------------||
D |7~-------7~-----|---7~--------7~-|----------------|----------------||
A |5~-7~-5~-5~-7~--|5~-5~-7~-55~-5~-|7~-4~/5~--------|----------------||
E |---5~-3~----5~--|3~----5~-33~----|5~-2~/3~--------|----------------||

Bridge
E |----------------|----------------|----------------|----------------||
B |----------------|----------------|----------------|----------------||
G |7-7-7-----------|-------7-7-7----|----------------|----------------||
D |7-7-7-7-777-5-55|44-455-7-7-7-7-7|77-4445555------|----------------||
A |5-5-5-7-777-5-55|44-455-5-5-5-7-7|77-4445555------|----------------||
E |------5-555-3-33|22-233-------5-5|55-2223333------|----------------||
                                        .......

Chorus (And is it strong enough...)
   Guitar 1
E |----------------|----------------|----------------|----------------||
B |----------------|----------------|----------------|----------------||
G |----------------|777-9-9999------|----------------|----------------||
D |5-555-555-555-55|777-9-9999-(x3)-|5-555-555-555-55|5-555-555-555-55||
A |5-555-555-555-55|555-7-7777------|5-555-555-555-55|5-555-555-555-55||
E |3-333-333-333-33|----------------|3-333-333-333-33|3-333-333-333-33||
  |
  |Guitar 2
E |----------------|----------------|----------------|----------------||
B |----------------|----------------|----------------|----------------||
G |7-777-777-777-77|777-9-9999-(x3)-|7-777-777-777-77|7-777-777-777-77||
D |x-xxx-xxx-xxx-xx|xxx-x-xxxx------|x-xxx-xxx-xxx-xx|x-xxx-xxx-xxx-xx||
A |5-555-555-555-55|555-7-7777------|5-555-555-555-55|5-555-555-555-55||
E |----------------|----------------|----------------|----------------||

Bridge
E |----------------|----------------|----------------|----------------||
B |----------------|----------------|----------------|----------------||
G |7-7-7-----------|-------7-7-7----|----------------|----------------||
D |7-7-7-7-777-5-55|44-455-7-7-7-7-7|77-4-44-5-555---|----------------||
A |5-5-5-7-777-5-55|44-455-5-5-5-7-7|77-4-44-5-555---|----------------||
E |------5-555-3-33|22-233-------5-5|55-2-22-3-333---|----------------||

Verse (Sorry I'm late I was out spoilin' my liver...)
E |----------------|----------------|----------------|----------------||
B |----------------|----------------|----------------|----------------||
G |7-7-7-----------|-------7-7-7----|----------------|----------------||
D |7-7-7-7-777-5-55|44-455-7-7-7-7-7|77-4-44-5-555-7-|7-7-7-777-5-5544||
A |5-5-5-7-777-5-55|44-455-5-5-5-7-7|77-4-44-5-555-5-|5-5-7-777-5-5544||
E |------5-555-3-33|22-233-------5-5|55-2-22-3-333---|----5-555-3-3322||

E |----------------|----------------||
B |----------------|----------------||
G |----7-7-7-------|----------------||
D |455-7-7-7-7-777-|4445555---------||
A |455-5-5-5-7-777-|4445555---------||
E |233-------5-555-|2223333---------||

Chorus (And is it strong enough...)
   Guitar 1
E |----------------|----------------|----------------|----------------||
B |----------------|----------------|----------------|----------------||
G |----------------|777-9-9999------|----------------|----------------||
D |5-555-555-555-55|777-9-9999-(x3)-|5-555-555-555-55|5555-5555-55-5-5||
A |5-555-555-555-55|555-7-7777------|5-555-555-555-55|5555-5555-55-5-5||
E |3-333-333-333-33|----------------|3-333-333-333-33|3333-3333-33-3-3||
  |
  |Guitar 2
E |----------------|----------------|----------------|----------------||
B |----------------|----------------|----------------|----------------||
G |7-777-777-777-77|777-9-9999-(x3)-|7-777-777-777-77|7777-7777-77-7-7||
D |x-xxx-xxx-xxx-xx|xxx-x-xxxx------|x-xxx-xxx-xxx-xx|xxxx-xxxx-xx-x-x||
A |5-555-555-555-55|555-7-7777------|5-555-555-555-55|5555-5555-55-5-5||
E |----------------|----------------|----------------|----------------||

   Guitar 1
E |----------------|----------------||
B |----------------|----------------||
G |----------------|----------------||
D |55-555-555-55-55|55-5555-55------||
A |55-555-555-55-55|55-5555-55------||
E |33-333-333-33-33|33-3333-33------||
  |
  |Guitar 2
E |----------------|----------------||
B |----------------|----------------||
G |77-777-777-77-77|77-7777-77------||
D |xx-xxx-xxx-xx-xx|xx-xxxx-xx------||
A |55-555-555-55-55|55-5555-55------||
E |----------------|----------------||

Outro
   Guitar 1
E |----------------|----------------|----------------|----------------||
B |----------------|----------------|----------------|----------------||
G |7-7-7-------1212|12-1111-99-776-7|7-7-------------|----7-7-7-------||
D |7-7-7-7-777--x-x|-x--x-x-xx-xxx-7|7-7-7-777-4-44-5|555-7-7-7-7-777-||
A |5-5-5-7-777-1010|10--9-9-77-554-5|5-5-7-777-4-44-5|555-5-5-5-7-777-||
E |------5-555-----|----------------|----5-555-2-22-3|333-------5-555-||
  |
  |Guitar 2
E |----------------|----------------|----------------|----------------||
B |----------------|----------------|----------------|----------------||
G |7-7-7-----------|----------7-7-7-|----------------|7-7-7-----------||
D |7-7-7-7-777-5-55|55-5-5555-7-7-7-|7-777-4-44-5-555|7-7-7-7-777-5-55||
A |5-5-5-7-777-5-55|55-5-5555-5-5-5-|7-777-4-44-5-555|5-5-5-7-777-5-55||
E |------5-555-3-33|33-3-3333-------|5-555-2-22-3-333|------5-555-3-33||

   Guitar 1
E |----------------|----------------|----------------|----------------||
B |----------------|----------------|----------------|----------------||
G |121212-1111-99-7|76-7-7-7--------|-------7~-------|----------------||
D |-x-x-x--x-x-xx-x|xx-7-7-7-7-777-4|44557777~-------|----------------||
A |101010--9-9-77-5|54-5-5-5-7-777-4|44557775~-------|----------------||
E |----------------|---------5-555-2|2233555---------|----------------||
  |                                . .......
  |Guitar 2
E |----------------|----------------||
B |----------------|----------------||
G |----------7-7-7-|--------------7~||
D |55-5-5555-7-7-7-|7-777-444557777~||
A |55-5-5555-5-5-5-|7-777-444557775~||
E |33-3-3333-------|5-555-22233555--||
                          ........

_______________________________________________________________________________
9. FOR YOUR LUNGS ONLY

Intro
E |----------------|----------------|----------------|----------------||
B |----------------|----------------|----------------|----------------||
G |----------------|----------------|----------------|----------------||
D |2~-7-5-3-2h3p2--|2~-7-9-10-9p7-2~|7-5-3-2h3p2-2~-5|555555555555----||
A |0~--------------|0~------------0~|------------0~-3|333333333333----||
E |----------------|----------------|----------------|----------------||
                                                      ......

Verse (A right turn gone wrong...)
E |----------------|----------------|----------------|----------------||
B |----------------|----------------|----------------|----------------||
G |----------------|----------------|----------------|----------------||
D |7775-555-5555555|3333333333333333|7775-555-5555555|1010101010101010||
A |7773-335-5555555|3333333333333333|7773-335-5555555|-8-8-8-8-8-8-8-8||
E |555----3-3333333|1111111111111111|555----3-3333333|----------------||
                                                         . . . . . . .
E |----------------|----------------|----------------|----------------||
B |----------------|----------------|----------------|----------------||
G |----------------|----------------|----------------|----------------||
D |10101010101010--|7775-555-5555555|333-333-333-333-|7775-555-5555555||
A |-8-8-8-8-8-8-8--|7773-335-5555555|333-333-333-333-|7773-335-5555555||
E |----------------|555----3-3333333|111-111-111-111-|555----3-3333333||
      . .   . .
E |----------------||
B |----------------||
G |----------------||
D |3333333333333333||
A |3333333333333333||
E |1111111111111111||

Chorus (Repercussion, what got us this far...)
E |----------------|----------------|----------------|----------------||
B |----------------|----------------|----------------|----------------||
G |----------------|----------------|----------------|----------------||
D |7775-555-5555555|7775-557-7777777|7775-555-5555555|3333333333333333||
A |7773-335-5555555|7773-337-7777777|7773-335-5555555|3333333333333333||
E |555----3-3333333|555----5-5555555|555----3-3333333|1111111111111111||x2

Verse 2 (Son sits out in the sun...)
E |----------------|----------------|----------------|----------------||
B |----------------|----------------|----------------|----------------||
G |----------------|----------------|----------------|----------------||
D |7775-555-5555555|3~--------------|7775-555-5555555|1010101010101010||
A |7773-335-5555555|3~--------------|7773-335-5555555|-8-8-8-8-8-8-8-8||
E |555----3-3333333|1~--------------|555----3-3333333|----------------||
                                                         . . . . . . .
E |----------------|----------------|----------------|----------------||
B |----------------|----------------|----------------|----------------||
G |----------------|----------------|----------------|----------------||
D |10101010101010--|7775-555-5555555|3~--------------|7775-555-5555555||
A |-8-8-8-8-8-8-8--|7773-335-5555555|3~--------------|7773-335-5555555||
E |----------------|555----3-3333333|1~--------------|555----3-3333333||
      . .   . .
E |----------------||
B |----------------||
G |----------------||
D |3333333333333333||
A |3333333333333333||
E |1111111111111111||

Chorus (Repercussion, what got us this far...)
E |----------------|----------------|----------------|----------------||
B |----------------|----------------|----------------|----------------||
G |----------------|----------------|----------------|----------------||
D |7775-555-5555555|7775-557-7777777|7775-555-5555555|3333333333333333||
A |7773-335-5555555|7773-337-7777777|7773-335-5555555|3333333333333333||
E |555----3-3333333|555----5-5555555|555----3-3333333|1111111111111111||x2

Outro
E |----------------|----------------|----------------|----------------||
B |----------------|----------------|----------------|----------------||
G |-------12-121212|12121212--------|1414141414141414|-------1212-1010||
D |7775-55-x--x-x-x|-x-x-x-x7775-55-|-x-x-x-x-x-x-x-x|7775-55-x-x--x-x||
A |7773-3310-101010|101010107773-33-|1212121212121212|7773-331010--8-8||
E |555-------------|--------555-----|----------------|555-------------||

E |----------------|----------------|----------------|----------------||
B |----------------|----------------|----------------|----------------||
G |9977-5~---------|1212121212121212|-------14-141414|14141414--------||
D |xxxx-3~-7775-55-|-x-x-x-x-x-x-x-x|7775-55-x--x-x-x|-x-x-x-x7775-55-||
A |7755-3~-7773-33-|1010101010101010|7773-3312-121212|121212127773-33-||
E |--------555-----|----------------|555-------------|--------555-----||

E |----------------|----------------|----------------|----------------||
B |----------------|----------------|----------------|----------------||
G |1212-10109977-5~|4~-5~-4~--------|1212121212121212|-------14-141414||
D |-x-x--x-xxxxx-3~|3~-3~-3~-7775-55|-x-x-x-x-x-x-x-x|7775-55-x--x-x-x||
A |1010--8-87755-3~|2~-3~-2~-7773-33|1010101010101010|7773-3312-121212||
E |----------------|---------555----|----------------|555-------------||

E |----------------|----------------|----------------|----------------||
B |----------------|----------------|----------------|----------------||
G |14141414--------|1212-10109977555|5-444-444-5555-4|44-444----------||
D |-x-x-x-x7775-55-|-x-x--x-xxxxx333|3-333-333-3333-3|33-333---7775-55||
A |121212127773-33-|1010--8-87755333|3-222-222-3333-2|22-222---7773-33||
E |--------555-----|----------------|----------------|------10/555----||

E |----------------|----------------|----------------|----------------||
B |----------------|----------------|----------------|----------------||
G |1212121212121212|-------14-141414|14141414--------|1212-10109977555||
D |-x-x-x-x-x-x-x-x|7775-55-x--x-x-x|-x-x-x-x7775-55-|-x-x--x-xxxxx333||
A |1010101010101010|7773-3312-121212|121212127773-33-|1010--8-87755333||
E |----------------|555-------------|--------555-----|----------------||

E |----------------|----------------||
B |----------------|----------------||
G |5-444-444/------|----------------||
D |3-333-333/------|----------------||
A |3-222-222/------|----------------||
E |----------------|----------------||

_______________________________________________________________________________
10. EXPLODING BOY

Intro
E |----------------|----------------|----------------|----------------||
B |----------------|----------------|----------------|----------------||
G |---------------7|7777-7777777----|----------------|----------------||
D |8-8888-8888888-7|7777-7777777-3-3|333-3333333-3-33|33-3333333------||
A |8-8888-8888888-5|5555-5555555-3-3|333-3333333-3-33|33-3333333------||
E |6-6666-6666666--|-------------1-1|111-1111111-1-11|11-1111111------||x2

Verse (I couldn't hear a word you said, I couldn't hear at all...)
E |----------------|----------------|----------------|----------------||
B |----------------|----------------|----------------|----------------||
G |---------------7|7777-7777777----|----------------|----------------||
D |8-8888-8888888-7|7777-7777777-3-3|333-3333333-3-33|33-3333333------||
A |8-8888-8888888-5|5555-5555555-3-3|333-3333333-3-33|33-3333333------||
E |6-6666-6666666--|-------------1-1|111-1111111-1-11|11-1111111------||x4

Chorus (Tell yourself we'll start again...)
E |----------------|----------------|----------------|----------------||
B |----------------|----------------|----------------|----------------||
G |----------------|(x3)------------|----------------|----------------||
D |5-x5-555-3-x3333|-----33333333---|----------------|----------------||
A |5-x5-555-3-x3333|-----33333333---|----------------|----------------||
E |3-x3-333-1-x1111|-----11111111---|----------------|----------------||

Bridge(Not Today)
E |----------------|----------------|----------------|----------------||
B |----------------|----------------|----------------|----------------||
G |---------------7|7777-7777777----|----------------|----------------||
D |8-8888-8888888-7|7777-7777777-3-3|333-3333333-3-33|33-3333333------||
A |8-8888-8888888-5|5555-5555555-3-3|333-3333333-3-33|33-3333333------||
E |6-6666-6666666--|-------------1-1|111-1111111-1-11|11-1111111------||x4

Verse (I couldn't hear a word you said, I couldn't hear at all...)
E |----------------|----------------|----------------|----------------||
B |----------------|----------------|----------------|----------------||
G |---------------7|7777-7777777----|----------------|----------------||
D |8-8888-8888888-7|7777-7777777-3-3|333-3333333-3-33|33-3333333------||
A |8-8888-8888888-5|5555-5555555-3-3|333-3333333-3-33|33-3333333------||
E |6-6666-6666666--|-------------1-1|111-1111111-1-11|11-1111111------||x4

Chorus (Tell yourself we'll start again...)
E |----------------|----------------|----------------|----------------||
B |----------------|----------------|----------------|----------------||
G |----------------|(x3)------------|----------------|----------------||
D |5-x5-555-3-x3333|-----33333333---|----------------|----------------||
A |5-x5-555-3-x3333|-----33333333---|----------------|----------------||
E |3-x3-333-1-x1111|-----11111111---|----------------|----------------||

Outro (Not Today)
E |----------------|----------------|----------------|----------------||
B |----------------|----------------|----------------|----------------||
G |---------------7|7777-7777777----|----------------|----------------||
D |8-8888-8888888-7|7777-7777777-3-3|333-3333333-3-33|33-3333333------||
A |8-8888-8888888-5|5555-5555555-3-3|333-3333333-3-33|33-3333333------||
E |6-6666-6666666--|-------------1-1|111-1111111-1-11|11-1111111------||x4

End on
E |----------------||
B |----------------||
G |----------------||
D |x33~------------||
A |x33~------------||
E |x11~~-----------||
_____________________________________________________________________________
11. SUNDIALS

Intro
E |----------------|----------------|----------------|----------------||
B |----------------|----------------|----------------|----------------||
G |----------------|----------------|----------------|----------------||
D |----------------|----------------|--22222222444222|----------------||
A |/7-7------7-----|7/6------6------|6-00000000000000|5-6-------------||
E |-0-0-0000-0-0000|0-0-0000-0-0000-|0---------------|----------------||
        ....   ....     ....   ....

Verse (You were like a toilet bowl at the end of a rainbow...)
E |----------------|----------------|----------------|----------------||
B |----------------|----------------|----------------|----------------||
G |----------------|----------------|----------------|----------------||
D |----------------|----------------|22222222444222--|----------------||
A |7------7------7/|6------6------6-|00000000000000-5|6---------------||
E |0-0000-0-0000-0-|0-0000-0-0000-0-|----------------|----------------||x4
     ....   ....      ....   ....

E |----------------|----------------|----------------|----------------||
B |----------------|----------------|----------------|----------------||
G |----------------|----------------|8888889999x9----|----------------||
D |----------------|----------------|xxxxxxxxxxxx----|----------------||
A |7------7------7/|6------6------6-|6666667777x7----|----------------||
E |0-0000-0-0000-0-|0-0000-0-0000-0-|----------------|----------------||
     ....   ....      ....   ....

Chorus (Day or night, fuck if I know...)
E |----------------|----------------|----------------|----------------||
B |----------------|----------------|----------------|----------------||
G |8989111112121114|12111212-121212-|111111-11111111-|11111111-----11~||
D |xxxx-x-x-x-x-x-x|-x-x-x-x--x-x-x-|-x-x-x--x-x-x-x-|-x-x-x-x------x-||
A |6767-9-91010-912|10-91010-101010-|-9-9-9--9-9-9-9-|-9-9-9-9------9~||
E |0000-0-0-0-0-0-0|-0-0------------|----------------|-0-0-0-0--------||
                                     1st & 2nd ending 3rd ending    4th
   NOT 100% SURE, THIS PART IS REALLY WEIRD

Bridge
E |----------------|----------------|----------------|----------------||
B |----------------|----------------|----------------|----------------||
G |----------------|----------------|----------------|----------------||
D |----------------|----------------|--22222222444222|----------------||
A |/7-7------7-----|7/6------6------|6-00000000000000|5-6-------------||
E |-0-0-0000-0-0000|0-0-0000-0-0000-|0---------------|----------------||repeat w/o slide
        ....   ....     ....   ....

Verse 2 (And we laid in my bed like a trainwreck)
E |----------------|----------------||
B |----------------|----------------||
G |----------------|----------------||
D |---2222222244422|2---------------||
A |7~-0000000000000|0-5-6-----------||
E |0~--------------|----------------||x2

E |----------------|----------------|----------------|----------------||
B |----------------|----------------|----------------|----------------||
G |----------------|----------------|----------------|----------------||
D |----------------|----------------|22222222444222--|----------------||
A |7------7------7/|6------6------6-|00000000000000-5|6---------------||
E |0-0000-0-0000-0-|0-0000-0-0000-0-|----------------|----------------||
     ....   ....      ....   ....

E |----------------|----------------|----------------|----------------||
B |----------------|----------------|----------------|----------------||
G |----------------|----------------|8888889999x9----|----------------||
D |----------------|----------------|xxxxxxxxxxxx----|----------------||
A |7------7------7/|6------6------6-|6666667777x7----|----------------||
E |0-0000-0-0000-0-|0-0000-0-0000-0-|----------------|----------------||
     ....   ....      ....   ....

Chorus (Day or night, fuck if I know...)
E |----------------|----------------|----------------|----------------||
B |----------------|----------------|----------------|----------------||
G |8989111112121114|12111212-121212-|111111-11111111-|11111111-----11~||
D |xxxx-x-x-x-x-x-x|-x-x-x-x--x-x-x-|-x-x-x--x-x-x-x-|-x-x-x-x------x-||
A |6767-9-91010-912|10-91010-101010-|-9-9-9--9-9-9-9-|-9-9-9-9------9~||
E |0000-0-0-0-0-0-0|-0-0------------|----------------|-0-0-0-0--------||
                                     1st & 2nd ending 3rd ending    4th

Bridge
E |----------------|----------------|----------------|----------------||
B |----------------|----------------|----------------|----------------||
G |----------------|----------------|----------------|----------------||
D |----------------|------------1010|10-101010-121212|101010----------||
A |101010-101010-10|1010-101010--0-0|-0--0-0-0--0-0-0|-0-0-0-101010-10||
E |-8-8-8--8-8-8--8|-8-8--8-8-8-----|----------------|--------8-8-8--8||

E |----------------|----------------|----------------|----------------||
B |----------------|----------------|----------------|----------------||
G |----------------|----------------|----------------|----------------||
D |----------------|---101010-101010|999-101010------|----------------||
A |1010-101010-1010|10--0-0-0--0-0-0|000--0-0-0------|----------------||
E |-8-8--8-8-8--8-8|-8--------------|----------------|----------------||x3

repeat with mutes in all the spaces

repeat with continuous strumming x2 and a pickslide

Ending
E |----------------|----------------|----------------|----------------||
B |----------------|----------------|----------------|----------------||
G |8989111112121114|12111212-121212-|111111-11111111-|11111111-----11~||
D |xxxx-x-x-x-x-x-x|-x-x-x-x--x-x-x-|-x-x-x--x-x-x-x-|-x-x-x-x------x-||
A |6767-9-91010-912|10-91010-101010-|-9-9-9--9-9-9-9-|-9-9-9-9------9~||
E |0000-0-0-0-0-0-0|-0-0------------|----------------|-0-0-0-0--------||
                                     1st & 2nd ending 3rd ending    4th

_______________________________________________________________________________
12. NOSE OVER TAIL

Intro/Verse 1 (Crack me head open on your kitchen floor...)
E |----------------|----------------|----------------|----------------||
B |----------------|------------(x2)|----------------|----------------||
G |----------------|------119899----|----------------|-----6~---------||
D |9999999-999999-9|99999--99999----|999999-999999-99|9999-6~---------||
A |9999999-777777-9|99999--77777----|999999-777777-99|9999-4~---------||
E |7777777-000000-7|77777-----------|777777-000000-77|7777------------||

Chorus (Fine time to fake a seizure and feel your mouth on mine...)
E |----------------|----------------|----------------|----------------||
B |----------------|----------------|----------------|----------------||
G |6666666666666666|6666666666------|------6666666666|6666666666666666||
D |6666666666666666|6666666666-77-77|77-77-6666666666|6666666666666666||
A |4444444444444444|4444444444-77-77|77-77-4444444444|4444444444444444||
E |----------------|-----------55-44|55-44-----------|----------------||

E |----------------||
B |----------------||
G |------4~--------||
D |77-77-4~--------||
A |77-77-2~--------||
E |55-44-----------||

Bridge
E |----------------|----------------|----------------|----------------||
B |----------------|----------------|(x2)------------|----------------||
G |99-98-4-44444444|66668889-9999999|-----44-44-44---|------44-44-44--||
D |xx-xx-x-xxxxxxxx|xxxxxxxx-xxxxxxx|-----44-44-44-22|22-22-44-44-44-2||
A |77-76-2-22222222|44446667-7777777|-----22-22-22-22|22-22-22-22-22-2||
E |----------------|----------------|--------------00|00-00----------0||

Verse 2 (What ever happened to that silly dream we had?)
E |----------------|----------------|----------------|----------------||
B |----------------|----------------|----------------|----------------||
G |4444444444444444|----------------|4444444444444444|----------------||
D |4444444444444444|2222222222222222|4444444444444444|2---------------||
A |2222222222222222|2222222222222222|2222222222222222|2---------------||
E |----------------|0000000000000000|----------------|0---------------||repeat without stop

Chorus (Your voice like the sound of sirens to a house on fire...)
E |----------------|----------------|----------------|----------------||
B |----------------|----------------|----------------|----------------||
G |6666666666666666|6666666666------|------6666666666|6666666666666666||
D |6666666666666666|6666666666-77-77|77-77-6666666666|6666666666666666||
A |4444444444444444|4444444444-77-77|77-77-4444444444|4444444444444444||
E |----------------|-----------55-44|55-44-----------|----------------||

E |----------------||
B |----------------||
G |------4~--------||
D |77-77-4~--------||
A |77-77-2~--------||
E |55-44-----------||

Bridge
E |----------------|----------------|----------------|----------------||
B |----------------|----------------|----------------|----------------||
G |---8~----8~-----|-----------8888-|8-888888-8------|-----------886-4||
D |2~-x--2~-x--2222|2-222222-2-xxxx-|x-xxxxxx-x-2222-|2-222222-2-xxx-x||
A |2~-6~-2~-6~-2222|2-222222-2-6666-|6-666666-6-2222-|2-222222-2-664-2||
E |0~----0~----0000|0-000000-0------|-----------0000-|0-000000-0------||
               ....   ......   ....    ......   ....    ......

E |----------------|----------------||
B |----------------|----------------||
G |----------------|----------------||
D |77-77-77-44-44-4|4---------------||
A |77-77-77-44-44-4|4---------------||
E |55-55-55-22-22-2|2---------------||x2

E |----------------|----------------|----------------|----------------||
B |----------------|----------------|(x3)------------|----------------||
G |99-98-4-44444444|66668889-9999999|-----99-98-4-444|44444-6666444222||
D |xx-xx-x-xxxxxxxx|xxxxxxxx-xxxxxxx|-----xx-xx-x-xxx|xxxxx-xxxxxxx222||
A |77-76-2-22222222|44446667-7777777|-----77-76-2-222|22222-4444222000||
E |----------------|----------------|----------------|----------------||

E |----------------||
B |----------------||
G |4---------------||
D |4-2~------------||
A |2-2~------------||
E |--0~------------||

_________________________________________________________________________________
13. '97

Intro
E |----------------|----------------|----------------|----------------||
B |----------------|----------------|----------------|----------------||
G |----------9-2~--|---------888-99-|2~--------------|----------------||
D |-7-6-6-4--9-2~/7|9-999999-888-99-|2~/7------------|----------------||
A |0-0-0-0-0-7-0~--|x-xxxxxx-666-77-|0~--------------|----------------||
E |----------------|7-777777--------|----------------|----------------||x3

Verse 1 (I got it now, a blow to my side the size of a cadillac...)
E |----------------|----------------|----------------|----------------||
B |----------------|----------------|----------------|----------------||
G |9-9-9-9-9/11-976|70-666xx666xx444|xx444xx---------|----------------||
D |9-9-9-9-9/11-976|70-666xx666xx444|xx444xx---------|----------------||
A |7-7-7-7---------|---444xx444xx222|xx222xx---------|----------------||
E |----------------|----------------|----------------|----------------||x6

Chorus (But you'll be there to dry my eyes...)
E |----------------|----------------|----------------|----------------||
B |----------------|----------------|----------------|----------------||
G |----------------|----------------|----------------|----------------||
D |7777777777777777|7-99999999999999|9-44444444444444|444666666-777777||
A |7777777777777777|7-99999999999999|9-44444444444444|444666666-777777||
E |5555555555555555|5-77777777777777|7-22222222222222|222444444-555555||
    .... .........     .... .......     .... ........

Bridge (In 97...)
E |----------------|----------------|----------------|----------------||
B |----------------|----------------|----------------|----------------||
G |9-9-9-9-9/11-976|70-666xx666xx444|xx444xx-(x2)----|------42-4444444||
D |9-9-9-9-9/11-976|70-666xx666xx444|xx444xx-------2-|42-2-2--24444444||
A |7-7-7-7---------|---444xx444xx222|xx222xx------0-0|--0-0----2222222||
E |----------------|----------------|----------------|----------------||

E |----------------|----------------|----------------|----------------||
B |----------------|----------------|----------------|----------------||
G |----------------|------42-444-666|999-888---------|-42-444444666666||
D |444666666666--2-|42-2-2--2444-666|999-888--2-42-2-|2--2444444666666||
A |222444444444-0-0|--0-0----222-444|777-666/0-0--0-0|----222222444444||
E |----------------|----------------|----------------|----------------||

E |----------------|----------------|----------------|----------------||
B |----------------|----------------|----------------|----------------||
G |---------42-----|----------------|----------------|----------------||
D |-2-42-2-2--24444|444466677-------|----------------|----------------||
A |0-0--0-0----4444|444466677-------|----------------|----------------||
E |------------2222|222244455-------|----------------|----------------||

Verse 2 (I got it now, a blow to my side the size of a cadillac...)
E |----------------|----------------|----------------|----------------||
B |----------------|----------------|----------------|----------------||
G |9-9-9-9-9/11-976|70-666xx666xx444|xx444xx---------|----------------||
D |9-9-9-9-9/11-976|70-666xx666xx444|xx444xx---------|----------------||
A |7-7-7-7---------|---444xx444xx222|xx222xx---------|----------------||
E |----------------|----------------|----------------|----------------||x4

Bridge 2 (I don't deserve this...)
E |----------------||
B |----------------||
G |9~-9-9~---------||
D |9~-9-9~---------||
A |7~-6/7~---------||
E |----------------||do this a couple times then bass and drums with some feedback

Outro
E |----------------|----------------||
B |----------------|----------------||
G |999999999999-666|666444444-------||
D |999999999999-666|666444444-------||
A |777777666777-444|444222222-------||
E |----------------|----------------||x3

E |----------------|----------------|----------------|----------------||
B |----------------|----------------|----------------|----------------||
G |9-9-9-9-9/11-976|70-666xx666xx444|xx444xx---------|----------------||
D |9-9-9-9-9/11-976|70-666xx666xx444|xx444xx---------|----------------||
A |7-7-7-7---------|---444xx444xx222|xx222xx---------|----------------||
E |----------------|----------------|----------------|----------------||

E |----------------||
B |----------------||
G |9~-8-8-8-9-9----||
D |9~-8-8-8-9-9----||
A |7~-6-6-6-7-7-7br||
E |----------------||
comments
print report bad tab
3 comments total.
0 reply
fredzeskater wrote on July 31 2006, 03:53 am

you have done a great tab. every song is either perfect or almost perfect! cheers

0 reply
Guitarmanmatt wrote on November 6 2006, 07:21 am

Good tab but check the nose over tail tab the version you have is the Goddamnit version there are two you see

0 reply
AI13 wrote on November 25 2011, 01:27 pm

огромное спасибо! великолепная работа

I want to post or [tab]
guest
You may want to rate the tab now too:
select rating
Please do not post tabs as comments. Select "correction" instead!