Oops, an error
Loading. Please wait.

All On Black Tab

ver5
ver5

Whole song

More versions @911Tabs.com
926 views 1 this week
1 commentread comment
1 2 3 4 5
excellent!
x 3
Autoscroll
+/-
esc
set tempo
stop
Contributor
WARNING: You are trying to view
                                    content from Ultimate-Guitar.com
                                    in an unauthorized application,
                                    which is prohibited.

                                    Please use an official Ultimate
                                    Guitar Tabs application for iPhone,
                                    iPad or Android to access legitimate
                                    chords, guitar, bass, and drum tabs
                                    from Ultimate-Guitar.com database.

                                    Type "ultimate guitar tabs" in Apple
                                    App Store's or Android Market's
                                    search to find the application.
Alk3
All On Black


INTRO
|------------------------------------------|--------------------------|
|:----------------------------------------:|--------------------------|
|--999-7---555-4---22-44-5555555555555555--|--5-----------------------|
|--777-7---777-5---00-55-3333333333333333--|--7--let-ring-into-verse--|
|:-000-000-000-0-0-00-00------------------:|--0-----------------------|
|------------------------------------------|--------------------------|


VERSE
-------------------------------------------------------------------|
-------------------------------------------------------------------|
---(5)-----5------5------5----7------5-----5----5----5---7---------|
---(7)-----3------7------3----5------7-----3----7----3---5---------|
---(0)-----0------0------0----0------0-----0----0----0---0---------|
-------------------------------------------------------------------|


|------------------------------------------|
|:----------------------------------------:|
|--999-7---555-4---22-44-5555555555555555--|
|--777-7---777-5---00-55-3333333333333333--|
|:-000-0-0-000-0-0-00-00------------------:|
|------------------------------------------|


VERSE
|--PM------------------------------------------------------------------|
|:-=================================================================--:|
|--5555555555555555-55555555555555-5555555555555555-5555555577777777---|
|--7777777777777777-33333333333333-7777777777777777-3333333355555555---|
|:--------------------------------------------------------------------:|
|----------------------------------------------------------------------|


PRE-CHORUS
-------------------------------------------------------------------|
-------------------------------------------------------------------|
----2----4------------2---------44444444-4----QUICK REST-----------|
----3----5------------3---------55555555-5-------------------------|
----3----5------------3---------55555555-5-------------------------|
----1----3------------1---------33333333-3-------------------------|


CHORUS
|----------------------------------------------------------------|
|:--------------------------------------------66666666-88888888-:|
|--12-12-12-12-12-12-12-12-10-10-10---9-9-9---55555555-77777777--|
|--10-10-10-10-10-10-10-10--7--7--7---7-7-7---33333333-55555555--|
|:--0--0--0--0--0--0--0--0--0--0--0-0-0-0-0-0-33333333-55555555-:|
|----------------------------------------------------------------|


VERSE
-------------------------------------------|
|:----------------------------------------:|
|--999-7---555-4---22-44-5555555555555555--|
|--777-7---777-5---00-55-3333333333333333--|
|:-000-0-0-000-0-0-00-00------------------:|
|------------------------------------------|


VERSE
-----------------------------------------------------------------|
-----------------------------------------------------------------|
---5-----5------5------5----7------5-----5----5----5---7---------|
---7-----3------7------3----5------7-----3----7----3---5---------|
---0-----0------0------0----0------0-----0----0----0---0---------|
-----------------------------------------------------------------|


PRE-CHORUS
-------------------------------------------------------------------|
-------------------------------------------------------------------|
----2----4------------2---------44444444-4----QUICK REST-----------|
----3----5------------3---------55555555-5-------------------------|
----3----5------------3---------55555555-5-------------------------|
----1----3------------1---------33333333-3-------------------------|


CHORUS
|----------------------------------------------------------------|
|:--------------------------------------------66666666-88888888-:|
|--12-12-12-12-12-12-12-12-10-10-10---9-9-9---55555555-77777777--|
|--10-10-10-10-10-10-10-10--7--7--7---7-7-7---33333333-55555555--|
|:--0--0--0--0--0--0--0--0--0--0--0-0-0-0-0-0-33333333-55555555-:|
|----------------------------------------------------------------|


CHORUS
-----------------------------------------------------PM---------------|
--------------------------------------------66666666-============8888-|
-12-12-12-12-12-12-12-12-10-10-10---9-9-9---55555555-7777777777777777-|
-10-10-10-10-10-10-10-10--7--7--7---7-7-7---33333333-5555555555555555-|
--0--0--0--0--0--0--0--0--0--0--0-0-0-0-0-0-33333333------------------|
----------------------------------------------------------------------|


BRIDGE
-PM-------------------------------------------------------------------
-====================================================================-
-5555555555555555------------------2222222222222222-------------------|
-5555555555555555-3333333333333333-2222222222222222-55555555-33333333-|
-3333333333333333-3333333333333333-0000000000000000-55555555-33333333-|
-3333333333333333-1111111111111111-0000000000000000-33333333-11111111-|


SOLO, GUTIAR ONE
|------------------------------------------------|
|:----------------------------------------------:|
|--12-12-12-10-10-10--9--9--9--9--9--9-10-10--9--|
|--10-10-10-10-10-10-10-10-10-10-10-10-10-10-10--|
|:----------------------------------------------:|
|------------------------------------------------|
|
|
|RHYTHM GUITAR TWO
|----------------------------------------|
|:--------------------------------------:|
|---5555555555555555-22222222-44444444---|
|---5555555555555555-22222222-33333333---|
|:--3333333333333333-00000000-33333333--:|
|---3333333333333333-00000000-11111111---|


-------------------------------------------------------------------|
-------------------------------------------------------------------|
-----------------------10------------------------------------------|
--777-777-777-55-77-9--10-LET RING OUT INTO OBLIVION---------------|
--000-000-000-00-00-00--8------------------------------------------|
------------------------8------------------------------------------|
comments
We did not receive enough feedback on this tab! Please rate:
print report bad tab
1 2 3 4 5
1 comment total.
0 reply
SM3LLYCAT wrote on March 3 2014, 04:04 pm

best tab for this song imo sounds good

I want to post or [tab]
guest
You may want to rate the tab now too:
select rating
Please do not post tabs as comments. Select "correction" instead!