Oops, an error
Loading. Please wait.

Back To Hell Tab

ver5
ver5

Whole song

More versions @911Tabs.com
584 views 1 this week
no commentswrite comment
1 2 3 4 5
excellent!
x 1
Autoscroll
+/-
esc
set tempo
stop
Contributor
WARNING: You are trying to view
                                    content from Ultimate-Guitar.com
                                    in an unauthorized application,
                                    which is prohibited.

                                    Please use an official Ultimate
                                    Guitar Tabs application for iPhone,
                                    iPad or Android to access legitimate
                                    chords, guitar, bass, and drum tabs
                                    from Ultimate-Guitar.com database.

                                    Type "ultimate guitar tabs" in Apple
                                    App Store's or Android Market's
                                    search to find the application.
Alkaline Trio
Back To Hell


INTRO, GUITAR ONE
||---------------------------------------------------------------|
||:--------------------------------------------------------------|
||--14-14-14--13-13-13-13-13--16-16-16--13-13-13-13-13--14-14-14-|
||---X--X--X---X--X--X--X--X---X--X--X---X--X--X--X--X---X--X--X-|
||:-12-12-12--11-11-11-11-11--14-14-14--11-11-11-11-11--12-12-12-|
||---------------------------------------------------------------|


INTRO, GUITAR ONE
--------------------------------|
--------------------------------|
13-13-13-13-13--11-11-11-999999-|
-X--X--X--X--X---X--X--X-XXXXXX-|
11-11-11-11-11---9--9--9-777777-|
--------------------------------|


INTRO, GUITAR ONE
---------------------------------------------------|
---------------------------------------------------|
14-14-14--13-13-13-13-13--16-16-16--13-13-13-13-13-|
-X--X--X---X--X--X--X--X---X--X--X---X--X--X--X--X-|
12-12-12--11-11-11-11-11--14-14-14--11-11-11-11-11-|
---------------------------------------------------|


INTRO, GUITAR ONE
-----------------------------||-------------||-------------------------|
----------------------------:||:-----------:||-------------------------|
11-11-11-999999--777-666666--||---66666-7---||-14-14-14--13-13-13-13-6-|
-X--X--X-XXXXXX--XXX-XXXXXX--||---XXXXX-X---||--X--X--X---X--X--X--X-X-|
-9--9--9-777777--555-444444-:||:--44444-5--:||-12-12-12--11-11-11-11-4-|
-----------------------------||-------------||-------------------------|


INTRO, GUITAR TWO
----------------------------------------------------------------------|
----------------------------------------------------------------------|
----------------------------------7777777777777777--44444444-66666666-|
444444444444444444444444444444444-7777777777777777--44444444-66666666-|
444444444444444444444444444444444-5555555555555555--22222222-44444444-|
222222222222222222222222222222222-5555555555555555--------------------|


INTRO, GUITAR TWO
----------------------------------------------------------------------|
----------------------------------------------------------------------|
----------------------------------7777777777777777--44444444-66666666-|
444444444444444444444444444444444-7777777777777777--44444444-66666666-|
444444444444444444444444444444444-5555555555555555--22222222-44444444-|
222222222222222222222222222222222-5555555555555555--------------------|




INTRO, GUITAR TWO
-------------------------------------------------------------------|
-------------------------------------------------------------------|
-------------------------------------------------------------------|
-44444-22-44444-22-44444-22-7777-7777-(4)-LET-RING-----------------|
-44444-22-44444-22-44444-22-7777-7777-(4)--------------------------|
-22222-00-22222-00-22222-00-5555-4444-(2)--------------------------|


VERSE
--------------------------------------|
-----------3--------------------------|
-----------2---9-----------7---9------|
--2-4----2-0---9----4------7---9------|
--2-4----2-0---7----4------5---7------|
--0-2----0-----7----2------5---7------|


VERSE
-------------------------------------------------------------------|
-------------------------------------------------------------------|
-------------------------------------------------------------------|
-44444-22-44444-22-44444-22-7777-7777-(4)-LET-RING-----------------|
-44444-22-44444-22-44444-22-7777-7777-(4)--------------------------|
-22222-00-22222-00-22222-00-5555-4444-(2)--------------------------|


VERSE
--------------------------------------|
-----------3--------------------------|
-----------2---9-----------7---9------|
--2-4----2-0---9----4------7---9------|
--2-4----2-0---7----4------5---7------|
--0-2----0-----7----2------5---7------|


VERSE
-------------------------------------------------------------------|
-------------------------------------------------------------------|
---------------------------------”SEND US BACK---------------------|
-44444-22-44444-22-44444-22-44-------TO-HELL……”--------------------|
-44444-22-44444-22-44444-22-44-------------------------------------|
-22222-00-22222-00-22222-00-22-------------------------------------|


CHORUS
------------------------------------------------------------------|
------------------------------------------------------------------|
----------------777777777777777-----------------99999999999999999-|
444444444444444-777777777777777-777777777777777-99999999999999999-|
444444444444444-555555555555555-777777777777777-77777777777777777-|
222222222222222-555555555555555-555555555555555-77777777777777777-|


CHORUS
-----------------------------------------------------------------------|
-----------------------------------------------------------------------|
----------------777777777777777-----------------9999999-10101010101010-|
444444444444444-777777777777777-777777777777777-9999999-10101010101010-|
444444444444444-555555555555555-777777777777777-7777777--8-8-8-8-8-8-8-|
222222222222222-555555555555555-555555555555555-7777777--8-8-8-8-8-8-8-|


GUITAR ONE
||-------------||---------------------------------------------------|
||:-----------:||---------------------------------------------------|
||---66666-7---||-14-14-14--13-13-13-13-6---------------------------|
||---XXXXX-X---||--X--X--X---X--X--X--X-X--LET-RINH-----------------|
||:--44444-5--:||-12-12-12--11-11-11-11-4---------------------------|
||-------------||---------------------------------------------------|
|
|
|Guitar two
|-------------------------------------------------------------------|
|-------------------------------------------------------------------|
|-------------------------------------------------------------------|
|-44444-22-44444-22-44444-22-7777-7777-(4)-LET-RING-----------------|
|-44444-22-44444-22-44444-22-7777-7777-(4)--------------------------|
|-22222-00-22222-00-22222-00-5555-4444-(2)--------------------------|


Verse two, just drums and bass
-------------------------------------------------------------------|
-------------------------------------------------------------------|
----long-fucking-rest-for-vocals,drums,----------------------------|
--------------------------------------and-bass!--------------------|
-------------------------------------------------------------------|
-------------------------------------------------------------------|


VERSE, GUTIAR ONE
|-------------------------------------------------------------------|
|-------------------------------------------------------------------|
|---------------------------------”SEND US BACK---------------------|
|-44444-22-44444-22-44444-22-44-------TO-HELL……”--------------------|
|-44444-22-44444-22-44444-22-44-------------------------------------|
|-22222-00-22222-00-22222-00-22-------------------------------------|
|
|
|VERSE, GUTIAR TWO
||-------------||---------------------------------------------------|
||:-----------:||---------------------------------------------------|
||---66666-7---||--66----------”SEND US BACK TO HELL……”-------------|
||---XXXXX-X---||--XX-----------------------------------------------|
||:--44444-5--:||--44-----------------------------------------------|
||-------------||---------------------------------------------------|


CHORUS
------------------------------------------------------------------|
------------------------------------------------------------------|
----------------777777777777777-----------------99999999999999999-|
444444444444444-777777777777777-777777777777777-99999999999999999-|
444444444444444-555555555555555-777777777777777-77777777777777777-|
222222222222222-555555555555555-555555555555555-77777777777777777-|


CHORUS
-----------------------------------------------------------------------|
-----------------------------------------------------------------------|
----------------777777777777777-----------------9999999-10101010101010-|
444444444444444-777777777777777-777777777777777-9999999-10101010101010-|
444444444444444-555555555555555-777777777777777-7777777--8-8-8-8-8-8-8-|
222222222222222-555555555555555-555555555555555-7777777--8-8-8-8-8-8-8-|


GUITAR ONE
||-------------||-------------------|
||:-----------:||-------------------|
||---66666-7---||-13-13-13--14--13--|
||---XXXXX-X---||--X--X--X---X---X--|
||:--44444-5--:||-11-11-11--12--11--|
||-------------||-------------------|
|
|
|Guitar two
|--------------------------------------|
|--------------------------------------|
|--------------------------------------|
|-44444-22-44444-22-44444-22-7777-7777-|
|-44444-22-44444-22-44444-22-7777-7777-|
|-22222-00-22222-00-22222-00-5555-4444-|


GUITAR ONE
||-------------||-------------------|
||:-----------:||-------------------|
||---66666-7---||-13-13-13--14--13--|
||---XXXXX-X---||--X--X--X---X---X--|
||:--44444-5--:||-11-11-11--12--11--|
||-------------||-------------------|
|
|
|Guitar two
|--------------------------------------|
|--------------------------------------|
|--------------------------------------|
|-44444-22-44444-22-44444-22-7777-7777-|
|-44444-22-44444-22-44444-22-7777-7777-|
|-22222-00-22222-00-22222-00-5555-4444-|


BRIDGE, GUITAR ONE
----------------------------------------------------------------|
----------------------------------------------------------------|
-14-14-14-14-14-14-14-14-14-14-14-14-14-14-13-13-13-13-13-13-13-|
--X--X--X--X--X--X--X--X--X--X--X--X--X--X--X--X--X--X--X--X--X-|
-12-12-12-12-12-12-12-12-12-12-12-12-12-12-11-11-11-11-11-11-11-|
----------------------------------------------------------------|


BRIDGE, GUITAR ONE
-------------------------------------------------------------------|
-------------------------------------------------------------------|
-11-11-11-11-11\9-66666-7-66666-7-66666-7--66----SEND US-----------|
--X--X--X--X--X-X-XXXXX-X-XXXXX-X-XXXXX-X--XX----BACK-TO-----------|
--9--9--9--9--9\7-44444-5-44444-5-44444-5--44-----HELL…------------|
-------------------------------------------------------------------|


BRIDGE, GUITAR TWO
--------------------------------------------------------------------|
------------------------------------------------------------SEND----|
---------------------------------------------------------------US---|
------------------------------------44444-2-44444-2-44444-2-44------|BACK
------------------------------------44444-2-44444-2-44444-2-44------|TO
-555555555555555-44444444-222222^0--22222-0-22222-0-22222-0-22------|HECK…


CHORUS
------------------------------------------------------------------|
------------------------------------------------------------------|
----------------777777777777777-----------------99999999999999999-|
444444444444444-777777777777777-777777777777777-99999999999999999-|
444444444444444-555555555555555-777777777777777-77777777777777777-|
222222222222222-555555555555555-555555555555555-77777777777777777-|


CHORUS
-----------------------------------------------------------------------|
-----------------------------------------------------------------------|
----------------777777777777777-----------------9999999-10101010101010-|
444444444444444-777777777777777-777777777777777-9999999-10101010101010-|
444444444444444-555555555555555-777777777777777-7777777--8-8-8-8-8-8-8-|
222222222222222-555555555555555-555555555555555-7777777--8-8-8-8-8-8-8-|


CHORUS
-------------------------------------------------------------------|
-------------------------------------------------------------------|
-------------------------------------------------------------------|
--44444-22-44444-22--4\--------------------------------------------|
--44444-22-44444-22--4\--------------------------------------------|
--22222-00-22222-00--2\--------------------------------------------|


***Also play guitar one intro lead part overtop of final chorus
comments
We did not receive enough feedback on this tab! Please rate:
1 2 3 4 5
I want to post or [tab]
guest
You may want to rate the tab now too:
select rating
Please do not post tabs as comments. Select "correction" instead!