Oops, an error
Loading. Please wait.

Death Bed Tab

ver2
ver2

Whole song

More versions @911Tabs.com
1,319 views 1 this week
1 commentread comment
1 2 3 4 5
accurate
x 5
add to favorites launch autoscroll
font size
0
reset
Autoscroll
+/-
esc
set tempo
stop
Contributor
WARNING: You are trying to view
                                    content from Ultimate-Guitar.com
                                    in an unauthorized application,
                                    which is prohibited.

                                    Please use an official Ultimate
                                    Guitar Tabs application for iPhone,
                                    iPad or Android to access legitimate
                                    chords, guitar, bass, and drum tabs
                                    from Ultimate-Guitar.com database.

                                    Type "ultimate guitar tabs" in Apple
                                    App Store's or Android Market's
                                    search to find the application.
Artist:     Alkaline Trio
Song:       Dethbed
Tabbed by:  Ronn
Email:      With_Handuns_for_Hearts@yahoo.com
Notes:      
I figured this all out and it should be right. It's better than the other 
"Death Bed" tab...haha. Anway, this should be complete with the exception 
of the 2nd lead in the bridge. I'm not sure if it's totally correct but 
it's hard to hear anyway, so it sounds ok without it.

 
PLEASE DO NOT COPY THIS TAB TO ANOTHER SITE 
WITHOUT AUTHORS' PERMISSION.  THANK YOU.

Tuning: Standard (EADGBe)

Intro (Song starts with 2 guitars with feedback)
Guitar 1
|-----------------------------------------------|
|-----------------------------------------------|
|----------------------11-11-11-11-11-11-11-11--|
|--8-8-8-8-11-11-11-11-11-11-11-11-11-11-11-11--|
|--8-8-8-8-11-11-11-11-9--9--9--9--9--9--9--9---|
|--6-6-6-6-9--9--9--9---------------------------|

|-----------------------------------|
|-----------------------------------|
|-----------------------------------|
|--8-8-8-8-3-3-3-3-4-4-4-4-4-6-6-6--|
|--8-8-8-8-3-3-3-3-4-4-4-4-4-6-6-6--|
|--6-6-6-6-1-1-1-1-2-2-2-2-2-4-4-4--|

|---------------------------------------------------------------------|
|---------------------------------------------------------------------|
|----------------------11-11-11-11-11-11-11-11------------------------|
|--8-8-8-8-11-11-11-11-11-11-11-11-11-11-11-11-10-10-10-11-11-11-10~--|
|--8-8-8-8-11-11-11-11-9--9--9--9--9--9--9--9--8--8--8--8--8--8--8-~--|
|--6-6-6-6-9--9--9--9-------------------------------------------------|

Guitar 2 (Has some type of phaser effect)
                             x3 
|------------------------------|-------------------------|
|------------------------------|-------------------------|
|-10-10-------------------11~--|-------------------------|
|-------11-11-------11-11------|--10-10-10-11-11-11-10~--|
|-------------13-13------------|-------------------------|
|------------------------------|-------------------------|


Verse (Listen to song for timing) 
|-----------------------------------------------------------|
|-----------------------------------------------------------|
|--------------11-11-11---------8-8-8-------11-11-11--------|
|--6-6-6-8-8---11-11-11-11-11---8-8-8-8-8---11-11-11-11-11--|
|--6-6-6-8-8---9--9--9--11-11---6-6-6-8-8---9--9--9--11-11--|
|--4-4-4-6-6------------9--9----------6-6------------9--9---|

|--------------------------------------------------------------------------------------|
|--------------------------------------------------------------------------------------|
|--------------11-11-11---------8-8-8--------------------------------------------------|
|--6-6-6-8-8---11-11-11-11-11---8-8-8-10-10-10-11-11-11-10-10-10-10-10-10-10-10-10-10--|
|--6-6-6-8-8---9--9--9--11-11---6-6-6-8--8--8--8--8--8--8--8--8--8--8--8--8--8--8--8---|
|--4-4-4-6-6------------9--9-----------------------------------------------------------|


Chorus
|-------------------------------------------------------------------------------------------|
|-------------------------------------------------------------------------------------------|
|--11-11-11-11-11-11-11-11-11-11-11-11-11-11-11-11------------------------------------------|
|--11-11-11-11-11-11-11-11-11-11-11-11-11-11-11-11-8-8-8-8-8-8-8-8-11-11-11-11-11-11-11-11--|
|--9--9--9--9--9--9--9--9--9--9--9--9--9--9--9--9--8-8-8-8-8-8-8-8-11-11-11-11-11-11-11-11--|
|--------------------------------------------------6-6-6-6-6-6-6-6-9--9--9--9--9--9--9--9---|

|-------------------------------------------------------------------------------------------|
|-------------------------------------------------------------------------------------------|
|--11-11-11-11-11-11-11-11-11-11-11-11-11-11-11-11------------------------------------------|
|--11-11-11-11-11-11-11-11-11-11-11-11-11-11-11-11-11-11-11-11-11-11-11-11-6-6-6-6-6-6-6-6--|
|--9--9--9--9--9--9--9--9--9--9--9--9--9--9--9--9--11-11-11-11-11-11-11-11-6-6-6-6-6-6-6-6--|
|--------------------------------------------------9--9--9--9--9--9--9--9--4-4-4-4-4-4-4-4--|

|-------------------------------------------------------------------------------------------|
|-------------------------------------------------------------------------------------------|
|--11-11-11-11-11-11-11-11-11-11-11-11-11-11-11-11------------------------------------------|
|--11-11-11-11-11-11-11-11-11-11-11-11-11-11-11-11-8-8-8-8-8-8-8-8-11-11-11-11-11-11-11-11--|
|--9--9--9--9--9--9--9--9--9--9--9--9--9--9--9--9--8-8-8-8-8-8-8-8-11-11-11-11-11-11-11-11--|
|--------------------------------------------------6-6-6-6-6-6-6-6-9--9--9--9--9--9--9--9---|

|-----------------------------------------------------------------------------------|
|-----------------------------------------------------------------------------------|
|--11-11-11-11-11-11-11-11-11-11-11-11-11-11-11-11----------------------------------|
|--11-11-11-11-11-11-11-11-11-11-11-11-11-11-11-11-3-3-3-3-3-3-3-3-4-4-4-4-6-6-6-6--|
|--9--9--9--9--9--9--9--9--9--9--9--9--9--9--9--9--3-3-3-3-3-3-3-3-4-4-4-4-6-6-6-6--|
|--------------------------------------------------1-1-1-1-1-1-1-1-2-2-2-2-4-4-4-4--|


Play Intro (only first 2 bars)
Play Verse
Play Chorus


Bridge 
Guitar 1(Theres some weird effect after the pause at the end)
|-----------------------------------------------------------------------------|x2
|-----------------------------------------------------------------------------|
|--------------------------------11-11-11-11-11-11-11---13-13-13-13-13-13-13--|
|--8-8-8-8-8-8---8-8-8-8-8-8-8---11-11-11-11-11-11-11---13-13-13-13-13-13-13--|
|--8-8-8-8-8-8---8-8-8-8-8-8-8---9--9--9--9--9--9--9----11-11-11-11-11-11-11--|
|--6-6-6-6-6-6---6-6-6-6-6-6-6------------------------------------------------|

|-------------------------------------------------------------------|
|-------------------------------------------------------------------|
|--8-8-8-8-8-8-8-8-8-8-8-8-8-8-8-8----------------------------------|
|--8-8-8-8-8-8-8-8-8-8-8-8-8-8-8-8-4-4-4-4-4-4-4-4-6-6-6-6-6-6-6-6--|
|--6-6-6-6-6-6-6-6-6-6-6-6-6-6-6-6-4-4-4-4-4-4-4-4-6-6-6-6-6-6-6-6--|
|--6-6-6-6-6-6-6-6-6-6-6-6-6-6-6-6-2-2-2-2-2-2-2-2-4-4-4-4-4-4-4-4--|

|------------------------------------------------------|
|------------------------------------------------------|
|--8-8-8-8-8-8-8-8-8-8-8-8-8-8-8-8---------------------|
|--8-8-8-8-8-8-8-8-8-8-8-8-8-8-8-8-4-4-4-4-4-4-4-4--6--|
|--6-6-6-6-6-6-6-6-6-6-6-6-6-6-6-6-4-4-4-4-4-4-4-4--6--|
|--6-6-6-6-6-6-6-6-6-6-6-6-6-6-6-6-2-2-2-2-2-2-2-2--4--|

Guitar 2
|------------------------------------------------------------------------------------------|x2
|------------------------------------------------------------------------------------------|
|------------------------------------------------------------------------------------------|
|--11-11-11-11-11-10-11--11-11-11-13-11-10-11--11-11-11-11-11-11-11--13-13-13-13-13-13-13--|
|------------------------------------------------------------------------------------------|
|------------------------------------------------------------------------------------------|

Theres some kind of lead here, kinda hard to hear but it follows the bass line
This is probably wrong, but I'll put it until I figure it out right
|--------------------------------------------------------------------------------------------------|
|--------------------------------------------------------------------------------------------------|
|--13-13-13-16-15-13-15~---13-12-13~---11-10-11----------------------------------------------------|
|------------------------------------------------11-11-11-11-11-11-11-11--13-13-13-13-13-13-13-13--|
|--------------------------------------------------------------------------------------------------|
|--------------------------------------------------------------------------------------------------|

|------------------------------------------------------------------------------|
|------------------------------------------------------------------------------|
|--13-13-13-16-15-13-15~---13-12-13~---11-10-11--------------------------------|
|------------------------------------------------11-11-11-11-11-11-11-11---13--|
|------------------------------------------------------------------------------|
|------------------------------------------------------------------------------|

After pause, finish song with chorus


Notation:

10^        = bend a quarter step.
10b11      = bend a half step.
10b12      = bend a full step.
10b12r10   = bend and release.
[10]12     = pre-bend.
[10]12r10  = pre-bend and release.
{14}       = pick the 14th fret while holding the most 
             previous bend.
<17>       = touch the string above the 17th fret while 
             previous note(s) is(are) still ringing.

10b13*     = tremolo bar bend, from the 10th fret to the 13th fret.
7d4*       = tremolo bar dive, from the 7th fret to the 4th fret. 
12~*       = tremolo bar vibrato.

x   =  mute with fret-hand
*   =  palm mute
X\\ =  pick slide
h   =  hammer-on
p   =  pull-off
~   =  vibrato
t   =  finger tap
/   =  slide up
\   =  slide down
h.  =  natural harmonics
a   =  artificial harmonics
(9) =  ghost note
tm  =  trem picking
tr  =  trill
comments
print report bad tab
1 comment total.
0 reply
MercyMe wrote on July 25 2005, 12:00 am

2 freakin' stars? come on people! This is almost perfect....I've seen Matt play it this way. I'll even giving a recording of me playing this if anyone wants to verify it...

I want to post or [tab]
guest
You may want to rate the tab now too:
select rating
Please do not post tabs as comments. Select "correction" instead!