Oops, an error
Loading. Please wait.

Dethbed Bass Tab

ver2
ver2

Whole song

Interactive

More versions @911Tabs.com
497 views 3 this week
no commentswrite comment
1 2 3 4 5
excellent!
x 1
Autoscroll
+/-
esc
set tempo
stop
Contributor
Difficulty
Hey! There's an official Ultimate Guitar app which is ideal
for learning songs when you're away from computer. Get the app
WARNING: You are trying to view
                                    content from Ultimate-Guitar.com
                                    in an unauthorized application,
                                    which is prohibited.

                                    Please use an official Ultimate
                                    Guitar Tabs application for iPhone,
                                    iPad or Android to access legitimate
                                    chords, guitar, bass, and drum tabs
                                    from Ultimate-Guitar.com database.

                                    Type "ultimate guitar tabs" in Apple
                                    App Store's or Android Market's
                                    search to find the application.
Song: Dethbed                                     
Album: Crimson
Artist: Alkaline Trio
Bassist: Dan Andriano

INTRO

                 
G|-----------------|-----------------|-----------------|-----------------|
D|-----------------|-----------------|-----------------|-----------------|
A|-----------------|-----------------|-----------------|-----------------|
E|-----------------|-----------------|-----------------|-----------------|
   1 + 2 + 3 + 4 +   1 + 2 + 3 + 4 +   1 + 2 + 3 + 4 +   1 + 2 + 3 + 4 +

G|-----------------|-----------------|-----------------|-----------------|
D|-----------------|-----------------|-----------------|-----------------|
A|---------4-4-4-4-|-9-9-9-9-9-9-9-9-|-----------------|-----------------|
E|-6-6-6-6---------|-----------------|-6-6-6-6-1-1-1-1-|-2-2-2-2-2-4-4-4-|
   1 + 2 + 3 + 4 +   1 + 2 + 3 + 4 +   1 + 2 + 3 + 4 +   1 + 2 + 3 + 4 +

G|-----------------|-----------------|-----------------|-----------------||
D|-----------------|-----------------|-----------------|-----------------||
A|---------4-4-4-4-|-9-9-9-9-9-9-9-9-|-----------------|-----------------||
E|-6-6-6-6---------|-----------------|-1-1-1-2-2-2-1-1-|-1-1-1-1-1-4-4-4-||
   1 + 2 + 3 + 4 +   1 + 2 + 3 + 4 +   1 + 2 + 3 + 4 +   1 + 2 + 3 + 4 +


VERSE

G|-----------------|-----------------|-----------------|-----------------|
D|-----------------|-----------------|-----------------|-----------------|
A|-----------------|-----------------|-----------------|-----------------|
E|-6---------------|-----------------|-----------------|-----------------|
   1 + 2 + 3 + 4 +   1 + 2 + 3 + 4 +   1 + 2 + 3 + 4 +   1 + 2 + 3 + 4 +

G|-----------------|-----------------|-----------------|-----------------|
D|-----------------|-----------------|-----------------|-----------------|
A|-----------------|-----------------|-----------------|-----3-3---------|
E|-----------------|-----------------|-1-1-1-2-2-2-1-1-|-1-1-----4-4-4-4-|
   1 + 2 + 3 + 4 +   1 + 2 + 3 + 4 +   1 + 2 + 3 + 4 +   1 + 2 + 3 + 4 +

G|-----------------|-----------------|-----------------|-----------------|
D|-----------------|-----------------|-----------------|-----------------|
A|-----------------|-4-4-------6-6-6-|-----------------|-4-4-------------|
E|-6-6-------2-2-2-|-----------------|-6-6-------2-2-2-|-----------4-4-4-|
   1 + 2 + 3 + 4 +   1 + 2 + 3 + 4 +   1 + 2 + 3 + 4 +   1 + 2 + 3 + 4 +

G|-----------------|-----------------|-----------------|-----------------||
D|-----------------|-----------------|-----------------|-----------------||
A|-----------------|-4-4-------6-6-6-|-----------------|-----------------||
E|-6-6-------2-2-2-|-----------------|-1-1-1-2-2-2-1-1-|-1-1-1-1-1-4-4-4-||
   1 + 2 + 3 + 4 +   1 + 2 + 3 + 4 +   1 + 2 + 3 + 4 +   1 + 2 + 3 + 4 +


CHORUS

G|-----------------|-----------------|-----------------|-----------------|
D|-----------------|-----------------|-----------------|-----------------|
A|-----------------|-----------------|-----------------|-4-4-4-4-4-4-4-4-|
E|-2-2-2-2-2-2-2-2-|-2-2-2-2-2-2-2-2-|-6-6-6-6-6-6-6-6-|-----------------|
   1 + 2 + 3 + 4 +   1 + 2 + 3 + 4 +   1 + 2 + 3 + 4 +   1 + 2 + 3 + 4 +

G|-----------------|-----------------|-----------------|-----------------|
D|-----------------|-----------------|-----------------|-----------------|
A|-----------------|-----------------|-4-4-6-6-4-4-3-3-|-----6-6-4-4-3-3-|
E|-2-2-2-2-2-2-2-2-|-2-2-2-2-2-2-2-2-|-----------------|-4-4-------------|
   1 + 2 + 3 + 4 +   1 + 2 + 3 + 4 +   1 + 2 + 3 + 4 +   1 + 2 + 3 + 4 +

G|-----------------|-----------------|-----------------|-----------------|
D|-----------------|-4-4-4-4---------|-----------------|-----------------|
A|-----------------|-----------------|-----------------|-4-4-4-4-4-4-4-4-|
E|-2-2-2-2-2-2-2-2-|---------2-2-2-2-|-6-6-6-6-6-6-6-6-|-----------------|
   1 + 2 + 3 + 4 +   1 + 2 + 3 + 4 +   1 + 2 + 3 + 4 +   1 + 2 + 3 + 4 +

G|-----------------|-----------------|-----------------|-----------------||
D|-----------------|-----------------|-----------------|-----------------||
A|-----------------|-----------------|-----------------|-----------------||
E|-2-2-2-2-2-2-2-2-|-2-2-2-2-2-2-2-2-|-1-1-1-1-1-1-1-1-|-2-2-2-2-4-4-4-4-||
   1 + 2 + 3 + 4 +   1 + 2 + 3 + 4 +   1 + 2 + 3 + 4 +   1 + 2 + 3 + 4 +


INTERLUDE

G|-----------------|-----------------|-----------------|-----------------||
D|-----------------|-----------------|-----------------|-----------------||
A|---------4-4-4-4-|-9-9-9-9-9-9-9-9-|-----------------|-----------------||
E|-6-6-6-6---------|-----------------|-6-6-6-6-1-1-1-1-|-2-2-2-2-2-4-4-4-||
   1 + 2 + 3 + 4 +   1 + 2 + 3 + 4 +   1 + 2 + 3 + 4 +   1 + 2 + 3 + 4 +

VERSE

G|-----------------|-----------------|-----------------|-----------------|
D|-----------------|-----------------|-----------------|-----------------|
A|-----------9-9-0-|-----------6-6---|-----------9-9-0-|-----------------|
E|-6-6-------------|-9-9-----------0-|-6-6-------------|-9-9-------4-2-4-|
   1 + 2 + 3 + 4 +   1 + 2 + 3 + 4 +   1 + 2 + 3 + 4 +   1 + 2 + 3 + 4 +

G|-----------------|-----------------|-----------------|-----------------|
D|-----------------|-----------------|-----------------|-----------------|
A|-----------9-9-0-|-----------6-6---|-----------------|-----------------|
E|-6-6-------------|-9-9-----------0-|-1-1-1-2---2-1-1-|-1-1-1-1-1-4-2-4-|
   1 + 2 + 3 + 4 +   1 + 2 + 3 + 4 +   1 + 2 + 3 + 4 +   1 + 2 + 3 + 4 +

G|-----------------|-----------------|-----------------|-----------------|
D|-----------------|-----------------|-----------------|-----------------|
A|-----------9-9-0-|-----------6-6---|-----------9-9-0-|-----------------|
E|-6-6-------------|-9-9-----------0-|-6-6-------------|-9-9-------4-2-4-|
   1 + 2 + 3 + 4 +   1 + 2 + 3 + 4 +   1 + 2 + 3 + 4 +   1 + 2 + 3 + 4 +

G|-----------------|-----------------|-----------------|-----------------||
D|-----------------|-----------------|-----------------|-----------------||
A|-----------9-9-0-|-----------6-6---|-----------------|-----------------||
E|-6-6-------------|-9-9-----------0-|-1-1-1-2---2-1-1-|-1-1-1-1-1-4-4-4-||
   1 + 2 + 3 + 4 +   1 + 2 + 3 + 4 +   1 + 2 + 3 + 4 +   1 + 2 + 3 + 4 +

CHORUS

G|-----------------|-----------------|-----------------|-----------------|
D|-----------------|-----------------|-----------------|-----------------|
A|-----------------|-----------------|-----------------|-4-4-4-4-4-4-4-4-|
E|-2-2-2-2-2-2-2-2-|-2-2-2-2-2-2-2-2-|-6-6-6-6-6-6-6-6-|-----------------|
   1 + 2 + 3 + 4 +   1 + 2 + 3 + 4 +   1 + 2 + 3 + 4 +   1 + 2 + 3 + 4 +

G|-----------------|-----------------|-----------------|-----------------|
D|-----------------|-4-4-4-4-4-4-4-4-|-----------------|-----------------|
A|-----------------|-----------------|-4-4-6-6-4-4-3-3-|-----6-6-4-4-3-3-|
E|-2-2-2-2-2-2-2-2-|-----------------|-----------------|-4-4-------------|
   1 + 2 + 3 + 4 +   1 + 2 + 3 + 4 +   1 + 2 + 3 + 4 +   1 + 2 + 3 + 4 +

G|-----------------|-----------------|-----------------|-----------------|
D|-----------------|-4-4-4-4---------|-----------------|-----------------|
A|-----------------|-----------------|-----------------|-4-4-4-4-4-4-4-4-|
E|-2-2-2-2-2-2-2-2-|---------2-2-2-2-|-6-6-6-6-6-6-6-6-|-----------------|
   1 + 2 + 3 + 4 +   1 + 2 + 3 + 4 +   1 + 2 + 3 + 4 +   1 + 2 + 3 + 4 +

G|-----------------|-----------------|-----------------|-----------------||
D|-----------------|-----------------|-----------------|-----------------||
A|-----------------|-----------------|-----------------|-----------------||
E|-2-2-2-2-2-2-2-2-|-2-2-2-2-2-2-2-2-|-1-1-1-1-1-1-1-0-|-2-2-2-0-4-4-4---||
   1 + 2 + 3 + 4 +   1 + 2 + 3 + 4 +   1 + 2 + 3 + 4 +   1 + 2 + 3 + 4 +


BRIDGE

G|-----------------|-----------------|-----------------|-----------------|
D|-----------------|-----------------|-----------------|-----------------|
A|---------9-8-6-8-|---------4-------|-----------------|---------6-4-3---|
E|---6-6-6---------|---6-6-6---8-6-8-|---2-2-2-1-2-2-2-|---4-4-4---------|
   1 + 2 + 3 + 4 +   1 + 2 + 3 + 4 +   1 + 2 + 3 + 4 +   1 + 2 + 3 + 4 +

G|-----------------|-----------------|-----------------|-----------------|
D|-----------------|-----------------|-----------------|-----------------|
A|---------9-8-6-8-|---------4-------|-----------------|---------6-4-3---|
E|---6-6-6---------|---6-6-6---8-6-8-|---2-2-2-1-2-2-2-|---4-4-4---------|
   1 + 2 + 3 + 4 +   1 + 2 + 3 + 4 +   1 + 2 + 3 + 4 +   1 + 2 + 3 + 4 +

G|-----------------|-----------------|-----------------|-----------------|
D|-----------------|-----------------|-----------------|-----------------|
A|---6-6-6-9-8-6-8-|---6-4-6---4-3-4-|-----------------|---------6-4-3---|
E|-----------------|-----------------|---2-2-2-1-2-2-2-|---4-4-4---------|
   1 + 2 + 3 + 4 +   1 + 2 + 3 + 4 +   1 + 2 + 3 + 4 +   1 + 2 + 3 + 4 +

G|-----------------|-----------------|-----------------|-----------------||
D|-----------------|-----------------|-----------------|-----------------||
A|---6-6-6-9-8-6-8-|---6-4-6---4-3-4-|-----------------|-----------------||
E|-----------------|-----------------|---2-2-2-1-2-2-2-|-4---------------||
   1 + 2 + 3 + 4 +   1 + 2 + 3 + 4 +   1 + 2 + 3 + 4 +   1 + 2 + 3 + 4 +

CHORUS

G|-----------------|-----------------|-----------------|-----------------|
D|-----------------|-----------------|-----------------|-----------------|
A|-----------------|-----------------|-----------------|-4-4-4-4-4-4-4-4-|
E|-2-2-2-2-2-2-2-2-|-2-2-2-2-2-2-2-2-|-6-6-6-6-6-6-6-6-|-----------------|
   1 + 2 + 3 + 4 +   1 + 2 + 3 + 4 +   1 + 2 + 3 + 4 +   1 + 2 + 3 + 4 +

G|-----------------|-----------------|-----------------|-----------------|
D|-----------------|-4-4-4-4-4-4-4-4-|-----------------|-----------------|
A|-----------------|-----------------|-4-4-6-6-4-4-3-3-|-----6-6-4-4-3-3-|
E|-2-2-2-2-2-2-2-2-|-----------------|-----------------|-4-4-------------|
   1 + 2 + 3 + 4 +   1 + 2 + 3 + 4 +   1 + 2 + 3 + 4 +   1 + 2 + 3 + 4 +

G|-----------------|-----------------|-----------------|-----------------|
D|-----------------|-4-4-4-4---------|-----------------|-----------------|
A|-----------------|-----------------|-----------------|-4-4-4-4-4-4-4-4-|
E|-2-2-2-2-2-2-2-2-|---------2-2-2-2-|-6-6-6-6-6-6-6-6-|-----------------|
   1 + 2 + 3 + 4 +   1 + 2 + 3 + 4 +   1 + 2 + 3 + 4 +   1 + 2 + 3 + 4 +

G|-----------------|-----------------|-----------------|-----------------|
D|-----------------|-----------------|-----------------|-----------------|
A|-----------------|-----------------|-----------------|-----------------|
E|-2-2-2-2-2-2-2-2-|-2-2-2-2-2-2-2-2-|-1-1-1-1-1-1-1-0-|-2-2-2-0-4-4-4-4-|
   1 + 2 + 3 + 4 +   1 + 2 + 3 + 4 +   1 + 2 + 3 + 4 +   1 + 2 + 3 + 4 +

G|-----------------||
D|-----------------||
A|-----------------||
E|-----------------||
   1 + 2 + 3 + 4 +  
comments
We did not receive enough feedback on this tab! Please rate:
print report bad tab
1 2 3 4 5
I want to post or [tab]
guest
You may want to rate the tab now too:
select rating
Please do not post tabs as comments. Select "correction" instead!