Oops, an error
Loading. Please wait.

From Here To Infirmary Tab

9,601 views 18 this week
3 commentsread comments
1 2 3 4 5
excellent!
x 5
Autoscroll
+/-
esc
set tempo
stop
Contributor
Difficulty
intermediate
Hey! There's an official Ultimate Guitar app which is ideal
for learning songs when you're away from computer. Get the app
WARNING: You are trying to view
                                    content from Ultimate-Guitar.com
                                    in an unauthorized application,
                                    which is prohibited.

                                    Please use an official Ultimate
                                    Guitar Tabs application for iPhone,
                                    iPad or Android to access legitimate
                                    chords, guitar, bass, and drum tabs
                                    from Ultimate-Guitar.com database.

                                    Type "ultimate guitar tabs" in Apple
                                    App Store's or Android Market's
                                    search to find the application.
[Alkaline Trio]
[From Here To Infirmary]

Tuning: Standard
By: joshuaoliveira@hotmail.com

** Changes made to Mr. Chainsaw, Another Innocent Girl, Bloodied Up and Hell Yes.
** 6/25/08, 02:57PM

Kay right off the bat people are gonna look at the funny chords in the
beginning and say Wrong! simply because they don't look do-able and because
they're not regular power chords. TRY IT :@ :). In most of Alkaline Trio's
songs it sounds like there's two guitars in some parts. Sometimes its overdubbed,
alot of the time its just Matt playing weird chords that sound like two guitar parts
in one. I'll put fingering for these chords at the bottum if you still don't
think they're possible to do..

[From Here To Infirmary] - [44:54]
1.  [Private Eye]
2.  [Mr. Chainsaw]
3.  [Take Lots With Alcohol]
4.  [Stupid Kid]
5.  [Another Innocent Girl]
6.  [Steamer Trunk]
7.  [You're Dead]
8.  [Armageddon]
9.  [I'm Dying Tomorrow]
10. [Bloodied Up]
11. [Trucks And Trains]
12. [Crawl]
13. [My Standard Break From Life] (UK Release)
14. [Hell Yes] (Europe & Japan Release)

If you completely disagree with everything i put you, can at least get the
bass notes of the chords n go from ther.. its actually pretty simple :P

**TAKE NOTE: i only tabbed the riffs..what you see you will most likely
  need to repeat. Use the times above each riff to see how long the riff
  is played for. Symbols listed at bottum.**

Here goes..

1. [Private Eye] - [03:30]

[Riff 1] - [00:00] - [00:17]
- ------------------------------------------------------------------------|
- ------------------------------------------------------------------------|
- -121212121212-1111-14141414-12121212--1111111111111111-1212121212121212-|
- -x-x-x-x-x-x--x-x--x-x-x-x--x-x-x-x---x-x-x-x-x-x-x-x--x-x-x-x-x-x-x-x--|
- -101010101010-9-9--12121212-10101010--9-9-9-9-9-9-9-9--1010101010101010-|
- -0-0-0-0-0-0--0-0--0-0-0-0--0-0-0-0---7-7-7-7-7-7-7-7--8-8-8-8-8-8-8-8--|

[Riff 2] - [00:17] - [00:23]
- ----------------------------------------------------------------------|
- ----------------------------------------------------------------------|
- -121212121212-1111-14141414-12121212--1111111111111111-121212--111111-|
- -x-x-x-x-x-x--x-x--x-x-x-x--x-x-x-x---x-x-x-x-x-x-x-x--x-x-x---x-x-x--|
- -101010101010-9-9--12121212-10101010--9-9-9-9-9-9-9-9--101010--9-9-9--|
- -0-0-0-0-0-0--0-0--0-0-0-0--0-0-0-0---7-7-7-7-7-7-7-7--8-8-8---7-7-7--|

[Riff 3] - [00:23] - [00:41]
- ------------------------------------------------------------------------|
- ------------------------------------------------------------------------|
- ------------------------------------------------------------------------|
- ------------------------------------------------------------------------|
- -101010101010-9-9--12121212-10101010--9-9-9-9-9-9-9-9--1010101010101010-|
- -0-0-0-0-0-0--0-0--0-0-0-0--0-0-0-0---7-7-7-7-7-7-7-7--8-8-8-8-8-8-8-8--|
PM ......................................................................

[Riff 4] - [00:41] - [00:46]
- ------------------------------------------------------------------------|
- ------------------------------------------------------------------------|
- -----------------------------------------------------------121212121212-|
- -----------------------------------------------------------x-x-x-x-x-x--|
- -101010101010-9-9--12121212-10101010--9-9-9-9-9-9-9-9--1010101010101010-|
- -0-0-0-0-0-0--0-0--0-0-0-0--0-0-0-0---7-7-7-7-7-7-7-7--8-8-8-8-8-8-8-8--|
PM ........................................................

[Riff 1] - [00:46] - [00:58]
[Riff 3] - [00:58] - [01:10]

[Riff 5] - [01:10] - [01:15]
- --------------------------------------------------------------------------|
- --------------------------------------------------------------------------|
- -----12-12-----12-12-----12-12-----12-12----------------------------------|
- -----x--x------x--x------x--x------x--x-----------------------------------|
- -----10-10-----10-10-----10-10-----10-10-9-9-9-9-9-9-9-9-1010101010101010-|
- -0-0-0--0--0-0-0--0--0-0-0--0--0-0-0--0--7-7-7-7-7-7-7-7-8-8-8-8-8-8-8-8--|
PM ...       ...       ...       ...       ................................

[Riff 4] - [01:15] - [01:21]

[Riff 6] - [01:21] - [01:45]
- ----------------------------------------------------|
- ----------------------------------------------------|
- -7777777777777777-1111111111111111-1414141414141414-|
- -xxxxxxxxxxxxxxxx-x-x-x-x-x-x-x-x--x-x-x-x-x-x-x-x--|
- -5555555555555555-9-9-9-9-9-9-9-9--1212121212121212-|
- -3333333333333333-7-7-7-7-7-7-7-7--1010101010101010-|

  ------------------------------------|
  ------------------------------------|
  -7777777777777777-------------------|
  -xxxxxxxxxxxxxxxx-99999999-77777777-|
  -5555555555555555-77777777-55555555-|
  -3333333333333333-00000000----------|

[Riff 1] - [01:45] - [01:56]

[Riff 7] - [01:56] - [02:08]
- -----|
- -----|
- -12~-
- -x---
- -10~-
- -0~--

[Riff 3] - [02:08] - [02:13]
[Riff 4] - [02:13] - [02:19]
[Riff 6] - [02:19] - [02:42]

[Riff 8] - [02:42] - [02:48]
- -----------------------------------------------------------------|
- -----------------------------------------------------------------|
- -12121212121212121212121212121212-141414141414141414141414141414-|
- -x-x-x-x-x-x-x-x-x-x-x-x-x-x-x-x--x-x-x-x-x-x-x-x-x-x-x-x-x-x-x--|
- -10101010101010101010101010101010-121212121212121212121212121212-|
- -8-8-8-8-8-8-8-8-8-8-8-8-8-8-8-8--101010101010101010101010101010-|

[Riff 9] - [02:48] - [03:00]
- -------------------------------------|
- -------------------------------------|
- -121212121212-1111-14141414-12121212-|
- -x-x-x-x-x-x--x-x--x-x-x-x--x-x-x-x--|
- -101010101010-9-9--12121212-10101010-|
- -------------------------------------|

[Riff 6] - [03:00] - [03:23]

[Riff 10] - [03:23] - [03:30]
- ----
- ----
- ----
- -5~-
- -5~-
- -3~-


2. [Mr. Chainsaw] - [03:05]

[Riff 1] - [00:00] - [00:52]
- ------------------------------------------------------------------|
- ------------------------------------------------------------------|
- -6-6-6666-777-4-444-------------------6-6-6666-777-4-444----------|
- -7-7-7777-777-7-777-777777766/7777777-7-7-7777-777-7-777-77777776-|
- -0-0-0000-000-0-000-555555544/5555555-0-0-0000-000-0-000-55555554-|
- ------------------------------------------------------------------|

  ---------------------------------------------------------------------|
  ---------------------------------------------------------------------|
  -----------6666666666666666-4444444444444444-------------------------|
  -6/7777777-xxxxxxxxxxxxxxxx-xxxxxxxxxxxxxxxx-77x-777766/7x-777766/7x-|
  -4/5555555-4444444444444444-2222222222222222-55x-555544/5x-555544/5x-|
  -----------2222222222222222-0000000000000000-------------------------|

  ----------------|
  ----------------|
  -------44444444-|
  -77776-xxxxxxxx-|
  -55554-22222222-|
  -------00000000-|

[Riff 2] - [00:52] - [01:09]
- -------------------------------|
- -------------------------------|
- -9~--4~--6~--------------------|
- -x---x---x---77777777-99999999-|
- -7~--2~--4~--55555555-77777777-|
- -5~--0~--2~-----------00000000-|

[Riff 1] - [01:09] - [02:01]
[Riff 2] - [02:01] - [02:18]

[Riff 3] - [02:18] - [02:27]
- ------------------------------------------------------------------|
- ------------------------------------------------------------------|
- -6-6-6666-777-4-444-------------------6-6-6666-777-4-444----------|
- -7-7-7777-777-7-777-777777766/7777777-7-7-7777-777-7-777-77777776-|
- -0-0-0000-000-0-000-555555544/5555555-0-0-0000-000-0-000-55555554-|
- ------------------------------------------------------------------|

  -----------|
  -----------|
  -----------|
  -6/7777777-
  -4/5555555-
  -----------

[Riff 4] - [02:27] - [02:52]
- --------------------------------------------------------------------|
- --------------------------------------------------------------------|
- -99999999999999999999999999999999------------------4444444444444444-|
- -xxxxxxxxxxxxxxxxxxxxxxxxxxxxxxxx-7777777777777777-xxxxxxxxxxxxxxxx-|
- -77777777777777777777777777777777-5555555555555555-2222222222222222-|
- -55555555555555555555555555555555------------------0000000000000000-|

[Riff 5] - [02:52] - [03:05]
- ---------------------------------------------------------------------|
- ---------------------------------------------------------------------|
- -99999999999999999999999999999999------------------44444444----------|
- -xxxxxxxxxxxxxxxxxxxxxxxxxxxxxxxx-7777777777777777-xxxxxxxx-77777777-|
- -77777777777777777777777777777777-5555555555555555-22222222-55555555-|
- -55555555555555555555555555555555------------------00000000----------|

  ----
  ----
  ----
  -7~-
  -7~-
  -5~-


3. [Take Lots With Alcohol] - [03:14]

[Riff 1] - [00:08] - [00:31]
- --------------------------------------------|
- --------------------------------------------|
- -9-99-9----9-9-99-9---9-9-99-9--------------|
- -7-77-7h9--7-7-77-7h9-7-7-77-7h9-77777-9999-|
- -0-00-0----0-0-00-0---0-0-00-0---55555-7777-|
- ---------------------------------------0000-|

[Riff 2] - [00:31] - [00:39]
- --------------------------------------------------------------------|
- -6-6-6-6-6-6-6-6----------------------------------------------------|
- -7-7-7-7-7-7-7-7-4-4-4-4-4-4-4-4-999999999999999999999999-----------|
- -4-4-4-4-4-4-4-4-x-x-x-x-x-x-x-x-xxxxxxxxxxxxxxxxxxxxxxxx-7777-9999-|
- -----------------2-2-2-2-2-2-2-2-777777777777777777777777-5555-7777-|
- -----------------0-0-0-0-0-0-0-0-555555555555555555555555------0000-|

[Riff 1] - [00:39] - [00:55]

[Riff 3] - [00:55] - [01:06]
- -------------------------------------------------------------------|
- -6-6-6-6-6-6-6-6---------------------------------------------------|
- -7-7-7-7-7-7-7-7-4-4-4-4-4-4-4-4-999999999999999999999999----------|
- -4-4-4-4-4-4-4-4-x-x-x-x-x-x-x-x-xxxxxxxxxxxxxxxxxxxxxxxx-77777777-|
- -----------------2-2-2-2-2-2-2-2-777777777777777777777777-55555555-|
- -----------------0-0-0-0-0-0-0-0-555555555555555555555555----------|

  ---------------------------------|
  -6-6-6-6-6-6-6-6-----------------|
  -7-7-7-7-7-7-7-7-4-4-4-4-4-4-4-4-|
  -4-4-4-4-4-4-4-4-x-x-x-x-x-x-x-x-|
  -----------------2-2-2-2-2-2-2-2-|
  -----------------0-0-0-0-0-0-0-0-|

[Riff 1] - [01:06] - [01:10]

[Riff 4] - [01:10] - [01:26]
- -----------------------------------------|
- -----------------------------------------|
- -9999-9-99-4444-4-44-----------4444-4-44-|
- -xxxx-x-xx-xxxx-x-xx-7777-7-77-xxxx-x-xx-|
- -7777-7-77-2222-2-22-5555-5-55-2222-2-22-|
- -5555-5-55-0000-0-00-----------0000-0-00-|

[Riff 1] - [01:26] - [01:49]
[Riff 3] - [01:49] - [02:01]
[Riff 1] - [02:01] - [02:05]
[Riff 4] - [02:05] - [02:20]

[Riff 5] - [02:20] - [02:35]
- -----------------------------------------------------------------|
- -----------------------------------------------------------------|
- -9-9-9-9-9-9-9-9-4-4-4-4-4-4-4-4-6-6-6-6-6-6-6-6-----------------|
- -x-x-x-x-x-x-x-x-x-x-x-x-x-x-x-x-x-x-x-x-x-x-x-x-----------------|
- -7-7-7-7-7-7-7-7-2-2-2-2-2-2-2-2-4-4-4-4-4-4-4-4-2-2-2-4-4-4-2-0-|
- -5-5-5-5-5-5-5-5-0-0-0-0-0-0-0-0-2-2-2-2-2-2-2-2-0-0-0-0-0-0-0-0-|

[Riff 6] - [02:35] - [03:04]
- -----------------------------------------------------------------|
- -----------------------------------------------------------------|
- -----------------------------------------------------------------|
- -----------------9-9-9-9-9-9-9-9---------------------------------|
- -7-7-7-7-7-7-7-7-7-7-7-7-7-7-7-7-4-4-4-4-4-4-4-4-2-2-2-2-2-2-2-2-|
- -5-5-5-5-5-5-5-5-0-0-0-0-0-0-0-0-2-2-2-2-2-2-2-2-0-0-0-0-0-0-0-0-|
PM ...............................................................

[Riff 7 (Overdub)] - [02:51] - [03:04]
- -----------|
- -----------|
- -9--7\6----| It's probably possible to play this and Riff 6 at the
- -x--x-x----| same time. feel free. it also could be played seperatly.
- -7--5\4----| Live: this is just played, and the bass plays Riff 6.
- -----------| Your call.

[Riff 8] - [03:04] - [03:14]
- ----
- ----
- -4~-
- -x--
- -2~-
- -0~-


4. [Stupid Kid] - [02:24]

[Riff 1] - [00:00] - [00:01]
- -------|
- -------|
- -------|
- -xx-0~-
- -xx-0~-
- -xx----

[Riff 2] - [00:01] - [00:09]
- -----------------------------------------------------------------|
- -----------------------------------------------------------------|
- -11111111--9-9-9-8-8-8-8-6-6-----8-8-8-8---9-9-9-8-8-8-8-6-6-----|
- -x-x-x-x-x-x-x-x-x-x-x-x-x-x-x-x-x-x-x-x-x-x-x-x-x-x-x-x-x-x-x-x-|
- -9-9-9-9-x-7-7-7-6-6-6-6-4-4-x-x-6-6-6-6-x-7-7-7-6-6-6-6-4-4-x-x-|
- -7-7-7-7-x-------------------x-x-4-4-4-4-x-------------------x-x-|

[Riff 3] - [00:09] - [00:21]
- ---------------------------------|
- ---------------------------------|
- -11111111----6-6-6-6-----4-4-4-4-|
- -x-x-x-x-----x-x-x-x-----x-x-x-x-|
- -9-9-9-9-----4-4-4-4-----2-2-2-2-|
- -7-7-7-7-----2-2-2-2-----0-0-0-0-|

[Riff 4] - [00:21] - [00:25]
- --------------------------------------|
- --------------------------------------|
- -11111111----6-6-6-6-----4-4-4-4------|
- -x-x-x-x-----x-x-x-x-----x-x-x-x-xxxx-|
- -9-9-9-9-----4-4-4-4-----2-2-2-2-xxxx-|
- -7-7-7-7-----2-2-2-2-----0-0-0-0-xxxx-|

[Riff 2] - [00:25] - [00:33]
[Riff 3] - [00:33] - [00:45]

[Riff 5] - [00:45] - [00:49]
- ---------------------------------------|
- ---------------------------------------|
- -11111111----6-6-6-6------4-4-4-4------|
- -x-x-x-x-----x-x-x-x-xxxx-x-x-x-x-xxxx-|
- -9-9-9-9-----4-4-4-4-xxxx-2-2-2-2-xxxx-|
- -7-7-7-7-----2-2-2-2-xxxx-0-0-0-0-xxxx-|

[Riff 6] - [00:49] - [01:05]
- -----------------------------------------------------------------|
- -----------------------------------------------------------------|
- -111111111111111111111111111111118-8-8-8-8-8-8-8-6-6-6-6-6-6-6-6-|
- -x-x-x-x-x-x-x-x-x-x-x-x-x-x-x-x-x-x-x-x-x-x-x-x-x-x-x-x-x-x-x-x-|
- -9-9-9-9-9-9-9-9-9-9-9-9-9-9-9-9-6-6-6-6-6-6-6-6-4-4-4-4-4-4-4-4-|
- -7-7-7-7-7-7-7-7-7-7-7-7-7-7-7-7-4-4-4-4-4-4-4-4-2-2-2-2-2-2-2-2-|

  -----------------------------------------------------------------|
  -----------------------------------------------------------------|
  -111111111111111111111111111111118-8-8-8-8-8-8-8-6-6-6-6-6-6-6-6-|
  -x-x-x-x-x-x-x-x-x-x-x-x-x-x-x-x-x-x-x-x-x-x-x-x-x-x-x-x-x-x-x-x-|
  -9-9-9-9-9-9-9-9-9-9-9-9-9-9-9-9-6-6-6-6-6-6-6-6-4-4-4-4-4-4-4-4-|
  -7-7-7-7-7-7-7-7-7-7-7-7-7-7-7-7-4-4-4-4-4-4-4-4-2-2-2-2-2-2-2-2-|

  -----------------------------------------------------------------|
  -----------------------------------------------------------------|
  -111111111111111111111111111111118-8-8-8-8-8-8-8-6-6-6-6-6-6-6-6-|
  -x-x-x-x-x-x-x-x-x-x-x-x-x-x-x-x-x-x-x-x-x-x-x-x-x-x-x-x-x-x-x-x-|
  -9-9-9-9-9-9-9-9-9-9-9-9-9-9-9-9-6-6-6-6-6-6-6-6-4-4-4-4-4-4-4-4-|
  -7-7-7-7-7-7-7-7-7-7-7-7-7-7-7-7-4-4-4-4-4-4-4-4-2-2-2-2-2-2-2-2-|

  ---------------|
  ---------------|
  -4~----6~--4~--|
  -x-----x---x---|
  -2~----4~--2~--|
  -0~----2~--0~--|

[Riff 2] - [01:05] - [01:13]
[Riff 3] - [01:13] - [01:27]
[Riff 5] - [01:27] - [01:29]
[Riff 6] - [01:29] - [01:45]

[Riff 7] - [01:45] - [01:53]
- ----------------------------------------------------------------|
- ----------------------------------------------------------------|
- -111111111111----9-9-8-8-8-6-6-6-8-8-8-8-8-8----9-9-8-8-8-6-6-6-|
- -x-x-x-x-x-x--xx-x-x-x-x-x-x-x-x-x-x-x-x-x-x-xx-x-x-x-x-x-x-x-x-|
- -9-9-9-9-9-9--xx-7-7-6-6-6-4-4-4-6-6-6-6-6-6-xx-7-7-6-6-6-4-4-4-|
- -7-7-7-7-7-7--xx-----------------4-4-4-4-4-4-xx-----------------|

[Riff 8] - [01:53] - [02:01]
- -----------------------------------------------------|
- -----------------------------------------------------|
- -444444444444444444444444-33333333-3/444444444444444-|
- -xxxxxxxxxxxxxxxxxxxxxxxx-xxxxxxxx-x-xxxxxxxxxxxxxxx-|
- -222222222222222222222222-11111111-1/222222222222222-|
- -----------------------------------------------------|

  --------------------|
  --------------------|
  -99999999-8888-6666-|
  -xxxxxxxx-xxxx-xxxx-
  -77777777-6666-4444-|
  --------------------|

[Riff 6] - [02:01] - [02:17]

[Riff 9] - [02:17] - [02:24]
- -----|
- -----|
- -11~-
- -x---
- -9~--
- -7~--


5. [Another Innocent Girl] - [03:38]

[Riff 1] - [00:00] - [00:01]
- ------|
- ---5~-|
- -6~---|
- ------|
- ------|
- ------|

[Riff 2] - [00:01] - [00:14]
- --------------------------------------------------------------------|
- --------------------------------------------------------------------|
- -9-9-9-9-9-9-9-99-9-9-9-9-9-9-9-99-7-7-7-7-7-7-7-7-7-7-7-7-7-7-7-77-|
- -x-x-x-x-x-x-x-xx-6-6-6-6-6-6-6-66-7-7-7-7-7-7-7-7-7-7-7-7-7-7-7-77-|
- -7-7-7-7-7-7-7-77-7-7-7-7-7-7-7-77-5-5-5-5-5-5-5-5-5-5-5-5-5-5-5-55-|
- -5-5-5-5-5-5-5-55-0-0-0-0-0-0-0-00----------------------------------|

[Riff 1] - [00:13] - [00:14]

[Riff 3] - [00:14] - [00:26]
- ----
- ----
- ----
- -7~-
- -7~-
- -5~-

[Riff 4] - [00:26] - [00:40]
- ----------------------------------|
- ---5~--5-~--5h7~------5~--5~------|
- -6~--6~--6~-6h7~----6~--6~--6~-7~-|
- ------------0~-----------------0~-|
- ----------------------------------|
- ----------------------------------|

[Riff 5] - [00:40] - [00:53]
- ----------------------------------------------------------------------|
- ----------------------------------------------------------------------|
- -------------------11111111111111111414141414141414-66666666-44444444-|
- -------------------x-x-x-x-x-x-x-x-x-x-x-x-x-x-x-x--xxxxxxxx-xxxxxxxx-|
- -44444444-22222222-9-9-9-9-9-9-9-9-1212121212121212-44444444-22222222-|
- -22222222-00000000-7-7-7-7-7-7-7-7-1010101010101010-22222222-00000000-|
PM .................

  ------------------|
  ------------------|
  -7777777777777777-
  -7777777777777777-
  -5555555555555555-
  ------------------

[Riff 2] - [00:53] - [01:06]
[Riff 3] - [01:06] - [01:19]
[Riff 4] - [01:19] - [01:32]

[Riff 6] - [01:32] - [01:45]
- ----------------------------------------------------------------------|
- ----------------------------------------------------------------------|
- -------------------11111111111111111414141414141414-66666666-44444444-|
- -------------------x-x-x-x-x-x-x-x-x-x-x-x-x-x-x-x--xxxxxxxx-xxxxxxxx-|
- -44444444-22222222-9-9-9-9-9-9-9-9-1212121212121212-44444444-22222222-|
- -22222222-00000000-7-7-7-7-7-7-7-7-1010101010101010-22222222-00000000-|
PM .................

  ------------------------|
  ------------------------|
  -77777777-6/7-7/9-9-9-9-|
  -77777777-x-x-x-x-x-x-x-|
  -55555555-4/5-5/7-7-7-7-|
  ------------------------|

[Riff 7] - [01:45] - [01:58]
- -----------------------------------------------------------------|
- -----------------------------------------------------------------|
- -9-9-9-9-9-9-9-9-6-6-6-7-7-7-6-6-7-7-7-7-7-7-7-7-7-7-7-7-7-7-7-7-|
- -x-x-x-x-x-x-x-x-x-x-x-x-x-x-x-x-7-7-7-7-7-7-7-7-7-7-7-7-7-7-7-7-|
- -7-7-7-7-7-7-7-7-7-7-7-7-7-7-7-7-5-5-5-5-5-5-5-5-5-5-5-5-5-5-5-5-|
- -5-5-5-5-5-5-5-5-5-5-5-5-5-5-5-5---------------------------------|

[Riff 2] - [01:58] - [02:12]
[Riff 3] - [02:12] - [02:24]
[Riff 4] - [02:24] - [02:38]
[Riff 6] - [02:38] - [02:51]
[Riff 7] - [02:51] - [03:17]

[Riff 8] - [03:17] - [03:38]
- -------------------------------------------------------------|
- -------------------------------------------------------------|
- -4444444444444444-7777777777777777-4444444444444444-77777777-|
- -xxxxxxxxxxxxxxxx-xxxxxxxxxxxxxxxx-xxxxxxxxxxxxxxxx-xxxxxxxx-|
- -2222222222222222-5555555555555555-2222222222222222-55555555-|
- -0000000000000000------------------0000000000000000----------|

  --------------|
  --------------|
  -6666-4444----|
  -xxxx-xxxx-2~-
  -4444-2222-0~-|
  --------------|


6. [Streamer Trunk] - [02:50]

** Pay attention to the times in this song, i just tabbed the seperate
   riffs and thers alot of overdubbing**

[Riff 1] - [00:00:] - [00:09]
- ------------------------------------------------------------------------|
- ------------------------------------------------------------------------|
- -666666666666-4444-6666666666-444444-66666666666-1111-44-6666666666-444-|
- -xxxxxxxxxxxx-xxxx-xxxxxxxxxx-xxxxxx-xxxxxxxxxxx-x-x--xx-xxxxxxxxxx-xxx-|
- -444444444444-2222-4444444444-222222-44444444444-9-9--22-4444444444-222-|
- ------------------------------------------------------------------------|

[Riff 2] - [00:00:] - [00:09]
- ----------------------------------------------------------------|
- ----------------------------------------------------------------|
- ----------------------------------------------------------------|
- -7777777777777777-111111111111111111111111-9999-777777777777777-|
- -7777777777777777-9-9-9-9-9-9-9-9-9-9-9-9--7777-777777777777777-|
- -5555555555555555--------------------------0000-555555555555555-|

  ----------------------------|
  ----------------------------|
  ----------------------------|
  -111111111111111111111111-9-|
  -9-9-9-9-9-9-9-9-9-9-9-9--7-|
  --------------------------0-|

[Riff 3] - [00:09] - [00:24]
- -----------------|
- -----------------|
- -6~---4~-6~---4~-|
- -x----x--x----x--|
- -4~---2~-4~---2~-|
- -----------------|

[Riff 4] - [00:09] - [00:24]
- --------------------|
- --------------------|
- --------------------|
- -7~---7-7-11~---9-9-|
- -7~---7-7-9~----7-7-|
- -5~---5-5-------0-0-|

[Riff 5] - [00:24] - [00:29]
- -------------------------------|
- -------------------------------|
- -44444444444444444-77777777-4~-|
- -xxxxxxxxxxxxxxxxx-77777777-x--|
- -22222222222222222-55555555-2~-|
- -00000000000000000-55555555-0~-|

[Riff 1 + 2] - [00:29] - [00:38]
[Riff 3 + 4] - [00:38] - [00:52]

[Riff 6] - [00:52] - [00:57]
- --------------------------------------|
- --------------------------------------|
- -44444444444444444-77777777-6666-4444-|
- -xxxxxxxxxxxxxxxxx-xxxxxxxx-xxxx-xxxx-|
- -22222222222222222-55555555-4444-2222-|
- -00000000000000000--------------------|

[Riff 7] - [00:57] - [01:16]
- ---------------------------------------------------------------------|
- ---------------------------------------------------------------------|
- -99999999999999999-14141414141414141414141414141414------------------|
- -xxxxxxxxxxxxxxxxx-x-x-x-x-x-x-x-x-x-x-x-x-x-x-x-x-------------------|
- -77777777777777777-12121212121212121212121212121212-4444444444444444-|
- -55555555555555555-10101010101010101010101010101010-2222222222222222-|

  ------------------|
  ------------------|
  ------------------|
  ------------------|
  -2222222244422222-
  -0000000000000000-

[Riff 1 + 2] - [01:16] - [01:25]
[Riff 3 + 4] - [01:25] - [01:40]
[Riff 5] - [01:40] - [01:44]
[Riff 7] - [01:44] - [02:03]

[Riff 8] - [02:03] - [02:21]
- ----------|
- -----5~---|
- ---6~--6~-|
- ----------|
- -0~-------|
- ----------|

[Riff 9] - [02:21] - [02:23]
--------|
--------|
--------|
-\\\///-
-\\\///-
-\\\///-

[Riff 7] - [02:23] - [02:42]

[Riff 10] - [02:42] - [02:50]
- ----
- ----
- -9~-
- -x--
- -7~-
- -5~-


7. [You're Dead] - [03:51]

[Riff 1] - [00:00] - [00:14]
- --------------------------------------------------------------------|
- --------------------------------------------------------------------|
- -11/13-13-13-13-13-13-13-13-13-13-1111-11-11-11-1111-11/13-13-13-13-|
- -x--x--x--x--x--x--x--x--x--x--x--x-x--x--x--x--x-x--x--x--x--x--x--|
- -9/-11-11-11-11-11-11-11-11-11-11-9-9--9--9--9--9-9--9/-9--9--9--9--|
- -0~----0--0--0--0--0--0--0--0--0--0-0--0--0--0--0-0--0~----0--0--0--|

  ---------------------------------|
  ---------------------------------|
  -13-13-13-1111-11-11-11-99-9-9-9-|
  -x--x--x--x-x--x--x--x--xx-x-x-x-|
  -11-11-11-9-9--9--9--9--77-7-7-7-|
  -0--0--0--7-7--7--7--7--55-5-5-5-|

[Riff 2] - [00:14] - [00:29]
- ------------------------------------------|
- ------------------------------------------|
- -11/13~----11/13~----11-11-11-99-9-9-9-99-|
- -x--x------x--x------x--x--x--xx-x-x-x-xx-|
- -9/-11~----9/11~-----9--9--9--77-7-7-7-77-|
- -0~--------0~--------7--7--7--55-5-5-5-55-|

[Riff 3] - [00:29] - [00:43]
- ------------------------------------------------------------------|
- ------------------------------------------------------------------|
- -11/13-13-13-13-13-13-13-13-13-13-11-11-11-11-1111-11/13-13-13-13-|
- -x--x--x--x--x--x--x--x--x--x--x--x--x--x--x--x-x--x--x--x--x--x--|
- -9/-11-11-11-11-11-11-11-11-11-11-9--9--9--9--9-9--9/-9--9--9--9--|
- -0~----0--0--0--0--0--0--0--0--0--0--0--0--0--0-0--0~----0--0--0--|

  -------------------------------------------------------------------|
  -------------------------------------------------------------------|
  -13-13-13-1111-11-11-11-99-9-9-9--11/13-13-13-13-13-13-13-13-13-13-|
  -x--x--x--x-x--x--x--x--xx-x-x-x--x--x--x--x--x--x--x--x--x--x--x--|
  -11-11-11-9-9--9--9--9--77-7-7-7--9/-11-11-11-11-11-11-11-11-11-11-|
  -0--0--0--7-7--7--7--7--55-5-5-5--0~----0--0--0--0--0--0--0--0--0--|

  --------------------------------------------------------|
  --------------------------------------------------------|
  -13-13-13-13-13-9-9-9-9-9-9-9-9-11-11-11-11-11-11-11-11-|
  -x--x--x--x--x--x-x-x-x-x-x-x-x-x--x--x--x--x--x--x--x--|
  -11-11-11-11-11-7-7-7-7-7-7-7-7-9--9--9--9--9--9--9--9--|
  -0--0--0--0--0--5-5-5-5-5-5-5-5-7--7--7--7--7--7--7--7--|

[Riff 4] - [00:43] - [00:51]
- ---------------------------------------------------------------------|
- ---------------------------------------------------------------------|
- -9/11-11-11-11\9-9-9-9-9-9-9-9-9-9-9-9/11-11-11-11\9-9-9-11-11-11-11-|
- -x-x--x--x--x--x-x-x-x-x-x-x-x-x-x-x-x-x--x--x--x--x-x-x-x--x--x--x--|
- -7/9--9--9--9\-7-7-7-7-7-7-7-7-7-7-7-7/9--9--9--9\-7-7-7-9--9--9--9--|
- -0~---0--0--0~---0-0-5-5-5-5-5-5-5-5-0~---0--0--0~---0-0-7--7--7--7--|

  -------------|
  -------------|
  -11-11-11-11-|
  -x--x--x--x--|
  -9--9--9--9--|
  -7--7--7--7--|

[Riff 2] - [00:51] - [01:05]

[Riff 5] - [01:05] - [01:19]
- ------------------------------------------------------------------|
- ------------------------------------------------------------------|
- -11/13-13-13-13-13-13-13-13-13-13-11-11-11-11-1111-11/13-13-13-13-|
- -x--x--x--x--x--x--x--x--x--x--x--x--x--x--x--x-x--x--x--x--x--x--|
- -9/-11-11-11-11-11-11-11-11-11-11-9--9--9--9--9-9--9/-9--9--9--9--|
- -0~----0--0--0--0--0--0--0--0--0--0--0--0--0--0-0--0~----0--0--0--|
PM

  -------------------------------------------------------------------|
  -------------------------------------------------------------------|
  -13-13-13-1111-11-11-11-99-9-9-9--11/13-13-13-13-13-13-13-13-13-13-|
  -x--x--x--x-x--x--x--x--xx-x-x-x--x--x--x--x--x--x--x--x--x--x--x--|
  -11-11-11-9-9--9--9--9--77-7-7-7--9/-11-11-11-11-11-11-11-11-11-11-|
  -0--0--0--7-7--7--7--7--55-5-5-5--0~----0--0--0--0--0--0--0--0--0--|


  ------------------------------------------------|
  ------------------------------------------------|
  -13-13-13-13-13---------------------------------|
  -x--x--x--x--x----------------------------------|
  -11-11-11-11-11-7-7-7-7-7-7-7-7-9-9-9-9-9-9-9-9-|
  -0--0--0--0--0--5-5-5-5-5-5-5-5-7-7-7-7-7-7-7-7-|
                  ................................

[Riff 6] - [01:19] - [01:34]
- -------------------------------------------------------------|
- -------------------------------------------------------------|
- -9/11-11-11-11\9-11-11-11-11-11-11-11-11-9/11-11-11-11\9-9-9-|
- -x-x--x--x--x--x-x--x--x--x--x--x--x--x--x-x--x--x--x--x-x-x-|
- -7/9--9--9--9\-7-9--9--9--9--9--9--9--9--7/9--9--9--9\-7-7-7-|
- -0~---0--0--0~---0--0--7--7--7--7--7--7--0~---0--0--0~---0-0-|

  ---------------------------------------------------------|
  ---------------------------------------------------------|
  -9-9-9-9-9-9-9-9-9/11-11-11-11\9-11-11-11-11-11-11-11-11-|
  -x-x-x-x-x-x-x-x-x-x--x--x--x--x-x--x--x--x--x--x--x--x--|
  -7-7-7-7-7-7-7-7-7/9--9--9--9\-7-9--9--9--9--9--9--9--9--|
  -5-5-5-5-5-5-5-5-0~---0--0--0~---0--0--7--7--7--7--7--7--|

  ---------------------------------|
  ---------------------------------|
  -9-9-9-9-9-9-9-8-8-8-8-9-9-9-9-9-|
  -x-x-x-x-x-x-x-x-x-x-x-x-x-x-x-x-|
  -7-7-7-7-7-7-7-7-7-7-7-7-7-7-7-7-|
  -5-5-5-5-5-5-5-5-5-5-5-5-5-5-5-5-|

[Riff 1] - [01:34] - [01:48]

[Riff 7] - [01:48] - [02:14]
- --------|
- --------|
- -11/13~-|
- -x--x---|
- -9/-11~-|
- -0~-----|

[Riff 8] - [02:14] - [02:17]
- ---------------------------------|
- ---------------------------------|
- ---------------------------------|
- ---------------------------------|
- -7-7-7-7-7-7-7-7-9-9-9-9-9-9-9-9-|
- -5-5-5-5-5-5-5-5-7-7-7-7-7-7-7-7-|
PM ...............................

[Riff 6] - [02:17] - [02:46]

[Riff 9] - [02:46] - [03:05]
- ------------------------------------|
- ------------------------------------|
- -6666666666666666-------------------|
- -6666666666666666-66666666-88888888-|
- -4444444444444444-66666666-88888888-|
- ------------------44444444-66666666-|
PM ..................................

[Riff 10] - [03:05] - [03:14]
- ---------------------------------------------------------------|
- ---------------------------------------------------------------|
- -6666666666666666---------1111-11-1111111111111111111111111111-|
- -6666666666666666---------x-x--x--x-x-x-x-x-x-x-x-x-x-x-x-x-x--|
- -4444444444444444-7777777-9-9--9--9-9-9-9-9-9-9-9-9-9-9-9-9-9--|
- ------------------5555555-7-7--7--7-7-7-7-7-7-7-7-7-7-7-7-7-7--|
PM ........................

[Riff 6] - [03:14] - [03:41]

[Riff 11] - [03:41] - [03:51]
- ----
- ----
- -9~-
- -x--
- -7~-
- -0~-

8. [Armageddon] - [02:49]

[Riff 1] - [00:00] - [00:05]
- --------------------|
- --------------------|
- --------------------|
- -99999999-6666-7777-|
- -77777777-4444-7777-|
- -00000000------5555-|

[Riff 2] - [00:05] - [00:10]
- ----------------------------------------------------|
- ----------------------------------------------------|
- -999999999999-8888-11111111111111111111111111111111-|
- -xxxxxxxxxxxx-xxxx-x-x-x-x-x-x-x-x-x-x-x-x-x-x-x-x--|
- -777777777777-6666-9-9-9-9-9-9-9-9-9-9-9-9-9-9-9-9--|
- -------------------7-7-7-7-7-7-7-7-7-7-7-7-7-7-7-7--|

[Riff 3] - [00:10] - [00:25]
- ----------------------------------------------------|
- ----------------------------------------------------|
- -13131313131313131313131313131313-99999999----------|
- -x-x-x-x-x-x-x-x-x-x-x-x-x-x-x-x--xxxxxxxx-99999999-|
- -11111111111111111111111111111111-77777777-77777777-|
- -9-9-9-9-9-9-9-9-9-9-9-9-9-9-9-9--55555555-00000000-|

[Riff 4] - [00:25] - [00:29]
- ------------------------------------------------------------|
- ------------------------------------------------------------|
- -13131313131313131313131313131313-99999999-1111111111111111-|
- -x-x-x-x-x-x-x-x-x-x-x-x-x-x-x-x--xxxxxxxx-x-x-x-x-x-x-x-x--|
- -11111111111111111111111111111111-77777777-9-9-9-9-9-9-9-9--|
- -9-9-9-9-9-9-9-9-9-9-9-9-9-9-9-9--55555555-7-7-7-7-7-7-7-7--|

[Riff 1] - [00:29] - [00:34]
[Riff 3] - [00:34] - [00:49]
[Riff 4] - [00:49] - [00:54]

[Riff 5] - [00:54] - [01:13]
- -------------------------------------------------------------------|
- -------------------------------------------------------------------|
- -99999999999999999999999999999999-13131313131313131313131313131313-|
- -xxxxxxxxxxxxxxxxxxxxxxxxxxxxxxxx-x-x-x-x-x-x-x-x-x-x-x-x-x-x-x-x--|
- -77777777777777777777777777777777-11111111111111111111111111111111-|
- -00000000000000000000000000000000-9-9-9-9-9-9-9-9-9-9-9-9-9-9-9-9--|

  ---------------------------|
  ---------------------------|
  -1111111111111111-99999999-|
  -x-x-x-x-x-x-x-x--xxxxxxxx-|
  -9-9-9-9-9-9-9-9--77777777-|
  -7-7-7-7-7-7-7-7--55555555-|

[Riff 1] - [01:13] - [01:18]
[Riff 2] - [01:18] - [01:23]

[Riff 6] - [01:23] - [01:28]
- ------------------|
- ------------------|
- -13~----9~--------|
- -x------x---9~----|
- -11~----7~--7~----|
- -9~-----5~--0~----|

[Riff 3] - [01:28] - [01:38]
[Riff 4] - [01:38] - [01:42]
[Riff 5] - [01:42] - [02:02]

[Riff 7] - [02:02] - [02:22]
- ----------------------------------------------------|
- ----------------------------------------------------|
- -1313131313131313-1111111111111111-9999999999999999-|
- -x-x-x-x-x-x-x-x--x-x-x-x-x-x-x-x--xxxxxxxxxxxxxxxx-|
- -1111111111111111-9-9-9-9-9-9-9-9--7777777777777777-|
- -9-9-9-9-9-9-9-9--7-7-7-7-7-7-7-7--5555555555555555-|

[Riff 6] - [02:22] - [02:41]

[Riff 8] - [02:41] - [02:49]
- ----
- ----
- -9~-
- -x--
- -7~-
- -0~-


9. [I'm Dying Tomorrow] - [02:33]

[Riff 1] - [00:00] - [00:17]
- ----------------------------------------------------|
- ----------------------------------------------------|
- -11111111111111111111111111111111-99999999-99989999-|
- -x-x-x-x-x-x-x-x-x-x-x-x-x-x-x-x--xxxxxxxx-xxxxxxxx-|
- -9-9-9-9-9-9-9-9-9-9-9-9-9-9-9-9--77777777-77777777-|
- -7-7-7-7-7-7-7-7-6-6-6-6-6-6-6-6--00000000-00000000-|

[Riff 2] - [00:17] - [00:22]
--------------------------------------------|
--------------------------------------------|
- -11111111111111111111111111111111-9~------|
- -x-x-x-x-x-x-x-x-x-x-x-x-x-x-x-x--x----9~-|
- -9-9-9-9-9-9-9-9-9-9-9-9-9-9-9-9--7~---7~-|
- -7-7-7-7-7-7-7-7-6-6-6-6-6-6-6-6--5~---0~-|

[Riff 3] - [00:22] - [00:41]
- ----------------------------------------------------------------------|
- ----------------------------------------------------------------------|
- -11------------------------------------------------------9---8--9-999-|
- -x-----------------9999999999998888----------------------x---x--x-xxx-|
- -9--99999999999999-7777777777777777-9999999999999999-7777777777777777-|
- -7--77777777777777-0000000000000000-7777777777777777-0000000000000000-|
PM    ..................................................... ... .. .

  ----------------------------------------------------|
  ----------------------------------------------------|
  -11--------------------------44444444---------------|
  -x-------------------------7-xxxxxxxx-4-4~--4444444-|
  -9--999999-99999999-777777-7-22222222-4-4~--4444444-|
  -7--777777-66666666-555555-5-00000000-2-2~--2222222-|
PM    ......................

[Riff 4] - [00:41] - [01:02]
- --------------------------------------------------------------------|
- --------------------------------------------------------------------|
- -11111111111111111111111111111111-9999999999989999-1111111111111111-|
- -x-x-x-x-x-x-x-x-x-x-x-x-x-x-x-x--xxxxxxxxxxxxxxxx-x-x-x-x-x-x-x-x--|
- -9-9-9-9-9-9-9-9-9-9-9-9-9-9-9-9--7777777777777777-9-9-9-9-9-9-9-9--|
- -7-7-7-7-7-7-7-7-7-7-7-7-7-7-7-7--0000000000000000-7-7-7-7-7-7-7-7--|

  --------------------------------------------------------------------|
  --------------------------------------------------------------------|
  -1111111111111111-9999999999989999-11111111111111111111111111111111-|
  -x-x-x-x-x-x-x-x--xxxxxxxxxxxxxxxx-x-x-x-x-x-x-x-x-x-x-x-x-x-x-x-x--|
  -9-9-9-9-9-9-9-9--7777777777777777-9-9-9-9-9-9-9-9-9-9-9-9-9-9-9-9--|
  -7-7-7-7-7-7-7-7--0000000000000000-7-7-7-7-7-7-7-7-6-6-6-6-6-6-6-6--|

  -----------------------------------------------------------|
  -----------------------------------------------------------|
  -99999999-44444444-6-6~--6666666-1111111111111111-99999999-|
  -xxxxxxxx-xxxxxxxx-x-x---xxxxxxx-x-x-x-x-x-x-x-x--xxxxxxxx-|
  -77777777-22222222-4-4~--4444444-9-9-9-9-9-9-9-9--77777777-|
  -55555555-00000000-2-2~--2222222-7-7-7-7-7-7-7-7--55555555-|

[Riff 1] - [01:02] - [01:18]
[Riff 2] - [01:18] - [01:22]
[Riff 3] - [01:22] - [01:40]
{Riff 4] - [01:40] - [02:01]
[Riff 1] - [02:01] - [02:21]

[Riff 5] - [02:21] - [02:33]
- -----|
- -----|
- -11~-
- -x---
- -9~--
- -7~--

10. [Bloodied Up] - [02:48]

[Riff 1] - [00:00] - [00:10]
- ---------------------------------------------------|
- ---------------------------------------------------|
- -4-4-444-6-66-6-666--------------------------------|
- -7-7-777-7-77-7-777-7-7-7-6--6-6-7-6-6-6-9-9-9-9-9-|
- -0-0-000-0-00-0-000-4-4-4-4--4-4-5-5-5-5-7-7-7-9-7-|
- -----------------------------------------0-0-0-0-0-|

[Riff 2] - [00:10] - [00:25]
- -|-----played only at the beginning. ---|
- -V-|------------------------------------|
- ---|------------------------------------|
- -7-|------------------77777766-77777777-|
- -7-|-7777777777777777-44444444-55555555-|
- -5-|-5555555555555555-------------------|
PM     ..................................

[Riff 3] - [00:25] - [00:31]
- -------------------------------------|
- -------------------------------------|
- -------------------------------------|
- ------------------77777777-7777-9999-|
- -7777777777777777-44444444-5555-7777-|
- -5555555555555555---------------0000-|
PM ..................

[Riff 1] - [00:31] - [00:41]
[Riff 2] - [00:41] - [00:56]
[Riff 3] - [00:57] - [01:01]

[Riff 4] - [01:01] - [01:22]
- -------------------------------------------------------------------------|
- -------------------------------------------------------------------------|
- -9-9-999-9-99-9999-------------------4-4-444-4-44-4444----------99999999-|
- -x-x-xxx-x-xx-xxxx-4-4-444-6-66-4444-x-x-xxx-x-xx-xxxx-77777777-xxxxxxxx-|
- -7-7-777-7-77-7777-4-4-444-4-44-4444-2-2-222-2-22-2222-55555555-77777777-|
- -5-5-555-5-55-5555-2-2-222-2-22-2222-0-0-000-0-00-0000-55555555-00000000-|

[Riff 1] - [01:22] - [01:33]

[Riff 5] - [01:33] - [01:43]
- ----
- ----
- ----
- -7~-
- -7~-
- -5~-

[Riff 2] - [01:43] - [01:48]
[Riff 3] - [01:48] - [01:53]
[Riff 1] - [01:53] - [02:03]

[Riff 6] - [02:03] - [02:11]
- ------------------|
- ------------------|
- -9999999977766666-|
- -7777777777777777-|
- -0000000000000000-|
- ------------------|

[Riff 7] - [02:11] - [02:14]
- ------------------|
- ------------------|
- -4446664477774444-|
- -7777777777777777-|
- -0000000000000000-|
- ------------------|

[Riff 8] - [02:14] - [02:33]
- -------------------------------------------------------------|
- -------------------------------------------------------------|
- -99999----66-666-666-666-644-444-444-444-4----------99999999-|
- -xxxxx----xx-xxx-xxx-xxx-xxx-xxx-xxx-xxx-x-77777777-xxxxxxxx-|
- -77777----44-444-444-444-422-222-222-222-2-55555555-77777777-|
- -55555----22-222-222-222-200-000-000-000-0----------00000000-|

  --------------------------------------------------------------------|
  --------------------------------------------------------------------|
  -99-999-999-999-966-666-666-666-644-444-444-444-4----------99999999-|
  -xx-xxx-xxx-xxx-xxx-xxx-xxx-xxx-xxx-xxx-xxx-xxx-x-77777777-xxxxxxxx-|
  -77-777-777-777-744-444-444-444-422-222-222-222-2-55555555-77777777-|
  -55-555-555-555-522-222-222-222-200-000-000-000-0----------00000000-|

[Riff 9] - [02:33] - [02:48]
- -------------------------------------------------------------------|
- -------------------------------------------------------------------|
- -1414-141414-141414-1466-61111-111111-111111-111111-1199-999-91313-|
- -x-x--x-x-x--x-x-x--x-xx-xx-x--x-x-x--x-x-x--x-x-x--x-xx-xxx-xx-x--|
- -1212-121212-121212-1244-49-9--9-9-9--9-9-9--9-9-9--9-77-777-71111-|
- -------------------------------------------------------------------|

  ---------------------------------|
  ---------------------------------|
  -131414-1477-777-799-999-99~---9-|
  -x-x-x--x-xx-xxx-xxx-xxx-xx----x-|
  -111212-1255-555-577-777-77~---7-|
  --------------------------5~---5-|


11. [Trucks And Trains] - [03:21]

[Riff 1] - [00:00] - [00:15]
- -77-99-1010-1212-1010-99-1010-90--------------------|
- -00-00-0-0--0-0--0-0--00-0-0--00-7777777-888888-777-|
- ---------------------------------0000000-000000-000-|
- ----------------------------------------------------|
- ----------------------------------------------------|
- ----------------------------------------------------|

  -77-99-1010-1212-1010-99-1010-90--------------------|
  -00-00-0-0--0-0--0-0--00-0-0--00-7777777-8888-7br---|
  ---------------------------------0000000-0000-------|
  ----------------------------------------------------|
  ----------------------------------------------------|
  ----------------------------------------------------|

[No Guitar] - [00:15] - [00:35]

[Riff 2] - [00:35] - [00:38]
- -------------------|
- -------------------|
- -------------------|
- -------------------|
- -55555555-77777777-|
- -33333333-55555555-|
PM .................

[Riff 3] - [00:38] - [00:57]
- ------------------------------------------------|
- ------------------------------------------------|
- -141414141414141414141414-9999-7777777777777777-|
- -x-x-x-x-x-x-x-x-x-x-x-x--xxxx-xxxxxxxxxxxxxxxx-|
- -121212121212121212121212-7777-5555555555555555-|
- -101010101010101010101010-5555-3333333333333333-|

[Riff 4] - [00:57] - [01:03]
- -----------------------------------|
- -----------------------------------|
- -9999999999999999-77777777-9999999-|
- -xxxxxxxxxxxxxxxx-xxxxxxxx-xxxxxxx-
- -7777777777777777-55555555-7777777-|
- -5555555555555555-33333333-5555555-|

[Riff 5] - [01:03] - [01:16]
- -77-99-1010-1212-1010-99-1010-90--------------------|
- -00-00-0-0--0-0--0-0--00-0-0--00-7777777-888888-777-|
- ---------------------------------0000000-000000-000-|
- ----------------------------------------------------|
- ----------------------------------------------------|
- ----------------------------------------------------|

  -77-99-1010-1212-1010-99-1010-90----------------------|
  -00-00-0-0--0-0--0-0--00-0-0--00-7777777-888888-7777\-|
  ---------------------------------0000000-000000-------|
  ------------------------------------------------------|
  ------------------------------------------------------|
  ------------------------------------------------------|

[No Guitar] - [01:16] - [01:27]

[Riff 6] - [01:27] - [01:29]
- -----|
- -----|
- -///-
- -///-
- -///-
- -----

[No Guitar] - [01:29] - [01:39]

[Riff 2] - [01:38] - [01:41]
[Riff 3] - [01:41] - [02:00]
[Riff 4] - [02:00] - [02:06]

[Riff 7] - [02:06] - [02:19]
- -77-99-1010-1212-1010-99-1010-99-|
- -00-00-0-0--0-0--0-0--00-0-0--00-|
- ---------------------------------|
- ---------------------------------|
- ---------------------------------|
- ---------------------------------|

[Riff 8] - [02:19] - [02:37]
- ---------------------------------------|
- ---------------------------------------|
- ---------------------------------------|
- ----------------------------------77-9-|
- -99999999-77777777-5555555-555555-55-9-|
- -77777777-55555555-3333333-222222----7-|
PM ................................

[Riff 9] - [02:38] - [02:44]
- ---------------------------------------------|
- ---------------------------------------------|
- -1111111111111111-99999999-77777777-99999999-|
- -x-x-x-x-x-x-x-x--xxxxxxxx-xxxxxxxx-xxxxxxxx-|
- -9-9-9-9-9-9-9-9--77777777-55555555-77777777-|
- -7-7-7-7-7-7-7-7--55555555-33333333-55555555-|

[Riff 6] - [02:39] - [02:44]
[Riff 3] - [02:44] - [03:02]
[Riff 4] - [03:02] - [03:09]

[Riff 10] - [03:09] - [03:21]
- -----|
- -----|
- -14~-
- -x---
- -12~-
- -10~-


12. [Crawl] - [04:23]

[Riff 1] - [00:00] - [00:27]
- ---------------------------------------------------------|
- ------------------7777-5555------------------99-77-44-55-|
- -1313131313131313-xxxx-xxxx-1111111111111111-xx-xx-xx-xx-|
- -x-x-x-x-x-x-x-x--4444-2222-x-x-x-x-x-x-x-x--66-44-11-22-|
- -1111111111111111-0000-0000-9-9-9-9-9-9-9-9--00-00-00-00-|
- -9-9-9-9-9-9-9-9------------7-7-7-7-7-7-7-7--------------|

  --------------------------------------------------------|
  ------------------7777-5555-----------------------------|
  -1313131313131313-xxxx-xxxx-99999999-1414-1313-11-9-8-9-|
  -x-x-x-x-x-x-x-x--4444-2222-xxxxxxxx-x-x--x-x--x--x-x-x-|
  -1111111111111111-0000-0000-77777777-1212-1111-9--7-6-7-|
  -9-9-9-9-9-9-9-9------------00000000-0-0--0-0--0--0-0-0-|

[Riff 2] - [00:27] - [00:29]
- ----
- ----
- ----
- -9~-
- -9~-
- -7~-

[No Guitar] - [00:29] - [00:54]

[Riff 3] - [00:54] - [01:00]
- ------------------------------------|
- ------------------------------------|
- ------------------------------------|
- -44444444-66666666----------7777777-|
- -22222222-44444444-7777777777777777-|
- -------------------5555555555555555-|
PM ...........................

[Riff 1] - [01:00] - [01:14]

[Riff 4] - [01:14] - [01:41]
- ----------------------------------------------------|
- ----------------------------------------------------|
- -1111111111111111-1414141413131313-9999999999999999-|
- -x-x-x-x-x-x-x-x--x-x-x-x-x-x-x-x--xxxxxxxxxxxxxxxx-|
- -9-9-9-9-9-9-9-9--1212121212121212-7777777777777777-|
- -7-7-7-7-7-7-7-7--1010101010101010-5555555555555555-|

[Riff 5] - [01:41] - [01:44]
- --------------------------------|
- --------------------------------|
- -111111111111111111111111111111-|
- -x-x-x-x-x-x-x-x-x-x-x-x-x-x-x--|
- -9-9-9-9-9-9-9-9-9-9-9-9-9-9-9--|
- -7-7-7-7-7-7-7-7-7-7-7-7-7-7-7--|

[Riff 6] - [01:44] - [02:11]
- -----------------------------------------------------|
- ----------101010-99999-------------------------------|
- -99999999-x-x-x--xxxxx-999999-11/13-1313131313131313-|
- -xxxxxxxx-7-7-7--66666-xxxxxx-x--x--x-x-x-x-x-x-x-x--|
- -77777777-0-0-0--00000-777777-9/-11-1111111111111111-|
- -00000000--------------000000-0~----0-0-0-0-0-0-0-0--|

  ---------------------------------------------------|
  ---------------------------------------------------|
  -11111111111111111111111111111111-9999999999999999-|
  -x-x-x-x-x-x-x-x-x-x-x-x-x-x-x-x--xxxxxxxxxxxxxxxx-|
  -9-9-9-9-9-9-9-9-9-9-9-9-9-9-9-9--7777777777777777-|
  -7-7-7-7-7-7-7-7-7-7-7-7-7-7-7-7--5555555555555555-|

[Riff 7] - [02:11] - [02:15]
- ------------------|
- ------------------|
- -9999999988889999-|
- -xxxxxxxxxxxxxxxx-
- -7777777777777777-|
- -5555555555555555-|

[Riff 8] - [02:15] - [02:28]
- ----------------------------------------------------------------|
- ----------------------------------------------------------------|
- -88-99-1111-99-88-99-99999999-88-99-1111-99-88-99-13131313-9999-|
- -xx-xx-x-x--xx-xx-xx-xxxxxxxx-xx-xx-x-x--xx-xx-xx-x-x-x-x--xxxx-|
- -99-99-9-9--99-99-99-77777777-99-99-9-9--99-99-99-11111111-7777-|
- -77-77-7-7--77-77-77-00000000-77-77-7-7--77-77-77-0-0-0-0--0000-|

[Riff 9] - [02:28] - [02:55]
- ------------------------------------|
- ------------------------------------|
- ------------------------------------|
- -44444444-66666666------------------|
- -22222222-44444444-7777777777777777-|
- -------------------5555555555555555-|
PM ..................................

[Riff 10] - [02:55] - [02:59]
- -----------------|
- -----------------|
- -----------------|
- -444444444444444-|
- -222222222222222-|
- -----------------|
PM .........

[Riff 6] - [02:59] - [03:25]

[Riff 11] - [03:25] - [03:36]
- ---------------------|
- ---------------------|
- -9999999999999999----|
- -xxxxxxxxxxxxxxxx-9~-
- -7777777777777777-7~-|
- -5555555555555555-0~-|

[No Guitar] - [03:36] - [03:56]

[Riff 12] - [03:56] - [04:23]
- -------------------------------------------------------------|
- ---------------------------1010101010101010------------------|
- -99999999-1111111111111111-9-9-9-9-9-9-9-9--1111111111111111-|
- -99999999-1111111111111111-7-7-7-7-7-7-7-7--x-x-x-x-x-x-x-x--|
- -77777777-9-9-9-9-9-9-9-9-------------------9-9-9-9-9-9-9-9--|
- -00000000----------------------------------------------------|
PM .........................

  -------------------------------------------------------------|
  ---------------------------1010101010101010------------------|
  -99999999-1111111111111111-9-9-9-9-9-9-9-9--1111111111111111-|
  -99999999-1111111111111111-7-7-7-7-7-7-7-7--1111111111111111-|
  -77777777-9-9-9-9-9-9-9-9-------------------9-9-9-9-9-9-9-9--|
  -00000000----------------------------------------------------|

  ----
  ----
  -9~-
  -9~-
  -7~-
  -0~-


13. [My Standard Break From Life] - [02:42]

[Riff 1] - [00:00] - [00:12]
- --------------------------------------|
- --------------------------------------|
- ----------99999999--------11----------|
- -99999999-77777777-999999-x--99999999-|
- -77777777-00000000-777777-9--77777777-|
- -00000000----------000000-7--77777777-|

[Riff 2] - [00:12] - [00:20]
- --------------------------------------|
- --------------------------------------|
- ----------99999999--------11----------|
- -99999999-77777777-999999-x--99999999-|
- -77777777-00000000-777777-9--77777777-|
- -00000000----------000000-7--77777777-|
PM ........................

[Riff 3] - [00:20] - [00:35]
- --------------------------------------------------------------------------|
- --------------------------------------------------------------------------|
- --------------111111111111111----------99999999----------1111111111111111-|
- -9999-99-9-9--x-x-x-x-x-x-x-x-99999999-77777777-99999999-x-x-x-x-x-x-x-x--|
- -7777-99-1111-9-9-9-9-9-9-9-9-77777777-00000000-77777777-9-9-9-9-9-9-9-9--|
- -0000-00-0-0--7-7-7-7-7-7-7-7-00000000----------00000000-7-7-7-7-7-7-7-7--|

  --------------------------|
  --------------------------|
  -----------11111111111111-|
  -8/9999999-x-x-x-x-x-x-x--|
  -6/7777777-9-9-9-9-9-9-9--|
  ---0000000-7-7-7-7-7-7-7--|

[Riff 4] - [00:35] - [00:50]
- ----------------------------------------------------------------|
- ----------------------------------------------------------------|
- ----------99999999--------11--------------------99999999--------|
- -99999999-77777777-999999-x--99999999-8/9999999-77777777-999999-|
- -77777777-00000000-777777-9--77777777-6/7777777-00000000-777777-|
- -00000000----------000000-7--77777777---0000000----------000000-|
PM ........................                ......................

  -------------|
  -------------|
  -11----------|
  -x--99999999-|
  -9--77777777-|
  -7--77777777-|

[Riff 3] - [00:50] - [01:05]

[Riff 4] - [01:05] - [01:20]
- --------------------------------------------------------|
- --------------------------------------------------------|
- --------------111111111111111----------1313131313131313-|
- -9999-99-9-9--x-x-x-x-x-x-x-x-99999999-x-x-x-x-x-x-x-x--|
- -7777-99-1111-9-9-9-9-9-9-9-9-77777777-1111111111111111-|
- -0000-00-0-0--7-7-7-7-7-7-7-7-00000000-9-9-9-9-9-9-9-9--|

  ---------------------------------------------|
  ---------------------------------------------|
  -99-999-999-99999-11111111111111111111111111-|
  -xx-xxx-xxx-xxxxx-x-x-x-x-x-x-x-x-x-x-x-x-x--|
  -77-777-777-77777-9-9-9-9-9-9-9-9-9-9-9-9-9--|
  -55-555-555-55555-7-7-7-7-7-7-7-7-7-7-7-7-7--|

[Riff 5 (Overdub)] - [01:12] - [01:20]
- --------------------------------------------|
- ------------------9~------------------------|
- -9~--------11~----------11~------9~--8~-----|
- --------------------------------------------|
- --------------------------------------------|
- --------------------------------------------|

[Riff 6] - [01:20] - [01:35]
- --------------------------------------------------------|
- --------------------------------------------------------|
- -9999-----6---9999-----6---9999-----6---11111111--------|
- -xxxx-6-9---9-xxxx-6-9---9-xxxx-6-9---9-x-x-x-x------6--|
- -7777---------7777---------7777---------9-9-9-9--7-9----|
- -0000---------0000---------0000---------5-5-5-5---------|

  ---------------------------------------------------|
  ---------------------------------------------------|
  -9999-----6---9999-----6---9999-----6---1111111111-|
  -xxxx-6-9---9-xxxx-6-9---9-xxxx-6-9---9-x-x-x-x-x--|
  -7777---------7777---------7777---------9-9-9-9-9--|
  -0000---------0000---------0000---------5-5-5-5-5--|

[Riff 4] - [01:35] - [01:50]

[Riff 7] - [01:50] - [02:06]
- --------------------------------------------------------------------------|
- --------------------------------------------------------------------------|
- --------------111111111111111----------99999999----------1111111111111111-|
- -9999-99-9-9--x-x-x-x-x-x-x-x-99999999-77777777-99999999-x-x-x-x-x-x-x-x--|
- -7777-99-1111-9-9-9-9-9-9-9-9-77777777-00000000-77777777-9-9-9-9-9-9-9-9--|
- -0000-00-0-0--7-7-7-7-7-7-7-7-00000000----------00000000-7-7-7-7-7-7-7-7--|

  -------------------------|
  -------------------------|
  ----------11111111111111-|
  -99999999-x-x-x-x-x-x-x--|
  -77777777-9-9-9-9-9-9-9--|
  -77777777-7-7-7-7-7-7-7--|

[Riff 4] - [02:06] - [02:20]
[Riff 5] - [02:13] - [02:20]
[Riff 6] - [02:20] - [02:42]


14. [Hell Yes] - [03:57]

[Riff 1] - [00:00] - [00:08]
- -----------------------------------------|
- -----------------------------------------|
- -----------------------------------------|
- -99999999-7777-66-44-444444-99-77-66-999-|
- -77777777-0000-00-00-222222-00-00-00-999-|
- -00000000----------------------------777-|

[Riff 2] - [00:08] - [00:15]
- ----------------------------------------------|
- ----------------------------------------------|
- -------------------------------------11111111-|
- -99999999-7777-66-44-444444-99-77-66-x-x-x-x--|
- -77777777-0000-00-00-222222-00-00-00-9-9-9-9--|
- -00000000----------------------------7-7-7-7--|

[Riff 3] - [00:15] - [00:34]
- ----------------------------------------|
- ----------------------------------------|
- --------------11111111-9999999999999999-|
- -999999999999-x-x-x-x--xxxxxxxxxxxxxxxx-|
- -777777777777-9-9-9-9--7777777777777777-|
- -000000000000-7-7-7-7--5555555555555555-|
PM ......................................

[Riff 4] - [00:34] - [00:40]
- ----------------------------------------------|
- ----------------------------------------------|
- --------------11111111-99999999-11111111-9999-|
- -999999999999-x-x-x-x--xxxxxxxx-x-x-x-x--xxxx-|
- -777777777777-9-9-9-9--77777777-9-9-9-9--7777-|
- -000000000000-7-7-7-7--55555555-7-7-7-7--5555-|
PM ...........................

[Riff 2] - [00:40] - [00:53]
[Riff 3] - [00:53] - [01:12]
[Riff 4] - [01:12] - [01:18]

[Riff 5] - [01:18] - [01:31]
- ---------------------------------------------------|
- ---------------------------------------------------|
- -9999999999999999-1313131313131313-111111111111111-|
- -xxxxxxxxxxxxxxxx-x-x-x-x-x-x-x-x--x-x-x-x-x-x-x-x-|
- -7777777777777777-1111111111111111-9-9-9-9-9-9-9-9-|
- -0000000000000000-9-9-9-9-9-9-9-9--7-7-7-7-7-7-7-7-|

[Riff 2] - [01:31] - [01:44]
[Riff 3] - [01:44] - [02:03]
[Riff 4] - [02:03] - [02:09]
[Riff 5] - [02:09] - [02:34]

[Riff 6] - [02:34] - [02:53]
- ---------------------------------------------------|
- ---------------------------------------------------|
- -9999999999999999-11111111111111111111111111111111-|
- -xxxxxxxxxxxxxxxx-x-x-x-x-x-x-x-x-x-x-x-x-x-x-x-x--|
- -7777777777777777-9-9-9-9-9-9-9-9-9-9-9-9-9-9-9-9--|
- -5555555555555555-7-7-7-7-7-7-7-7-7-7-7-7-7-7-7-7--|
PM .................................................

[Riff 7] - [02:53] - [02:59]
- ---------------------------------------------------|
- ---------------------------------------------------|
- -9999999999999999-11111111111111111111111111111111-|
- -xxxxxxxxxxxxxxxx-x-x-x-x-x-x-x-x-x-x-x-x-x-x-x-x--|
- -7777777777777777-9-9-9-9-9-9-9-9-9-9-9-9-9-9-9-9--|
- -5555555555555555-7-7-7-7-7-7-7-7-7-7-7-7-7-7-7-7--|
PM ................

[Riff 2] - [02:59] - [03:12]
[Riff 5] - [03:12] - [03:37]

[Riff 8] - [03:37] - [03:57]
- --------------|
- --------------|
- -9~----9~-----|
- -x-----x------|
- -7~----7~-----|
- -5~----0~-----|


thats it!! here i'll prove these chords are possible for those in disbelief:

Pointing finger: Finger 1
Middle finger: Finger 2
Next Finger: Finger 3
Pinky: Finger 4

- ------------------------------------------------------|
- ------------------------------------------------------|
- -9- Finger 4 --6- Finger 3 -7- Finger 2 -6- Finger 4 -
- -x-------------7- Finger 4 -x------------x------------
- -7- Finger 3 --4- Finger 1 -6- Finger 3 -6- Finger 3 -
- -5- Finger 1 ---------------5- Finger 1 -5- Finger 1 -

think outside the box people -_- now take these chords n apply them to
other Alkaline trio songs!! they're not that weird n unreasonable :S :)

this took me forever!! more or less :P let it on so people can rate it plz!
dont cut it off in the approval list..n check the other album tab for
this lol its shit :P so this is necessary heheh

i'll GP any of these if asked..

[Symbols]
x     Dead Note
PM... Palm Mute (where ... is shown)
~     Let Ring
/     Slide Up
h     Hammer On
\     Slide Down
///   Pickslide Up
\\\   Pickslide Down
b     Bend
r     Release
p     Pull Off

plz comment if you rate :)
comments
print report bad tab
3 comments total.
-2 reply
NemX162 wrote on May 27 2008, 04:04 pm

I'm really skeptical to a lot of this, since if you watch him live he is just playing some power chords... Also, it sounds like straight power chords on the album. I suppose all of this works though.

You crazy kid... >.o

+1 reply
josh-josh-josh wrote on May 27 2008, 06:38 pm

i kno people will be skeptical..its different :P thats the only reason lol. doesnt mean its not right ;)

here: in the intro to Stupid Kid you could get away with either of thses:

- -----------------------------------------------------------------|
- -----------------------------------------------------------------|
- -11111111--9-9-9-8-8-8-8-6-6-----8-8-8-8---9-9-9-8-8-8-8-6-6-----|
- -x-x-x-x-x-x-x-x-x-x-x-x-x-x-x-x-x-x-x-x-x-x-x-x-x-x-x-x-x-x-x-x-|
- -9-9-9-9-x-7-7-7-6-6-6-6-4-4-x-x-6-6-6-6-x-7-7-7-6-6-6-6-4-4-x-x-|
- ---------x-------------------x-x---------x-------------------x-x-|

or

- -----------------------------------------------------------------|
- -----------------------------------------------------------------|
- -----------9-9-9-8-8-8-8-6-6---------------9-9-9-8-8-8-8-6-6-----|
- -9-9-9-9-x-x-x-x-x-x-x-x-x-x-x-x-6-6-6-6-x-x-x-x-x-x-x-x-x-x-x-x-|
- -9-9-9-9-x-7-7-7-6-6-6-6-4-4-x-x-6-6-6-6-x-7-7-7-6-6-6-6-4-4-x-x-|
- -7-7-7-7-x-------------------x-x-4-4-4-4-x-------------------x-x-|

why do they both soud right? cuz they both are right.

this chord:
- ---
- ---
- ---
- -9-
- -9-
- -7-

and this chord:

- ----
- ----
- -11-
- -x--
- -9--
- ----

are both common chords and can both be played at the same time
simply like this:

- ----
- ---- thus playing a lead and rhythm part at the same time..
- -11- whcih would be convienent for a band with only one
- -x-- person on guitar!
- -9--
- -7--

i kno im not gonna convince evreyone..people will either hate this or love this.. i can hear two parts..i kno thers one guitar..so i tabb both parts on one guitar! common sense to me :P

and so the beggining of Stupid Kid is played like this:

- -----------------------------------------------------------------|
- -----------------------------------------------------------------|
- -11111111--9-9-9-8-8-8-8-6-6-----8-8-8-8---9-9-9-8-8-8-8-6-6-----|
- -x-x-x-x-x-x-x-x-x-x-x-x-x-x-x-x-x-x-x-x-x-x-x-x-x-x-x-x-x-x-x-x-|
- -9-9-9-9-x-7-7-7-6-6-6-6-4-4-x-x-6-6-6-6-x-7-7-7-6-6-6-6-4-4-x-x-|
- -7-7-7-7-x-------------------x-x-4-4-4-4-x-------------------x-x-|

make a bit more sense? all i can say is learn my way (jus for fun) then play along my way (just for fun)..then play it your way (for even mre fun!) and choose the one you like :P

0 reply
DirtyFcknK666 wrote on September 23 2013, 09:34 am

This is a great tabbed album, but like what NemX162 said, some of it can be a bit strange and there are more effective ways to play some things. I that album you can easily notice Skiba plays a shitload of octave power chords, and in some songs off octave chords, for example Bloodied Up, the little octave bridge before the last chorus, you have stuff like

g|--4- when it's much easier to play d|--14-
d|--7- a|---0-
a|--0- e|-----
e|----

For that part, there is a small mistake with the notes, a couple of them don't fit as well as they should. I'm sure you're smart enough to figure out the strumming, so I'll just put the notes for that small pre-ending bridge, all the notes are played on the d string while the a remains open.

d|-14--12-11--14--12-11--14--12-11--9-11-9-7-14-
a|--0---0--0---0---0--0---0---0--0--0--0-0-0--0-

It's much easier to play, and since in the song mostly all you can hear is the open a when he plays octaves, it's all you really need to do. It's the same thing with Hell Yes. Except the octaves change strings.

d|-9~-7~6~4~6~-9~7~6~4~--
a|-7~-0~0~0~4~-0~0~0~0~--
e|-0~--------------------

So, basically where you have the power chords with the added octave note, is not necessary, but in places it makes the effect of overdubbed guitars, so not all of them are futile. But, in some places they in fact don't need to be there.

Overall, this is a fine tab indeed, but a few small mistakes throughout.

I want to post or [tab]
guest
You may want to rate the tab now too:
select rating
Please do not post tabs as comments. Select "correction" instead!