Oops, an error
Loading. Please wait.

Goddamnit Tab

11,137 views 36 this week
no commentswrite comment
1 2 3 4 5
excellent!
x 5
Autoscroll
+/-
esc
set tempo
stop
Contributor
Hey! There's an official Ultimate Guitar app which is ideal
for learning songs when you're away from computer. Get the app
WARNING: You are trying to view
                                    content from Ultimate-Guitar.com
                                    in an unauthorized application,
                                    which is prohibited.

                                    Please use an official Ultimate
                                    Guitar Tabs application for iPhone,
                                    iPad or Android to access legitimate
                                    chords, guitar, bass, and drum tabs
                                    from Ultimate-Guitar.com database.

                                    Type "ultimate guitar tabs" in Apple
                                    App Store's or Android Market's
                                    search to find the application.
Album: Goddamnit
Artist: Alkaline Trio
Release Year: 1998
Label: Asian Man

Tuning for all songs: Standard


__________________________________________________________________________________________
------------------------------------------------------------------------------------------
__________________________________________________________________________________________



"CRINGE"
Transcribed by: Jim Taone
Email: j_bro124@hotmail.com

Intro:
------------------------------------------------------|
------------------------------------------------------|
--------------10-10-10-10----------------10-10-10-10--|
-10-10-10-10--10-10-10-10---10-10-10-10--10-10-10-10--|
-10-10-10-10--7--7--8--8----10-10-10-10--7--7--8--8---|
-8--8--8--8-----------------8--8--8--8----------------|
                                                                              

Verse:
---------------------------------|
---------------------------------|
--------------------10-10-10-10--|
-10-10-10-10-10-10--10-10-10-10--|
-10-10-10-10-10-10--7--7--8--8---|
-8--8--8--8--8--8----------------|
                                                                              

Pre-chorus:
--------------------------------|
-1-1-1-1-0-1-0---0-0-0-0-1-3-1--|
-2-2-2-2-2-2-2---2-2-2-2-2-2-2--|
-2-2-2-2-2-2-2---2-2-2-2-2-2-2--|
-0-0-0-0-0-0-0---0-0-0-0-0-0-0--|
--------------------------------|
                                                                              

Pre-chorus 2:
-------------------|
-------------------|
-------------------|
-3-3-3-3-3-3----5--|
-3-3-3-3-3-3----5--|
-1-1-1-1-1-1----3--|
                                                                              

Chorus:
-----------------------------|
-----------------------------|
-2-2-------------------------|
-2-2----2-2-----3-3-----5-5--|
-0-0----2-2-----3-3-----5-5--|
--------0-0-----1-1-----3-3--|
                                                                              

Interlude:
-------------------------------------------------------|
-------------------------------------------------------|
-x\--5-5-5-5-2-2-2-2--12-12-12-12--10-10-10-9-9-7-7-5--|
-x\--5-5-5-5-2-2-2-2--x--x--x--x---x--x--x--x-x-x-x-x--|
-x\--3-3-3-3-0-0-0-0--10-10-10-10--8--8--8--7-7-5-5-3--|
-------------------------------------------------------|
                                                                              

Chord used for post interlude: (also song ends on this chord)
-----|
-----|
-5---|
-5---|
-3---|
-----|
                                                                              

Songflow:
Intro 2x
Verse 2x
Pre-chorus 1
Intro
Verse 
Pre-chorus 1
Pre-chorus 2
Chorus 2x
Intro 2x
Verse 2x
Pre-chorus 1
Verse 2x
Pre-chorus 1
Interlude 2x
Post interlude chord play on-time
Pre-chorus 1
Pre-chorus 2
End with above chord

__________________________________________________________________________________________
------------------------------------------------------------------------------------------
__________________________________________________________________________________________

"COP"
Transcribed by: e_mericana
Email: e_mericana@hotmail.com

INTRO - pick scraping
e|---------------------------------------------------------------|
B|---------------------------------------------------------------|
G|---------------------------------------------------------------|
D|---------------------------------------------------------------|
A|---------------------------------------------------------------|
E|---------------------------------------------------------------|

VERSE
e|---------------------------------------------------------------|
B|---------------------------------------------------------------|
G|-9-9-------9-9-------9-9-------9-9-------13-13-13-13-13-13-----| 
D|-7-7-------7-7-------7-7-------7-7-------13-13-13-13-13-13-----|
A|-0-0-------0-0-------0-0-------0-0-------11-11-11-11-11-11-----|
E|---------------------------------------------------------------|

CHORUS
e|---------------------------------------------------------------|
B|---------------------------------------------------------------|
G|-7777-----7777111199-77779991199999999-7-9---------------------|  
D|-77774422-7777111199-77779991199999999-7-9---------------------|
A|-55554422-5555-9-977-5555777-977777777-5-7---------------------|
E|-----2200------------------------------------------------------|

VERSE X 3

CHORUS X 2

OUTRO- work out rhythm
e|---------------------------------------------------------------|
B|---------------------------------------------------------------|
G|-9----9----9----7----6-----------------------------------------|
D|-7----9----x----x----x-----------------------------------------|
A|-0----7----7----5----4-----------------------------------------|
E|---------------------------------------------------------------|

Then end on
e|---------------------------------------------------------------|
B|---------------------------------------------------------------|
G|-9--9----------------------------------------------------------|
D|-7--7----------------------------------------------------------|
A|-0--0----------------------------------------------------------|
E|---------------------------------------------------------------|

__________________________________________________________________________________________
------------------------------------------------------------------------------------------
__________________________________________________________________________________________

"SAN FRANCISCO"

Transcribed by: mike
Email: antiflagpunknofx@aol.com

Tuning:Normal

intro 1 (x2)
e|--------------------------------------------------------------------------|
B|--------------------------------------------------------------------------|
G|--------------------------------------------------------------------------|
D|-------------------------------------6-6-6-6-6-6-6-6-7-7-7-7-7-7-7-7------|
A|-7-7-7-7-7-7-7-7-9-9-9-9-11-11-11-11-0-0-0-0-0-0-0-0-0-0-0-0-0-0-0-0------|
E|-0-0-0-0-0-0-0-0-0-0-0-0-0--0--0--0---------------------------------------|

intro 2 (x4)
e|--------------------------------------------------------------------------|
B|--------------------------------------------------------------------------|
G|-9-9-9-9-9-9-9-9-9-9-9-11-11-11-13-13-9-9-9-9-9-9-9-9-9-9-9-9-9-9-9-9-----|
D|-9-9-9-9-9-9-9-9-x-x-x-x--x--x--x--x--6-6-6-6-6-6-6-6-7-7-7-7-7-7-7-7-----|
A|-7-7-7-7-7-7-7-7-7-7-7-9--9--9--11-11-------------------------------------|
E|--------------------------------------------------------------------------|

verse
e|---------------------------------------------------------------------------|
B|---------------------------------------------------------------------------|
G|-----------------------------------10-10-10--------------------------------|
D|-9-9-9--2-2-2--6-6-6--4-4-4--9-9-9-9--9--9--2-2-2--4-4-4-------------------|
A|-9-9-9--2-2-2--6-6-6--4-4-4--9-9-9-7--7--7--2-2-2--4-4-4-------------------|
E|-7-7-7--0-0-0--4-4-4--2-2-2--7-7-7----------4-4-4--2-2-2-------------------|
   x x    x x    x x    x x    x x   x  x     x x    x x

e|--------------------------------------------------------------------------|
B|--------------------------------------------------------------------------|
G|--------------------------------------------------------------------------|
D|-9-9-9--2-2-2--6-6-6--4-4-4--2--------------------------------------------|
A|-9-9-9--2-2-2--6-6-6--4-4-4--2--(let ring)--------------------------------|
E|-7-7-7--0-0-0--4-4-4--2-2-2--0--------------------------------------------|
   x x    x x    x x    x x

interlude (x2)
e|--------------------------------------------------------------------------|
B|--------------------------------------------------------------------------|
G|-9-9-9-2-2-2-2-2-6-6-6-4-4-4-4-4------------------------------------------|
D|-9-9-9-2-2-2-2-2-6-6-6-4-4-4-4-4------------------------------------------|
A|-7-7-7-0-0-0-0-0-4-4-4-2-2-2-2-2------------------------------------------|
E|--------------------------------------------------------------------------|

chorus
e|--------------------------------------------------------------------------|
B|--------------------------------------------------------------------------|
G|-9-9-9-9-9-9-9-9-9-9-9-9-8-8-8-8-------------------4-4-4-4-4-4-4----------|
D|-9-9-9-9-9-9-9-9-x-x-x-x-x-x-x-x-6-6-6-6-6-6-6-6---4-4-4-4-4-4-4--(x2)----|
A|-7-7-7-7-7-7-7-7-7-7-7-7-6-6-6-6-6-6-6-6-6-6-6-6---2-2-2-2-2-2-2----------|
E|---------------------------------4-4-4-4-4-4-4-4--------------------------|

chorus
e|---------------------------------------------------------------------------|
B|---------------------------------------------------------------------------|
G|-9-9-9-9-9-9-9-9-9-9-9-9-8-8-8-8------------------2------------------------|
D|-9-9-9-9-9-9-9-9-x-x-x-x-x-x-x-x-6-6-6-6-6-6-6-6--2------------------------|
A|-7-7-7-7-7-7-7-7-7-7-7-7-6-6-6-6-6-6-6-6-6-6-6-6--0--0-0-0-0-2-0-0-0-0-0-0-|
E|---------------------------------4-4-4-4-4-4-4-4---------------------------|
                                                       x x x x x x x x x x x
e|--------------------------------------/------------------------------------|
B|--------------------------------------/------------------------------------|
G|--------------------------------------/---------2-2-2-2-2-2-4--------------|
D|--------------------------------------/---------2-2-2-2-2-2-4--------------|
A|-2-4-4-0-0-0-0-2-0-0-0-0-0-0-2-4-7----/--ending-0-0-0-0-0-0-2--------------|
E| -------------------------------------/------------------------------------|
   x x x x x x x x x x x x x x


SONG ORDER:

intro 1
intro 2
verse
interlude
verse
chorus
intro 2
verse
interlude 2 (listen for exact / power chords of A|-7-7-7-7-76-7-7-7)-|
third verse (no guitar just hammer ons) (A|-6h7-6h7-6----------------|h7)
chorus
chorus
ending

__________________________________________________________________________________________
------------------------------------------------------------------------------------------
__________________________________________________________________________________________


"NOSE OVER TAIL"

Transcribed by: Greenfinger182

Intro:
---------------------------------------------------------------------------|
---------------------------------------------------------------------------|
-----------------------------------------------------11-8999999------------|
----99999999-------99999999------------99999999------9--9999999------------|
----99999999-------77777777------------99999999------7--7777777------------|
----77777777-------00000000------------77777777------0--0000000------------|


Verse:
---------------------------------------------------------------------------|
---------------------------------------------------------------------------|
---------------------------------------------------------------------------|
----99999999-------99999999------------99999999------99999999--------------|
----99999999-------77777777------------99999999------77777777--------------|
----77777777-------00000000------------77777777------00000000--------------|
Crack my head open, on your kitchen floor

Anyway, you get the idea.

Chorus:
---------------------------------------------------------------------------|
---------------------------------------------------------------------------|
-----------666666-888-999--------------------------------------------------|
----666666-XXXXXX-XXX-XXX--------------------------------------------------|
----444444-444444-666-777---77----77-----77------77777---------------------|
----------------------------55----44-----55------44444---------------------|
                               Fine time to fake a seizure

---------------------------------------------------------------------------|
---------------------------------------------------------------------------|
-----------666666-888-999----------------------4---------------------------|
----666666-XXXXXX-XXX-XXX----------------------4---------------------------|
----444444-444444-666-777---77----77-----------2---------------------------|
----------------------------55----44---------------------------------------|
     And feel your mouth on mine        You're saving me


After-Chorus:

-------------------------------------------------------------------------|
-------------------------------------------------------------------------|
---99999-8-4444444444---6666--8888--99999999-----------------------------|
---XXXXX-X-XXXXXXXXXX---XXXX--XXXX--XXXXXXXX-----------------------------|X2
---77777-6-2222222222---4444--6666--77777777-----------------------------|
-------------------------------------------------------------------------|

---------------------------------------------------------------------------|
---------------------------------------------------------------------------|
--44--44--44--------------44XX44XX44---------------------------------------|
--44--44--44--22--22--22--44XX44XX22--222222-------------------------------|
--22--22--22--22--22--22--22XX22XX22--222222-------------------------------|
--------------00--00--00--------------000000-------------------------------|

Verse 2:  Same as first (except for the abrupt stop)
Chorus 2: Same as first


Bridge (directly after chorus):
-----------------------------------------------------------------------------|
-----------------------------------------------------------------------------|
------8-----8----------------------8888--8--8888--8---------------------8888-|
---2--X--2--X----2222--2--2222--2--8888--8--8888--8---2222--2--2222--2--8888-|
---2--6--2--6----2222--2--2222--2--6666--6--6666--6---2222--2--2222--2--6666-|
---0-----0-------0000--0--0000--0---------------------0000--0--0000--0-------|
              PM-----     ----     ----     ----      ----     ----

--------------------------------|
--------------------------------|
--------------------------------|
----77--77--77----44--44--44----|
----77--77--77----44--44--44----|
----55--55--55----22--22--22----|

Bridge (cont.)
-------------------------------------------------------------------------------------|
-------------------------------------------------------------------------------------|
------8-----8----------------------8888--8--8888--8---------------------8888-9-11-11-|
---2--X--2--X----2222--2--2222--2--8888--8--8888--8---2222--2--2222--2--8888-9-11-11-|
---2--6--2--6----2222--2--2222--2--6666--6--6666--6---2222--2--2222--2--6666-7-9--9--|
---0-----0-------0000--0--0000--0---------------------0000--0--0000--0---------------|
              PM-----     ----     ----     ----      ----     ----

--------------------------------|
--------------------------------|
--------------------------------|
----77--77--77----44--44--44----|
----77--77--77----44--44--44----|
----55--55--55----22--22--22----|

Bridge (2nd part):
---------------------------------------------------------------------------|
---------------------------------------------------------------------------|
---99999-8-4444444444---6666--8888--99999999-------------------------------|
---XXXXX-X-XXXXXXXXXX---XXXX--XXXX--XXXXXXXX-------------------------------|X2
---77777-6-2222222222---4444--6666--77777777-------------------------------|
---------------------------------------------------------------------------|

---------------------------------------------------------------------------|
---------------------------------------------------------------------------|
---99999-8-11-11-11-11-11--9-9-9-9-9------------6666--8888--99999999-------|
---XXXXX-X-X--X--X--X--X---X-X-X-X-X------------XXXX--XXXX--XXXXXXXX-------|
---77777-6-9--9--9--9--9---7-7-7-7-7------------4444--6666--77777777-------|
---------------------------------------------------------------------------|

Last Riff (Outro):
---------------------------------------------------------------------------|
---------------------------------------------------------------------------|
---99999-8-4444444444---6666--4444--2222--4444-----------------------------|
---XXXXX-X-XXXXXXXXXX---XXXX--XXXX--2222--XXXX--2-(let ring)---------------|
---77777-6-2222222222---4444--2222--0000--2222--2--------------------------|
------------------------------------------------0--------------------------|

__________________________________________________________________________________________
------------------------------------------------------------------------------------------
__________________________________________________________________________________________

"AS YOU WERE"

Transcribed by: Mike Hegarty 
Email: mikehegarty_69@hotmail.com

Intro
|-----------------------------------------------------------|
|-----------------------------------------------------------|
|-----999999999999-------------------------6666444-------4--|
|-9999999999999999-222244444444444466666666-------22222224--|
|-7777777777777777-000022222222222244444444444422200000002--|
|-0000000000000000------------------------------------------|

Verse
|-----------------------------------------------------------|
|-----------------------------------------------------------|
|-----999999999999-------------------------6666444-------4--|
|-9999999999999999-222244444444444466666666-------22222224--|
|-7777777777777777-000022222222222244444444444422200000002--|
|-0000000000000000------------------------------------------|

|-----------------------------------------------------------|
|-----------------------------------------------------------|
|-----999999999999-------------------------6666444-------4--|
|-9999999999999999-222244444444444466666666-------22222224--|
|-7777777777777777-000022222222222244444444444422200000002--|
|-0000000000000000------------------------------------------|

|------------------------------------------------------------------|
|------------------------------------------------------------------|
|-999-------------999---------------------66664444-----------------|
|-999-999-7777777-999-999-7777777-66666666--------2222222444444444-|
|-777-999-7777777-777-999-7777777-44444444444422220000000222222222-|
|-----777-5555555-----777-5555555----------------------------------|

|-----------------------------------------------------------|
|-----------------------------------------------------------|
|-----999999999999-------------------------6666444-------4--|
|-9999999999999999-222244444444444466666666-------22222224--|
|-7777777777777777-000022222222222244444444444422200000002--|
|-0000000000000000------------------------------------------|

Verse 2
|-----------------------------------------------------------|
|-----------------------------------------------------------|
|-----999999999999-------------------------6666444-------4--|
|-9999999999999999-222244444444444466666666-------22222224--|
|-7777777777777777-000022222222222244444444444422200000002--|
|-0000000000000000------------------------------------------|

|------------------------------------------------------------------|
|------------------------------------------------------------------|
|-999-------------999---------------------66664444-----------------|
|-999-999-7777777-999-999-7777777-66666666--------2222222444444444-|
|-777-999-7777777-777-999-7777777-44444444444422220000000222222222-|
|-----777-5555555-----777-5555555----------------------------------|

Chorus
|----------------------------------------------------------------|
|----------------------------------------------------------------|
|----------------------------------------------------------44-22-|
|-99999999999999999999999999999999666666666666666666666666-44-22-|
|-77777777777777777777777777777777444444444444444444444444-22-00-|
|-00000000000000000000000000000000-------------------------------|

|----------------------------------------------------------------|
|----------------------------------------------------------------|
|----------------------------------------------------------44-22-|
|-99999999999999999999999999999999666666666666666666666666-44-22-|
|-77777777777777777777777777777777444444444444444444444444-22-00-|
|-00000000000000000000000000000000-------------------------------|

Post-Chorus
|---------------------------------|
|---------------------------------|
|-99999999999999999999999999999---|
|-99999999999999999999999999999---|
|-77777777777777777777777777777---|
|-00000000000000000000000000000-/-|

Bridge
|------------------------------------------------------------------|
|------------------------------------------------------------------|
|-9999999999999999999999998888888866666666666666666666666644444444-|
|------------------------------------------------------------------|
|-7777777777777777777777776666666644444444444444444444444422222222-|
|------------------------------------------------------------------|

|--------------------------------------------------|
|--------------------------------------------------|
|-999999999999999911111111111111111313131313131313-|
|--------------------------------------------------|
|-7777777777777777-9-9-9-9-9-9-9-91111111111111111-|
|--------------------------------------------------|

|----------------------------------|
|----------------------------------|
|-66666666666666666666666644444444-|
|----------------------------------|
|-44444444444444444444444422222222-|
|----------------------------------|

Chorus
|------------------------------------------------------------------|
|------------------------------------------------------------------|
|-------------------------------------------------6666666644444444-|
|-999999999999999999999999999999996666666666666666-----------------|
|-7777777777777777777777777777777744444444444444444444444422222222-|
|------------------------------------------------------------------|

|------------------------------------------------------------------|
|------------------------------------------------------------------|
|-------------------------------------------------6666666644444444-|
|-999999999999999999999999999999996666666666666666-----------------|
|-7777777777777777777777777777777744444444444444444444444422222222-|
|------------------------------------------------------------------|

Outro
|----------------|
|----------------|
|-2~----------2~-|
|-2~----------2~-|
|-0~----------0~-|
|----------------|

|------|
|------|
|-999\-|
|-999\-|
|-777\-|
|------|

__________________________________________________________________________________________
------------------------------------------------------------------------------------------
__________________________________________________________________________________________

"ENJOY YOUR DAY"

Transcribed by: twisted_souls@hotmail.com 

Intro:
e|----------0------------------0------------------------------------0~--|
B|-----1---------3-1-------1-------3-1----------1-------------------1~--|
G|-------0-------------------0--------------------0---0----0-0------0~--|
D|----------------------------------------0---0-----3----3-----3----3~--|
A|-3-3---3-----3-------2-2---2---2----------3---------------------------|
E|--------------------------------------3-------------------------------|


e|----------------0-----------|-----------------------------------|
B|----------------x-----3-3-1-|-----------------1-----1-0---------|
G|--0-0-0-0-0-0-0-0-0-0-0-0-0-|-0-0-0-0-0-0-0-0-0-0-0-0-0---------|
D|--2-2-2-2-2-2-2-2-2-2-2-2-2-|-2-2-2-2-2-2-2-2-2-2-2-2-2---------|
A|--3-3-3-3-3-3-3-3-3-3-3-3-3-|-2-2-2-2-2-2-2-2-2-2-2-2-2---------|
E|----------------------------|-----------------------------------|


e|----------------------------------|-------------1---1-----1-1-----|
B|-----------------------1-----1-0--|-------------1---1-----1-1-----|
G|-----------------------0-----0-0--|-------------x---x-----x-x-----|
D|-0-0-0-0-0-0-0-0-0-0-0-0-0-0-0-0--|-3-3-3-3-3-3-3-3-3-3-3-3-3-----|
A|-2-2-2-2-2-2-2-2-2-2-2-2-2-2-2-2--|-3-3-3-3-3-3-3-3-3-3-3-3-3-----|
E|-3-3-3-3-3-3-3-3-3-3-3-3-3-3-3-3--|-1-1-1-1-1-1-1-1-1-1-1-1-1-----|


Chorus:
e|-------------------------------------------|----------10-------10----10--|
B|-------------------------------------------|-----------x--------x-----x--|
G|-----5-5---------7-7---------9-9-9-9-9-9-9-|-10-10-10-10-10-10-10-10-10--|
D|-5-5-5-5-5-5/7-7-7-7-7-7/9-9-9-9-9-9-9-9-9-|-10-10-10-10-10-10-10-10-10--|
A|-3-3-3-3-3-3/5-5-5-5-5-5/7-7-7-7-7-7-7-7-7-|--8--8--8--8--8--8--8--8--8--|
E|-------------------------------------------|-----------------------------|

__________________________________________________________________________________________
------------------------------------------------------------------------------------------
__________________________________________________________________________________________

"CLAVICLE"

Transcribed by: jake harding 
Email: iwasjustcleaninganditwentoff@hotmail.com

Intro
e---------------------------------
B---------------------------------
G---------------------------------
D--7-7-7-9-9-9-11-11-11--9-9-9----
A--0-0-0-0-0-0-0--0--0---7-7-7----
E--5-5-5-7-7-7-9--9--9---0-0-0----

Verse
e---------------------------
B---------------------------
G---------------------------
D-7-7-7-9-9-9-11-11-11-9-9-9  X3
A-0-0-0-0-0-0-0--0--0--7-7-7
E-5-5-5-7-7-7-9--9--9--0-0-0

e------------------
B------------------
G---------7-7-7----
D-4-4-4-4-7-7-7----
A-4-4-4-4-5-5-5----
E-2-2-2-2----------

Chorus
e----------------------------------------
B----------------------------------------
G----------------------------------------
D----------------------7-----------7-----
A-4-------4------------4-----------5-----
E-2-------0------------------------------
   
e----------------------------------------
B----------------------------------------
G----------------------------------------
A----------------------7------------7----
D-4-------4------------4------------5----
E-2-------0------------------------------

e---
B---
G---
D-7-
A-7-
E-5-  

e---------------------------------------
B---------------------------------------
G-6-6-6-6--7-7-7-7--9-9-9-9--7-7-7-7----
D---------------------------------------
A-4-4-4-4--5-5-5-5--7-7-7-7--5-5-5-5----
E---------------------------------------


Then its back into the verse (but playing different to origional)
  "Before you left...............please do"
e-----------------------------------------
B-----------------------------------------
G--------------6-6-6-6-6--7-7-7-7-7-------
D-9-9-9-9-9-9--6-6-6-6-6--7-7-7-7-7-------
A-9-9-9-9-9-9--4-4-4-4-4--5-5-5-5-5-------
E-7-7-7-7-7-7-----------------------------

   
e----------------------------------------------
B----------------------------------------------
G----------------------------------------------
D-7-------------------4---------------2--------
A-7-------------------4---------------2--------
E-5-------------------2---------------0--------
-
e----------------          e-------
B----------------          B-------
G-9-9--7-7--6-6--          G-------
D----------------          D-7-7---
A-7-7--5-5--4-4--          A-7-7---
E-----------------         E-5-5--- 


e--------------------------------------------
B--------------------------------------------
G--6-6-6--7-7-7-7-7--9-9-9-9--7-7-7-7--------
D--------------------------------------------
A--4-4-4--5-5-5-5-5--7-7-7-7--5-5-5-5--------
E--------------------------------------------


e-------------------
B-------------5-----
G-------------6-----
D-------------7-----
A---4-5-------7-----
E--------5----5-----

e-------------------------------------------------------
B-------------------------------------------------------
G-------------------------------------------------------
D-11-------11-----------7----------7---------------7----
A-9--------7------------4----------5---------------7----
E--------------------------------------------------5----

__________________________________________________________________________________________
------------------------------------------------------------------------------------------
__________________________________________________________________________________________

"MY LITTLE NEEDLE"

Transcribed by: Jim Taone
Email: j_bro124@hotmail.com

Intro:
----------------------------------------|
----------------------------------------|
----------------------------------------|
-2-2-2-2--2-2--9-9/11-11/13-13/14-14----|
-2-2-2-2--2-2--x-x-x--x--x--x--x--x-----|
-0-0-0-0--0-0--7-7/9--9-/10-10/12-12----|
                                                                              
----------------------------------------|
----------------------------------------|
----------------------------------------|
-2-2-2-2--2-2--4-4/6-6/7-7/9-9----------|
-2-2-2-2--2-2--x-x-x-x-x-x-x-x----------|
-0-0-0-0--0-0--2-2/4-4/5-5/7-7----------|
                                                                              
Verse:
----------------------------------------|
----------------------------------------|
-9--------------------------------------|
-9---------7----------9-----------------|
-7---------7----------9-----------------|
-----------5----------7-----------------|
                                                                              
Chorus:
-----------------------------------------------------|
-----------------------------------------------------|
-9-9-9---9-9-9---9-9-9---9-9-9-----------------------|
-x-x-x---x-x-x---x-x-x---x-x-x---6-6-6-6---7-7-7-7---|
-7-7-7---7-7-7---7-7-7---7-7-7---6-6-6-6---7-7-7-7---|
---------------------------------4-4-4-4---5-5-5-5---|

Outro:
------------------------------------------------|
------------------------------------------------|
-9-9-9-9-9-9-9-9-9-9-9-9\9-8-8-8/9-9-9-9-9-9----|
-x-x-x-x-x-x-x-x-x-x-x-x-x-x-x-x-x-x-x-x-x-x----|
-7-7-7-7-7-7-7-7-7-7-7-7\6-6-6-6/7-7-7-7-7-7----|
------------------------------------------------|

------------------------------------------------|
------------------------------------------------|
-9-9-9-9-9-9-9-9-9-9-9-9\8-8-8-9/9-9-9-9-9-9----|
-x-x-x-x-x-x-x-x-x-x-x-x-x-x-x-x-x-x-x-x-x-x----|
-7-7-7-7-7-7-7-7-7-7-7-7\6-6-6-6/7-7-7-7-7-7----|
------------------------------------------------|

------------------------------------------------|
------------------------------------------------|
-14-14-14-13-13-13-11-11-11-9-9-9-9-9-9-9-9-----|
-x--x--x--x--x--x--x--x--x--x-x-x-x-x-x-x-x-----|
-12-12-12-11-11-11-9--9--9--7-7-7-7-7-7-7-7-----|
------------------------------------------------|

------------------------------------------------|
------------------------------------------------|
-14-14-14-13-13-13-11-11-11-9-9-9\8-8-8/9-9-----|
-x--x--x--x--x--x--x--x--x--x-x-x-x-x-x-x-x-----|
-12-12-12-11-11-11-9--9--9--7-7-7\6-6-6/7-7-----|
------------------------------------------------|

------------------------------------------------|
------------------------------------------------|
-14-14-14-13-13-13-11-11-11-9-9-9-9-9-9-9-9-----|
-x--x--x--x--x--x--x--x--x--x-x-x-x-x-x-x-x-----|
-12-12-12-11-11-11-9--9--9--7-7-7-7-7-7-7-7-----|
------------------------------------------------|

------------------------------------------------|
------------------------------------------------|
-14--13--11--9---14--13--14--16-----9-----------|
-x---x---x---x---x---x---x---x------9-----------|
-12--11--9---7---12--11--12--14-----7-----------|
------------------------------------------------|
                                                                     
Songflow:

Intro 2x
Verse 8x
Chorus 2x
Intro 2x
Verse 8X
Chorus 2x
Outro

__________________________________________________________________________________________
------------------------------------------------------------------------------------------
__________________________________________________________________________________________

"SOUTHERN ROCK"

Transcribed by: John Proach
Email: s.a.d@tumyeto.com

Verses 1&2

e|---------------------------------------------------------------------------|
B|----------------------------------(                lightly               )|
G|----------------------------------9--9--9--9--9--9--9--9--9--9--9--9--9--9-|
D|------6-----7-----9-----7-----6---9--9--9--9--9--9--9--9--9--9--9--9--9--9-|
A|--0-0---0-0---0-0---0-0---0-0---0-7--7--7--7--7--7--7--7--7--7--7--7--7--7-|
E|---------------------------------------------------------------------------|
			V1	     I cant believe my heart's still pounding

			V2	    Hard to believe my heart stopped pounding 

e|---------------------------------------------------------------------------|
B|----------------------------------(                lightly               )|
G|----------------------------------9--9--9--9--9--9--9--9--9--9--9--9--9--9-|
D|------6-----7-----9-----7-----6---9--9--9--9--9--9--9--9--9--9--9--9--9--9-|
A|--0-0---0-0---0-0---0-0---0-0---0-7--7--7--7--7--7--7--7--7--7--7--7--7--7-|
E|---------------------------------------------------------------------------|
			V1	    	I can't believe how close I came

			V2		Hard to believe I played this game 

e|---------------------------------------------------------------------------|
B|----------------------------------(                lightly               )|
G|----------------------------------9--9--9--9--9--9--9--9--9--9--9--9--9--9-|
D|------6-----7-----9-----7-----6---9--9--9--9--9--9--9--9--9--9--9--9--9--9-|
A|--0-0---0-0---0-0---0-0---0-0---0-7--7--7--7--7--7--7--7--7--7--7--7--7--7-|
E|---------------------------------------------------------------------------|
			V1		And meanwhile heaven's falling 

			V2		My worst nightmares became real 

e|---------------------------------------------------------------------------|
B|---------------------------------------------------------------------------|
G|-------------------------------------9--9--9--9--9--9--9--9--9--9--9--9--9-|
D|------6-----7-----9-9-9-9-9-9-9------9--9--9--9--9--9--9--9--9--9--9--9--9-|
A|--0-0---0-0---0-0-0-0-0-0-0-0-0------7--7--7--7--7--7--7--7--7--7--7--7--7-|
E|---------------------------------------------------------------------------|
			V1		The fallen angels flown away 

			V2		I got so scared that I forgot my name 
Chorus:
e|---------------------------------------------------------------------------|
B|---------------------------------------------------------------------------|
G|--8-8-8--------------------------------------------------------------------|
D|--x-x-x-----------------------------------9-9---9-9-9---9-9-9---9-9-9------|
A|--6-6-6---6-6-6--7-7-7--2-2-2-2--4-6------9-9---9-9-9---9-9-9---9-9-9------|
E|----------4-4-4--4-4-4--0-0-0-0--2-4------7-7---7-7-7---7-7-7---7-7-7------|
					       And that'll be me someday 

e|---------------------------------------------------------------------------|
B|---------------------------------------------------------------------------|
G|--8-8-8--------------------------------------------------------------------|
D|--x-x-x-----------------------------------9-9---9-9-9---9-9-9---9-9-9------|
A|--6-6-6---6-6-6--7-7-7--2-2-2-2--4-6------9-9---9-9-9---9-9-9---9-9-9------|
E|----------4-4-4--4-4-4--0-0-0-0--2-4------7-7---7-7-7---7-7-7---7-7-7------|
					      With stolen wings and evil ways 

e|---------------------------------------------------------------------------|
B|---------------------------------------------------------------------------|
G|--8-8-8--------------------------------------------------------------------|
D|--x-x-x-----------------------------------9-9---9-9-9---9-9-9---9-9-9------|
A|--6-6-6---6-6-6--7-7-7--2-2-2-2--4-6------9-9---9-9-9---9-9-9---9-9-9------|
E|----------4-4-4--4-4-4--0-0-0-0--2-4------7-7---7-7-7---7-7-7---7-7-7------|
				    Straight south with the keys to the pearly 
									gates 

e|---------------------------------------------------------------------------|
B|---------------------------------------------------------------------------|
G|--8-8-8--------------------------------------------------------------------|
D|--x-x-x--------------------------------------------------------------------|
A|--6-6-6---6-6-6--7-7-7--7-7-7--9-9-9---------------------------------------|
E|----------4-4-4--4-4-4--5-5-5--7-7-7---------------------------------------|

Bridge:
e|---------------------------------------------------------------------------|
B|---------------------------------------------------------------------------|
G|---------------------------------------------------------------------------|
D|--6---7---9---7-------------------------------6--7/11--9\7-----6^7---------|
A|--0---0---0---0-------7--------------------0----------------------------7--|
E|----------------------0-------------------------------------------------0--|

e|---------------------------------------------------------------------------|
B|---------------------------------------------------------------------------|
G|---(           lightly              )-------------------------------------|
D|---9-9-9-9-9--7-7-7-7--6-6-6-----------------------------------------------|
A|---0-0-0-0-0--0-0-0-0--0-0-0--7-7-7-7-------7------------------------------|
E|------------------------------0-0-0-0-------0------------------------------|

e|---------------------------------------------------------------------------|
B|---------------------------------------------------------------------------|
G|---------------------------------------------------------------------------|
D|----9-9-9-9-9-9-9-9-9-9-9-9--9--9-9-9-9-9-9-9-9-9-9-9-9-9-9-9--------------|
A|----0-0-0-0-0-0-0-0-0-0-0-0--7--7-7-7-7-7-7-7-7-7-7-7-7-7-7-7--------------|
E|---------------------------------------------------------------------------|
			       PM ************* gradually unmute
Outro:
e|---------------------------------------------------------------------------|
B|---------------------------------------------------------------------------|
G|------------------------4--44/6--66/8--88/9--------------------------------|
D|---9--999--999--999-----x--xx/x--xx/x--xx/x--------------------------------|
A|---9--999--999--999-----2--22/4--44/6--66/7--------------------------------|
E|---7--777--777--777--------------------------------------------------------|

e|---------------------------------------------------------------------------|
B|---------------------------------------------------------------------------|
G|---9-9-9-99-9/11-11--------------------------------------------------------|
D|---9-9-9-99-x/x--x----------------7-7-7------------------------------------|
A|---7-7-7-77-7/9--9-----6-6--7-77--7-7-7------------------------------------|
E|-----------------------4-4--4-44--5-5-5------------------------------------|

e|---------------------------------------------------------------------------|
B|---------------------------------------------------------------------------|
G|------------------------4--44/6--66/8--88/9--------------------------------|
D|---9--999--999--999-----x--xx/x--xx/x--xx/x--------------------------------|
A|---9--999--999--999-----2--22/4--44/6--66/7--------------------------------|
E|---7--777--777--777--------------------------------------------------------|

e|---------------------------------------------------------------------------|
B|---------------------------------------------------------------------------|
G|---9-9-9-99-9/11-11--------------------------------------------------------|
D|---9-9-9-99-x/x--x----------------7-7-7------------------------------------|
A|---7-7-7-77-7/9--9-----6-6--7-77--7-7-7------------------------------------|
E|-----------------------4-4--4-44--5-5-5------------------------------------|

e|---------------------------------------------------------------------------|
B|---------------------------------------------------------------------------|
G|------------------------4--44/6--66/8--88/9--------------------------------|
D|---9--999--999--999-----x--xx/x--xx/x--xx/x--------------------------------|
A|---9--999--999--999-----2--22/4--44/6--66/7--------------------------------|
E|---7--777--777--777--------------------------------------------------------|

e|---------------------------------------------------------------------------|
B|---------------------------------------------------------------------------|
G|---9-9-9-99-9/11-11--------------------------------------------------------|
D|---9-9-9-99-x/x--x----------------7-7-7------------------------------------|
A|---7-7-7-77-7/9--9-----6-6--7-77--7-7-7------------------------------------|
E|-----------------------4-4--4-44--5-5-5------------------------------------|

e|---------------------------------------------------------------------------|
B|---------------------------------------------------------------------------|
G|------------------------4--44/6--66/8--88/9--------------------------------|
D|---9--999--999--999-----x--xx/x--xx/x--xx/x--------------------------------|
A|---9--999--999--999-----2--22/4--44/6--66/7--------------------------------|
E|---7--777--777--777--------------------------------------------------------|

e|---------------------------------------------------------------------------|
B|---------------------------------------------------------------------------|
G|---9-9--9-9-9--9-----------------------------------------------------------|
D|---9-9--9-9-9--9-------6-6--6-7-7--7---------------------------------------|
A|---7-7--7-7-7--7-------6-6--6-7-7--7---------------------------------------|
E|-----------------------4-4--4-5-5--5---------------------------------------|

e|---------------------------------------------------------------------------|
B|---------------------------------------------------------------------------|
G|------------------------4--44/6--66/8--88/9--------------------------------|
D|---9--999--999--999-----x--xx/x--xx/x--xx/x--------------------------------|
A|---9--999--999--999-----2--22/4--44/6--66/7--------------------------------|
E|---7--777--777--777--------------------------------------------------------|

e|---------------------------------------------------------------------------|
B|---------------------------------------------------------------------------|
G|------------------------4--44/6--66/8--88/9--------------------------------|
D|---9--999--999--999-----x--xx/x--xx/x--xx/x----------------2---------------|
A|---9--999--999--999-----2--22/4--44/6--66/7----------------2---------------|
E|---7--777--777--777----------------------------------------0---------------|

verse 1
chorus
verse2
chorus
bridge
outro

__________________________________________________________________________________________
------------------------------------------------------------------------------------------
__________________________________________________________________________________________

"MESSAGE FROM KATHLENE"

Transcribed by: Dean 
Email: e_mericana@hotmail.com

intro-

e:-----------------------------------------------------------------|
b:-----------------------------------------------------------------|
g:-9-9-9-9-9-9-9-9-9-9-9-9-9-9-9-9-7-7-7-7-7-7-7-7-7-7-7-7-7-7-7-7-|
d:-6-6-6-6-6-6-6-6-7-7-7-7-7-7-7-7-7-7-7-7-7-7-7-7-6-6-6-6-6-6-6-6-|
a:-----------------------------------------------------------------|
e:-----------------------------------------------------------------|

e:-----------------------------------------------------------------|
b:-----------------------------------------------------------------|
g:-4-4-4-4-4-4-4-4-6-6-6-6-6-6-6-6-7-7-7-7-7-7-7-7-7-7-7-7-7-7-7-7-|
d:-4-4-4-4-4-4-4-4-6-6-6-6-6-6-6-6-7-7-7-7-7-7-7-7-7-7-7-7-7-7-7-7-|
a:-2-2-2-2-2-2-2-2-4-4-4-4-4-4-4-4-5-5-5-5-5-5-5-5-5-5-5-5-5-5-5-5-|
e:-----------------------------------------------------------------|

play x2
verse
e:-----------------------------------------------------------------|
b:---------------------------------3---------------3---------------|
g:-2---------------4-------2-------2---------------1---------------|
d:-2--------------------------------------------------------------|
a:-0---------------------------------------------------------------|
e:-----------------------------------------------------------------|
  
e:-----------------------------------------------------------------|
b:-----------------------------------------------------------------|
g:-4-4-4-4-4-4-4-4-6-6-6-6-6-6-6-6-7-7-7-7-7-7-7-7-7-7-7-7-7-7-7-7-|
d:-4-4-4-4-4-4-4-4-6-6-6-6-6-6-6-6-7-7-7-7-7-7-7-7-7-7-7-7-7-7-7-7-|
a:-2-2-2-2-2-2-2-2-4-4-4-4-4-4-4-4-5-5-5-5-5-5-5-5-5-5-5-5-5-5-5-5-|
e:-----------------------------------------------------------------|
  p.m..............................................................
x2

But i guess your worth the pain.....
e:-----------------------------------------------------------------|
b:-----------------------------------------------------------------|
g:-9---------------------------------------------------------------|
d:-9---------------------------------------------------------------|
a:-7---------------------------------------------------------------|
e:-----------------------------------------------------------------|
 
e:-----------------------------------------------------------------|
b:-----------------------------------------------------------------|
g:-9---------------6---------------4----------------XXXXXXXXXXXXXX-|
d:-9---------------6---------------4----------------XXXXXXXXXXXXXX-|
a:-7---------------4---------------2----------------XXXXXXXXXXXXXX-|
e:-----------------------------------------------------------------|

Chorus
Your going away.......
e:-----------------------------------------------------------------|
b:-----------------------------------------------------------------|
g:-6-6-6-6-6-6-6-6-6-6-6-6-6-6-6-6-9-9-9-9-9-9-9-9-9-9-9-9-9-9-9-9-|
d:-6-6-6-6-6-6-6-6-6-6-6-6-6-6-6-6-9-9-9-9-9-9-9-9-9-9-9-9-9-9-9-9-|
a:-4-4-4-4-4-4-4-4-4-4-4-4-4-4-4-4-7-7-7-7-7-7-7-7-7-7-7-7-7-7-7-7-|
e:-----------------------------------------------------------------|

e:-----------------------------------------------------------------|
b:-----------------------------------------------------------------|
g:---------------------------------9-9-9-9-9-9-9-9-9-9-9-9-9-9-9-9-|
d:-7-7-7-7-7-7-7-7-9-9-9-9-9-9-9-9-9-9-9-9-9-9-9-9-9-9-9-9-9-9-9-9-|
a:-7-7-7-7-7-7-7-7-9-9-9-9-9-9-9-9-7-7-7-7-7-7-7-7-7-7-7-7-7-7-7-7-|
e:-5-5-5-5-5-5-5-5-7-7-7-7-7-7-7-7---------------------------------|

e:-----------------------------------------------------------------|
b:-----------------------------------------------------------------|
g:---------------------------------9-9-9-9-8-8-8-8-6-6-6-6-6-6-6-6-|
d:-7-7-7-7-7-7-7-7-9-9-9-9-9-9-9-9-9-9-9-9-8-8-8-8-6-6-6-6-6-6-6-6-|
a:-7-7-7-7-7-7-7-7-9-9-9-9-9-9-9-9-7-7-7-7-6-6-6-6-4-4-4-4-4-4-4-4-|
e:-5-5-5-5-5-5-5-5-7-7-7-7-7-7-7-7---------------------------------|

e:---------------------------------|
b:---------------------------------|
g:-4-4-4-4-4-4-4-4-----------------|
d:-4-4-4-4-4-4-4-4-7-7-7-7-7-7-7-7-|
a:-2-2-2-2-2-2-2-2-7-7-7-7-7-7-7-7-|
e:-----------------5-5-5-5-5-5-5-5-|


                                 
e:-----------------------------------------------------------------|
b:-----------------------------------------------------------------|
g:-6-6-6-6-6-6-6-6-6-6-6-6-6-6-6-6-13-13-13-14-14-14-----9-9-9-9-9-|
d:-6-6-6-6-6-6-6-6-6-6-6-6-6-6-6-6---------------------------------||
a:-4-4-4-4-4-4-4-4-4-4-4-4-4-4-4-4-11-11-11-12-12-12-----7-7-7-7-7-|
e:-----------------------------------------------------------------|

e:-----------------------------------------------------------------|
b:-----------------------------------------------------------------|
g:-4-4-4-4-4-4-4-4-6-6-6-6-6-6-6-6---------------------------------|
d:-4-4-4-4-4-4-4-4-6-6-6-6-6-6-6-6-7-7-7-7-7-7-7-7-7-7-7-7-7-7-7-7-|
a:-2-2-2-2-2-2-2-2-4-4-4-4-4-4-4-4-7-7-7-7-7-7-7-7-7-7-7-7-7-7-7-7-|
e:---------------------------------5-5-5-5-5-5-5-5-5-5-5-5-5-5-5-5-|

x2

then-

someone.......
e:-----------------------------------------------------------------|
b:-----------------------------------------------------------------|
g:-9-9-9-9-9-9-9-9-13-13-13-11-11----------------------------------|
d:-9-9-9-9-9-9-9-9               ---7-7-7-7-7-7-7-7-7-7-7-7-7-7----|    
a:-7-7-7-7-7-7-7-7-11-11-11--9--9---7-7-7-7-7-7-7-7-7-7-7-7-7-7----|
e:----------------------------------5-5-5-5-5-5-5-5-5-5-5-5-5-5----|

e:-----------------------------------------------------------------|
b:-----------------------------------------------------------------|
g:-6-6-6-6-6-6-6-6-4-4-4-4-4-4-4-4-9-9-9-9-9-9-9-9-9-9-9-9-9-9-9-9-|
d:-6-6-6-6-6-6-6-6-4-4-4-4-4-4-4-4---------------------------------|
a:-4-4-4-4-4-4-4-4-2-2-2-2-2-2-2-2-7-7-7-7-7-7-7-7-7-7-7-7-7-7-7-7-|
e:-----------------------------------------------------------------|

x2

finish with-

e:-----------------|
b:-----------------|
g:-9------11-9-8---|
d:---------------2-|
a:-7-------9-7-6-2-|
e:---------------0-|

__________________________________________________________________________________________
------------------------------------------------------------------------------------------
__________________________________________________________________________________________

"TROUBLE BREATHING"

Transcribed by: Pieper1
Email: skater4life8118@yahoo.com

Intro
-----

e|-----------------------------------|
B|-----------------------------------|
G|-----------------------------------|    X 3
D|---------------------6---4---2---4-|  
A|---6---7---7---7---0---------------|
E|-0---0---0---0---0-----0---0---0---|

e|-----------------------------------|
B|-----------------------------------|
G|-----------------------------------|      X 1
D|---------------------6---7---9-99*-|
A|---6---7---7---7---0---------------|  *try to quickly tremelo pick
E|-0---0---0---0---0-----0---0-------|   to get that last note easier
                                
e|-------------------------------|
B|-------------------------------|
G|-------------------------------|       X 1
D|---------------------6---4---2-|  
A|---6---7---7---7---0-----------|
E|-0---0---0---0---0-----0---0---|

e|------------------------------|
B|------------------------------|
G|------------------------------|    X 1
D|------------------------------|
A|-----77---------77---------77-|
E|-9-7-55---5/9-7-55---5/9-7-55-|

e|------------------------|
B|------------------------|
G|-8888-999999------------|      X 3
D|-0000-000000--666-44-24-|
A|-6666-777777--000-00-00-|
E|-0000-000000------------|
   /\/\ /\/\/\ 
e|--------------------------|
B|--------------------------|
G|-8888-999999--------------|
D|-0000-000000--666-44-21---|    X 1
A|-6666-777777--000-00-00-2-|
E|-0000-000000------------0-|
   /\/\ /\/\/\
Verse
-----
e|-----------------------------|
B|-----------------------------|
G|-----------------------------|      X 1
D|-----------------------------|
A|----------6/7~-let ring--6-7-|
E|----------0-0~-----------0-0-|
...few times     ...a while
e|----------------------------------|
B|----------------------------------|
G|----------------------------------|     X 2
D|------------------------666-77777-|
A|--------666-77777-------000-00000-|
E|--------000-00000-----------------|
.....lucky    ...wonderful
...thought    ........told
......look    ........look
e|----------------------------------------------|
B|----------------------------------------------|
G|----------------------------------------------|       X 1   
D|---------------------------777--777--777--9999|
A|-------77--------77--------777--777--777--9999|
E|-5/9-7-55--5/9-7-55--5/9~--555--555--555--7777|
                             /\/  /\/  /\/  //// 
Chorus
------
e|------------------------------------|
B|------------------------------------|
G|-9999999999999999-------------------|    X 4
D|-9999999999999999-66666666-77777777-|
A|-7777777777777777-66666666-77777777-|
E|-0000000000000000-44444444-55555555-|

Run-up/Bridge
-------------
e|------------------------|
B|------------------------|
G|-8888-999999------------|        X 1
D|-0000-000000--666-44-24-|
A|-6666-777777--000-00-00-|
E|-0000-000000------------|
   /\/\ /\/\/\
e|--------------------------|
B|--------------------------|
G|-8888-999999--------------|
D|-0000-000000--666-44-21---|    X 1
A|-6666-777777--000-00-00-2-|
E|-0000-000000------------0-|
   /\/\ /\/\/\
Verse
-----                                               bend last note    
e|-----------------------------------------------------^-|
B|-------------------------------------99999999999999999-|
G|-------------------------------------99999999999999999-|    X 1
D|-------------------------------------77777777777777777-|
A|---------6/7~-let ring-6-7-----------------------------|
E|---------0-0~----------0-0-----------------------------|
...kill you    ...vampire ...dead inside

e|----------------------------------------------|
B|----------------------------------------------|
G|----------------------------------------------|     x 1
D|-77777777--------------------777-777-777-9999-|
A|-77777777------77~-----------777-777-777-9999-|
E|-555555555/9-7-55~--5/9-11~--555-555-555-7777-|
                               /\/ /\/ /\/ ////
Chorus
------
e|------------------------------------|
B|------------------------------------|
G|-9999999999999999-------------------|          X 4
D|-9999999999999999-66666666-77777777-|
A|-7777777777777777-66666666-77777777-|
E|-0000000000000000-44444444-55555555-|

Outro
-----
e|----------------------------------------------|
B|----------------------------------------------|
G|------------------------------99-99-77-77-5-5-|       X 3
D|-11xxxx999-11xxxx999/---------99-99-77-77-5-5-|
A|-11xxxx999-11xxxx999/slide up-77-77-55-55-3-3-|
E|--9xxxx777--9xxxx777/-------------------------|
        /\/        /\/

e|-------------------------------------------------|       X1
B|-------------------------------------------------|Hold last chord
G|------------------------------99-99-77-77-5-5*9~-|but try to slowly
D|-11xxxx999-11xxxx999/---------99-99-77-77-5-5*9~-|lift your middle finger
A|-11xxxx999-11xxxx999/slide up-77-77-55-55-3-3*7~-|to get the effect at
E|--9xxxx777--9xxxx777/----------------------------|the end
        /\/        /\/

__________________________________________________________________________________________
------------------------------------------------------------------------------------------
__________________________________________________________________________________________

"SORRY ABOUT THAT"

Transcribed by: Mikey G
Email: Americana1987@hotmail.com


Intro/Verse
----------------------------------------|
----------------------------------------|
-2-2-2-2---1-1-1h2-1----7-7-7-7-7-7-7---|
-2-2-2-2---2-2-2-2-2----7-7-7-7-7-7-7---|
-0-0-0-0---2-2-2-2-2----5-5-5-5-5-5-5---|
-----------0-0-0-0-0--------------------|

Chorus: "Maybe I just set aside.." 
---------------------------------------------|
---------------------------------------------|
-2-2-2-2---6-6-6-6-------------1-1-1-2-2-2---|
-2-2-2-2---6-6-6-6---4-4-4-4---2-2-2-2-2-2---|
-0-0-0-0---4-4-4-4---4-4-4-4---2-2-2-2-2-2---|
---------------------2-2-2-2---0-0-0-0-0-0---|

------------------------------------------|
------------------------------------------|
-2-2-2-2---7-7-7-7---9-9-9-9--7-7/6/4-4---|
-2-2-2-2---7-7-7-7---x-x-x-x--x-x/x/x-x---|
-0-0-0-0---5-5-5-5---7-7-7-7--5-5/4/2-2---|
------------------------------------------|

Outro:
------------------------------------|
------------------------------------|
-2-2-2-4-4-4-2-2---9-9-9-9-9-9-9----|
-2-2-2-2-2-2-2-2---9-9-9-9-9-9-9----|
-0-0-0-0-0-0-0-0---7-7-7-7-7-7-7----|
------------------------------------|

------------------------------------|
------------------------------------|
-2-2-2-4-4-4-2-2---9-9-9--7-7-7-----|
-2-2-2-2-2-2-2-2---9-9-9--7-7-7-----|
-0-0-0-0-0-0-0-0---7-7-7--5-5-5-----|
------------------------------------|

------------------------------------|
------------------------------------|
-2-2-2-4-4-4-2-2---9-9-9-9-9-9-9----|
-2-2-2-2-2-2-2-2---9-9-9-9-9-9-9----|
-0-0-0-0-0-0-0-0---7-7-7-7-7-7-7----|
------------------------------------|

----------------------------------------------------|
----------------------------------------------------|
-2-2-2-4-4-4-2-2---9-9-9-9---9-9-9-9--7-7--6\4--2---|
-2-2-2-2-2-2-2-2---9-9-9-9---x-x-x-x--x-x--x\x--2---|
-0-0-0-0-0-0-0-0---7-7-7-7---7-7-7-7--5-5--4\2--0---|
----------------------------------------------------|

Intro/Verse 10x
Chorus 2x
Intro/Verse 6x
Chorus 2x
Outro
__________________________________________________________________________________________
------------------------------------------------------------------------------------------
__________________________________________________________________________________________

| /  Slide Down
| \  Slide up
| h  Hammer-on
| p  Pull-off
| ~  Vibrato
| +  Harmonic
| x  Mute note
| /  If underneath a chord it means to "downstrum"
| \  If underneath a chord it means to "upstrum"
| *  Look for a footnote nearby
============================================================================
comments
print report bad tab
I want to post or [tab]
guest
You may want to rate the tab now too:
select rating
Please do not post tabs as comments. Select "correction" instead!